  0
SECTION
  2
HEADER
  9
$ACADVER
  1
AC1015
  9
$ACADMAINTVER
 70
     6
  9
$DWGCODEPAGE
  3
DOS850
  9
$INSBASE
 10
0.0
 20
0.0
 30
0.0
  9
$EXTMIN
 10
0.0
 20
0.0
 30
0.0
  9
$EXTMAX
 10
297.0
 20
210.0
 30
0.0
  9
$LIMMIN
 10
0.0
 20
0.0
  9
$LIMMAX
 10
297.0
 20
210.0
  9
$ORTHOMODE
 70
     0
  9
$REGENMODE
 70
     1
  9
$FILLMODE
 70
     1
  9
$QTEXTMODE
 70
     0
  9
$MIRRTEXT
 70
     1
  9
$LTSCALE
 40
25.4
  9
$ATTMODE
 70
     1
  9
$TEXTSIZE
 40
3.5
  9
$TRACEWID
 40
0.05
  9
$TEXTSTYLE
  7
Standard
  9
$CLAYER
  8
0
  9
$CELTYPE
  6
Continuous
  9
$CECOLOR
 62
   256
  9
$CELTSCALE
 40
1.0
  9
$DISPSILH
 70
     0
  9
$DIMSCALE
 40
1.0
  9
$DIMASZ
 40
5.0
  9
$DIMEXO
 40
3.0
  9
$DIMDLI
 40
0.38
  9
$DIMRND
 40
0.0
  9
$DIMDLE
 40
0.0
  9
$DIMEXE
 40
2.0
  9
$DIMTP
 40
0.0
  9
$DIMTM
 40
0.0
  9
$DIMTXT
 40
3.5
  9
$DIMCEN
 40
4.0
  9
$DIMTSZ
 40
0.0
  9
$DIMTOL
 70
     0
  9
$DIMLIM
 70
     0
  9
$DIMTIH
 70
     1
  9
$DIMTOH
 70
     1
  9
$DIMSE1
 70
     0
  9
$DIMSE2
 70
     0
  9
$DIMTAD
 70
     0
  9
$DIMZIN
 70
     0
  9
$DIMBLK
  1

  9
$DIMASO
 70
     1
  9
$DIMSHO
 70
     1
  9
$DIMPOST
  1

  9
$DIMAPOST
  1

  9
$DIMALT
 70
     0
  9
$DIMALTD
 70
     2
  9
$DIMALTF
 40
25.4
  9
$DIMLFAC
 40
1.0
  9
$DIMTOFL
 70
     0
  9
$DIMTVP
 40
0.0
  9
$DIMTIX
 70
     0
  9
$DIMSOXD
 70
     0
  9
$DIMSAH
 70
     0
  9
$DIMBLK1
  1

  9
$DIMBLK2
  1

  9
$DIMSTYLE
  2
Standard
  9
$DIMCLRD
 70
     0
  9
$DIMCLRE
 70
     0
  9
$DIMCLRT
 70
     0
  9
$DIMTFAC
 40
1.0
  9
$DIMGAP
 40
1.0
  9
$DIMJUST
 70
     0
  9
$DIMSD1
 70
     0
  9
$DIMSD2
 70
     0
  9
$DIMTOLJ
 70
     1
  9
$DIMTZIN
 70
     0
  9
$DIMALTZ
 70
     0
  9
$DIMALTTZ
 70
     0
  9
$DIMUPT
 70
     0
  9
$DIMDEC
 70
     4
  9
$DIMTDEC
 70
     4
  9
$DIMALTU
 70
     2
  9
$DIMALTTD
 70
     2
  9
$DIMTXSTY
  7
Standard
  9
$DIMAUNIT
 70
     0
  9
$DIMADEC
 70
     0
  9
$DIMALTRND
 40
0.0
  9
$DIMAZIN
 70
     0
  9
$DIMDSEP
 70
     0
  9
$DIMATFIT
 70
     3
  9
$DIMFRAC
 70
     0
  9
$DIMLDRBLK
  1

  9
$DIMLUNIT
 70
     2
  9
$DIMLWD
 70
     0
  9
$DIMLWE
 70
     0
  9
$DIMTMOVE
 70
     0
  9
$LUNITS
 70
     2
  9
$LUPREC
 70
     4
  9
$SKETCHINC
 40
0.1
  9
$FILLETRAD
 40
0.0
  9
$AUNITS
 70
     0
  9
$AUPREC
 70
     0
  9
$MENU
  1
acad
  9
$ELEVATION
 40
0.0
  9
$PELEVATION
 40
0.0
  9
$THICKNESS
 40
0.0
  9
$LIMCHECK
 70
     0
  9
$CHAMFERA
 40
0.0
  9
$CHAMFERB
 40
0.0
  9
$CHAMFERC
 40
0.0
  9
$CHAMFERD
 40
0.0
  9
$SKPOLY
 70
     0
  9
$TDCREATE
 40
0.000000000
  9
$TDUCREATE
 40
0.000000000
  9
$TDUPDATE
 40
0.000000000
  9
$TDUUPDATE
 40
0.000000000
  9
$TDINDWG
 40
0.0000000000
  9
$TDUSRTIMER
 40
0.0000000000
  9
$USRTIMER
 70
     1
  9
$ANGBASE
 50
0.0
  9
$ANGDIR
 70
     0
  9
$PDMODE
 70
     0
  9
$PDSIZE
 40
0.0
  9
$PLINEWID
 40
0.0
  9
$SPLFRAME
 70
     0
  9
$SPLINETYPE
 70
     6
  9
$SPLINESEGS
 70
     8
  9
$HANDSEED
  5
626
  9
$SURFTAB1
 70
     6
  9
$SURFTAB2
 70
     6
  9
$SURFTYPE
 70
     6
  9
$SURFU
 70
     6
  9
$SURFV
 70
     6
  9
$UCSBASE
  2

  9
$UCSNAME
  2

  9
$UCSORG
 10
0.0
 20
0.0
 30
0.0
  9
$UCSXDIR
 10
1.0
 20
0.0
 30
0.0
  9
$UCSYDIR
 10
0.0
 20
1.0
 30
0.0
  9
$UCSORTHOREF
  2

  9
$UCSORTHOVIEW
 70
     0
  9
$UCSORGTOP
 10
0.0
 20
0.0
 30
0.0
  9
$UCSORGBOTTOM
 10
0.0
 20
0.0
 30
0.0
  9
$UCSORGLEFT
 10
0.0
 20
0.0
 30
0.0
  9
$UCSORGRIGHT
 10
0.0
 20
0.0
 30
0.0
  9
$UCSORGFRONT
 10
0.0
 20
0.0
 30
0.0
  9
$UCSORGBACK
 10
0.0
 20
0.0
 30
0.0
  9
$PUCSBASE
  2

  9
$PUCSNAME
  2

  9
$PUCSORG
 10
0.0
 20
0.0
 30
0.0
  9
$PUCSXDIR
 10
1.0
 20
0.0
 30
0.0
  9
$PUCSYDIR
 10
0.0
 20
1.0
 30
0.0
  9
$PUCSORTHOREF
  2

  9
$PUCSORTHOVIEW
 70
     0
  9
$PUCSORGTOP
 10
0.0
 20
0.0
 30
0.0
  9
$PUCSORGBOTTOM
 10
0.0
 20
0.0
 30
0.0
  9
$PUCSORGLEFT
 10
0.0
 20
0.0
 30
0.0
  9
$PUCSORGRIGHT
 10
0.0
 20
0.0
 30
0.0
  9
$PUCSORGFRONT
 10
0.0
 20
0.0
 30
0.0
  9
$PUCSORGBACK
 10
0.0
 20
0.0
 30
0.0
  9
$USERI1
 70
     0
  9
$USERI2
 70
     0
  9
$USERI3
 70
     0
  9
$USERI4
 70
     0
  9
$USERI5
 70
     0
  9
$USERR1
 40
0.0
  9
$USERR2
 40
0.0
  9
$USERR3
 40
0.0
  9
$USERR4
 40
0.0
  9
$USERR5
 40
0.0
  9
$WORLDVIEW
 70
     1
  9
$SHADEDGE
 70
     3
  9
$SHADEDIF
 70
    70
  9
$TILEMODE
 70
     1
  9
$MAXACTVP
 70
    16
  9
$PINSBASE
 10
0.0
 20
0.0
 30
0.0
  9
$PLIMCHECK
 70
     0
  9
$PEXTMIN
 10
1.000000E+20
 20
1.000000E+20
 30
1.000000E+20
  9
$PEXTMAX
 10
-1.000000E+20
 20
-1.000000E+20
 30
-1.000000E+20
  9
$PLIMMIN
 10
0.0
 20
0.0
  9
$PLIMMAX
 10
297.0
 20
210.0
  9
$UNITMODE
 70
     0
  9
$VISRETAIN
 70
     0
  9
$PLINEGEN
 70
     1
  9
$PSLTSCALE
 70
     0
  9
$TREEDEPTH
 70
  3020
  9
$CMLSTYLE
  2
Standard
  9
$CMLJUST
 70
     0
  9
$CMLSCALE
 40
1.0
  9
$PROXYGRAPHICS
 70
     0
  9
$MEASUREMENT
 70
     0
  9
$CELWEIGHT
370
     0
  9
$ENDCAPS
280
     0
  9
$JOINSTYLE
280
     0
  9
$LWDISPLAY
290
     0
  9
$INSUNITS
 70
     0
  9
$HYPERLINKBASE
  1

  9
$XEDIT
290
     1
  9
$CEPSNTYPE
380
     0
  9
$PSTYLEMODE
290
     0
  9
$FINGERPRINTGUID
  2

  9
$VERSIONGUID
  2

  9
$EXTNAMES
290
     1
  9
$PSVPSCALE
 40
0.0
  0
ENDSEC
  0
SECTION
  2
CLASSES
  0
CLASS
  1
LWPOLYLINE
  2
AcDbPolyline
  3
"AutoCAD"
 90
        0
280
     0
281
     1
  0
CLASS
  1
IMAGE
  2
AcDbRasterImage
  3
ISM
 90
      127
280
     0
281
     1
  0
CLASS
  1
OLE2FRAME
  2
AcDbOle2Frame
  3
""
 90
        0
280
     0
281
     1
  0
CLASS
  1
HATCH
  2
AcDbHatch
  3
"ACAD_SEDONA"
 90
        0
280
     0
281
     1
  0
CLASS
  1
DICTIONARYVAR
  2
AcDbDictionaryVar
  3
"AutoCAD"
 90
        0
280
     0
281
     0
  0
CLASS
  1
RASTERVARIABLES
  2
AcDbRasterVariables
  3
ISM
 90
        0
280
     0
281
     0
  0
CLASS
  1
IMAGEDEF
  2
AcDbRasterImageDef
  3
ISM
 90
        0
280
     0
281
     0
  0
CLASS
  1
IMAGEDEF_REACTOR
  2
AcDbRasterImageDefReactor
  3
ISM
 90
        1
280
     0
281
     0
  0
CLASS
  1
IDBUFFER
  2
AcDbIdBuffer
  3
"Acad"
 90
        0
280
     0
281
     0
  0
CLASS
  1
SPATIAL_FILTER
  2
AcDbSpatialFilter
  3
"Acad"
 90
        0
280
     0
281
     0
  0
CLASS
  1
XRECORD
  2
AcDbXrecord
  3
"<Built In>"
 90
        0
280
     0
281
     0
  0
CLASS
  1
SORTENTSTABLE
  2
AcDbSortentsTable
  3
"AutoCAD"
 90
        0
280
     0
281
     0
  0
CLASS
  1
LAYER_INDEX
  2
AcDbLayerIndex
  3
"Acad"
 90
        0
280
     0
281
     0
  0
CLASS
  1
SPATIAL_INDEX
  2
AcDbSpatialIndex
  3
"Acad"
 90
        0
280
     0
281
     0
  0
CLASS
  1
OBJECT_PTR
  2
CAseDLPNTableRecord
  3
"ASE-LPNTableRecord"
 90
        1
280
     0
281
     0
  0
CLASS
  1
LAYOUT
  2
AcDbLayout
  3
"AutoCAD 2000"
 90
        1
280
     0
281
     0
  0
CLASS
  1
PLOTSETTINGS
  2
AcDbPlotSettings
  3
"AutoCAD 2000"
 90
        1
280
     0
281
     0
  0
CLASS
  1
ACDBDICTIONARYWDFLT
  2
AcDbDictionaryWithDefault
  3
"AutoCAD 2000"
 90
        1
280
     0
281
     0
  0
CLASS
  1
ACDBPLACEHOLDER
  2
AcDbPlaceHolder
  3
"AutoCAD 2000"
 90
        1
280
     0
281
     0
  0
CLASS
  1
VBA_PROJECT
  2
AcDbVbaProject
  3
"acadvba"
 90
        1
280
     0
281
     0
  0
CLASS
  1
WIPEOUT
  2
AcDbWipeout
  3
WipeOut|AutoCAD Express Tool|expresstools@autodesk.com
 90
      127
280
     0
281
     1
  0
CLASS
  1
WIPEOUTVARIABLES
  2
AcDbWipeoutVariables
  3
WipeOut|AutoCAD Express Tool|expresstools@autodesk.com
 90
        0
280
     0
281
     0
  0
CLASS
  1
RTEXT
  2
RText
  3
RText|AutoCAD Express Tool|expresstools@autodesk.com
 90
        0
280
     0
281
     1
  0
CLASS
  1
ARCALIGNEDTEXT
  2
AcDbArcAlignedText
  3
ATEXT|AutoCAD Express Tool|expresstools@autodesk.com
 90
        0
280
     0
281
     1
  0
ENDSEC
  0
SECTION
  2
TABLES
  0
TABLE
  2
VPORT
  5
7
100
AcDbSymbolTable
 70
     1
  0
VPORT
  5
15
100
AcDbSymbolTableRecord
100
AcDbViewportTableRecord
  2
*ACTIVE
 70
     0
 10
0.0
 20
0.0
 11
1.0
 21
1.0
 12
6.591288
 22
4.579184
 13
0.0
 23
0.0
 14
1.0
 24
1.0
 15
0.0
 25
0.0
 16
0.0
 26
0.0
 36
1.0
 17
0.0
 27
0.0
 37
0.0
 40
9.158369
 41
0.688564
 42
50.0
 43
0.0
 44
0.0
 50
0.0
 51
0.0
 71
     0
 72
   100
 73
     1
 74
     1
 75
     0
 76
     0
 77
     0
 78
     0
281
     0
 65
     0
110
0.0
120
0.0
130
0.0
111
1.0
121
0.0
131
0.0
112
0.0
122
1.0
132
0.0
345
0
346
0
 79
     0
146
0.0
  0
ENDTAB
  0
TABLE
  2
LTYPE
  5
4
100
AcDbSymbolTable
 70
     7
  0
LTYPE
  5
11
100
AcDbSymbolTableRecord
100
AcDbLinetypeTableRecord
  2
ByBlock
 70
    64
  3

 72
    65
 73
     0
 40
0.0
  0
LTYPE
  5
12
100
AcDbSymbolTableRecord
100
AcDbLinetypeTableRecord
  2
ByLayer
 70
    64
  3

 72
    65
 73
     0
 40
0.0
  0
LTYPE
  5
13
100
AcDbSymbolTableRecord
100
AcDbLinetypeTableRecord
  2
Continuous
 70
    64
  3
Solid line
 72
    65
 73
     0
 40
0.0
  0
LTYPE
  5
24
100
AcDbSymbolTableRecord
100
AcDbLinetypeTableRecord
  2
HIDDEN
 70
    64
  3
_ _ _ _ _ _ _ _ _ _ _ _ _ _ _ _ _ _ _ _ _ _ _ _
 72
    65
 73
     2
 40
0.1875
 49
0.125
 74
     0
 49
-0.0625
 74
     0
  0
LTYPE
  5
25
100
AcDbSymbolTableRecord
100
AcDbLinetypeTableRecord
  2
DOTTED
 70
    64
  3
...............................................
 72
    65
 73
     2
 40
0.125
 49
0.0
 74
     0
 49
-0.125
 74
     0
  0
LTYPE
  5
26
100
AcDbSymbolTableRecord
100
AcDbLinetypeTableRecord
  2
CENTER
 70
    64
  3
____ _ ____ _ ____ _ ____ _ ____ _ ____ _ ____ 
 72
    65
 73
     4
 40
1.125
 49
0.75
 74
     0
 49
-0.125
 74
     0
 49
0.125
 74
     0
 49
-0.125
 74
     0
  0
LTYPE
  5
27
100
AcDbSymbolTableRecord
100
AcDbLinetypeTableRecord
  2
PHANTOM
 70
    64
  3
______  __  __  ______  __  __  ______  __  __ 
 72
    65
 73
     6
 40
1.25
 49
0.625
 74
     0
 49
-0.125
 74
     0
 49
0.125
 74
     0
 49
-0.125
 74
     0
 49
0.125
 74
     0
 49
-0.125
 74
     0
  0
ENDTAB
  0
TABLE
  2
LAYER
  5
2
100
AcDbSymbolTable
 70
     2
  0
LAYER
  5
14
100
AcDbSymbolTableRecord
100
AcDbLayerTableRecord
  2
0
 70
     0
 62
     7
  6
Continuous
290
     1
370
    -3
390
1D
  0
LAYER
  5
28
100
AcDbSymbolTableRecord
100
AcDbLayerTableRecord
  2
TEXT
 70
     0
 62
     8
  6
Continuous
290
     1
370
    -3
390
1F
  0
ENDTAB
  0
TABLE
  2
STYLE
  5
3
100
AcDbSymbolTable
 70
     1
  0
STYLE
  5
17
100
AcDbSymbolTableRecord
100
AcDbTextStyleTableRecord
  2
Standard
 70
     0
 40
0.0
 41
1.0
 50
0.0
 71
     0
 42
0.0
  3
txt
  4

  0
ENDTAB
  0
TABLE
  2
VIEW
  5
5
100
AcDbSymbolTable
 70
     0
  0
ENDTAB
  0
TABLE
  2
UCS
  5
6
100
AcDbSymbolTable
 70
     0
  0
ENDTAB
  0
TABLE
  2
APPID
  5
8
100
AcDbSymbolTable
 70
     1
  0
APPID
  5
16
100
AcDbSymbolTableRecord
100
AcDbRegAppTableRecord
  2
ACAD
 70
     0
  0
ENDTAB
  0
TABLE
  2
DIMSTYLE
  5
9
100
AcDbSymbolTable
 70
     1
100
AcDbDimStyleTable
 71
     0
  0
DIMSTYLE
105
18
100
AcDbSymbolTableRecord
100
AcDbDimStyleTableRecord
  2
Standard
 70
     0
  3

  4

 40
1.0
 41
0.18
 42
0.0625
 43
0.38
 44
0.18
 45
0.0
 46
0.0
 47
0.0
 48
0.0
 71
     0
 72
     0
 73
     1
 74
     1
 75
     0
 76
     0
 77
     0
 78
     0
 79
     0
140
0.18
141
0.09
142
0.0
143
25.4
144
1.0
145
0.0
146
1.0
147
0.09
148
0.0
170
     0
171
     2
172
     0
173
     0
174
     0
175
     0
176
     0
177
     0
178
     0
179
     0
271
     4
272
     4
273
     2
274
     2
275
     0
276
     0
277
     2
278
    46
279
     0
280
     0
281
     0
282
     0
283
     1
284
     0
285
     0
286
     0
288
     0
340
17
341
0
342
0
343
0
344
0
371
    -2
372
    -2
  0
ENDTAB
  0
TABLE
  2
BLOCK_RECORD
  5
1
100
AcDbSymbolTable
 70
   101
  0
BLOCK_RECORD
  5
A
100
AcDbSymbolTableRecord
100
AcDbBlockTableRecord
  2
*MODEL_SPACE
340
20
  0
BLOCK_RECORD
  5
B
100
AcDbSymbolTableRecord
100
AcDbBlockTableRecord
  2
*PAPER_SPACE
340
21
  0
BLOCK_RECORD
  5
29
100
AcDbSymbolTableRecord
100
AcDbBlockTableRecord
  2
*B0
340
0
  0
BLOCK_RECORD
  5
2C
100
AcDbSymbolTableRecord
100
AcDbBlockTableRecord
  2
*B1
340
0
  0
BLOCK_RECORD
  5
249
100
AcDbSymbolTableRecord
100
AcDbBlockTableRecord
  2
*B2
340
0
  0
BLOCK_RECORD
  5
377
100
AcDbSymbolTableRecord
100
AcDbBlockTableRecord
  2
*B3
340
0
  0
BLOCK_RECORD
  5
37D
100
AcDbSymbolTableRecord
100
AcDbBlockTableRecord
  2
*B4
340
0
  0
BLOCK_RECORD
  5
388
100
AcDbSymbolTableRecord
100
AcDbBlockTableRecord
  2
*B5
340
0
  0
BLOCK_RECORD
  5
38B
100
AcDbSymbolTableRecord
100
AcDbBlockTableRecord
  2
*B6
340
0
  0
BLOCK_RECORD
  5
392
100
AcDbSymbolTableRecord
100
AcDbBlockTableRecord
  2
*B7
340
0
  0
BLOCK_RECORD
  5
399
100
AcDbSymbolTableRecord
100
AcDbBlockTableRecord
  2
*B8
340
0
  0
BLOCK_RECORD
  5
3A0
100
AcDbSymbolTableRecord
100
AcDbBlockTableRecord
  2
*B9
340
0
  0
BLOCK_RECORD
  5
3A7
100
AcDbSymbolTableRecord
100
AcDbBlockTableRecord
  2
*B10
340
0
  0
BLOCK_RECORD
  5
3AE
100
AcDbSymbolTableRecord
100
AcDbBlockTableRecord
  2
*B11
340
0
  0
BLOCK_RECORD
  5
3B5
100
AcDbSymbolTableRecord
100
AcDbBlockTableRecord
  2
*B12
340
0
  0
BLOCK_RECORD
  5
3BC
100
AcDbSymbolTableRecord
100
AcDbBlockTableRecord
  2
*B13
340
0
  0
BLOCK_RECORD
  5
3C3
100
AcDbSymbolTableRecord
100
AcDbBlockTableRecord
  2
*B14
340
0
  0
BLOCK_RECORD
  5
3CA
100
AcDbSymbolTableRecord
100
AcDbBlockTableRecord
  2
*B15
340
0
  0
BLOCK_RECORD
  5
3D1
100
AcDbSymbolTableRecord
100
AcDbBlockTableRecord
  2
*B16
340
0
  0
BLOCK_RECORD
  5
3D8
100
AcDbSymbolTableRecord
100
AcDbBlockTableRecord
  2
*B17
340
0
  0
BLOCK_RECORD
  5
3DF
100
AcDbSymbolTableRecord
100
AcDbBlockTableRecord
  2
*B18
340
0
  0
BLOCK_RECORD
  5
3E6
100
AcDbSymbolTableRecord
100
AcDbBlockTableRecord
  2
*B19
340
0
  0
BLOCK_RECORD
  5
3ED
100
AcDbSymbolTableRecord
100
AcDbBlockTableRecord
  2
*B20
340
0
  0
BLOCK_RECORD
  5
3F4
100
AcDbSymbolTableRecord
100
AcDbBlockTableRecord
  2
*B21
340
0
  0
BLOCK_RECORD
  5
3FB
100
AcDbSymbolTableRecord
100
AcDbBlockTableRecord
  2
*B22
340
0
  0
BLOCK_RECORD
  5
402
100
AcDbSymbolTableRecord
100
AcDbBlockTableRecord
  2
*B23
340
0
  0
BLOCK_RECORD
  5
409
100
AcDbSymbolTableRecord
100
AcDbBlockTableRecord
  2
*B24
340
0
  0
BLOCK_RECORD
  5
410
100
AcDbSymbolTableRecord
100
AcDbBlockTableRecord
  2
*B25
340
0
  0
BLOCK_RECORD
  5
416
100
AcDbSymbolTableRecord
100
AcDbBlockTableRecord
  2
*B26
340
0
  0
BLOCK_RECORD
  5
422
100
AcDbSymbolTableRecord
100
AcDbBlockTableRecord
  2
*B27
340
0
  0
BLOCK_RECORD
  5
427
100
AcDbSymbolTableRecord
100
AcDbBlockTableRecord
  2
*B28
340
0
  0
BLOCK_RECORD
  5
432
100
AcDbSymbolTableRecord
100
AcDbBlockTableRecord
  2
*B29
340
0
  0
BLOCK_RECORD
  5
43A
100
AcDbSymbolTableRecord
100
AcDbBlockTableRecord
  2
*B30
340
0
  0
BLOCK_RECORD
  5
445
100
AcDbSymbolTableRecord
100
AcDbBlockTableRecord
  2
*B31
340
0
  0
BLOCK_RECORD
  5
44A
100
AcDbSymbolTableRecord
100
AcDbBlockTableRecord
  2
*B32
340
0
  0
BLOCK_RECORD
  5
44F
100
AcDbSymbolTableRecord
100
AcDbBlockTableRecord
  2
*B33
340
0
  0
BLOCK_RECORD
  5
454
100
AcDbSymbolTableRecord
100
AcDbBlockTableRecord
  2
*B34
340
0
  0
BLOCK_RECORD
  5
459
100
AcDbSymbolTableRecord
100
AcDbBlockTableRecord
  2
*B35
340
0
  0
BLOCK_RECORD
  5
45E
100
AcDbSymbolTableRecord
100
AcDbBlockTableRecord
  2
*B36
340
0
  0
BLOCK_RECORD
  5
464
100
AcDbSymbolTableRecord
100
AcDbBlockTableRecord
  2
*B37
340
0
  0
BLOCK_RECORD
  5
48D
100
AcDbSymbolTableRecord
100
AcDbBlockTableRecord
  2
*B38
340
0
  0
BLOCK_RECORD
  5
492
100
AcDbSymbolTableRecord
100
AcDbBlockTableRecord
  2
*B39
340
0
  0
BLOCK_RECORD
  5
497
100
AcDbSymbolTableRecord
100
AcDbBlockTableRecord
  2
*B40
340
0
  0
BLOCK_RECORD
  5
4A1
100
AcDbSymbolTableRecord
100
AcDbBlockTableRecord
  2
*B41
340
0
  0
BLOCK_RECORD
  5
4A7
100
AcDbSymbolTableRecord
100
AcDbBlockTableRecord
  2
*B42
340
0
  0
BLOCK_RECORD
  5
4AC
100
AcDbSymbolTableRecord
100
AcDbBlockTableRecord
  2
*B43
340
0
  0
BLOCK_RECORD
  5
4B2
100
AcDbSymbolTableRecord
100
AcDbBlockTableRecord
  2
*B44
340
0
  0
BLOCK_RECORD
  5
4B8
100
AcDbSymbolTableRecord
100
AcDbBlockTableRecord
  2
*B45
340
0
  0
BLOCK_RECORD
  5
4BE
100
AcDbSymbolTableRecord
100
AcDbBlockTableRecord
  2
*B46
340
0
  0
BLOCK_RECORD
  5
4EF
100
AcDbSymbolTableRecord
100
AcDbBlockTableRecord
  2
*B47
340
0
  0
BLOCK_RECORD
  5
4F4
100
AcDbSymbolTableRecord
100
AcDbBlockTableRecord
  2
*B48
340
0
  0
BLOCK_RECORD
  5
4FF
100
AcDbSymbolTableRecord
100
AcDbBlockTableRecord
  2
*B49
340
0
  0
BLOCK_RECORD
  5
507
100
AcDbSymbolTableRecord
100
AcDbBlockTableRecord
  2
*B50
340
0
  0
BLOCK_RECORD
  5
50D
100
AcDbSymbolTableRecord
100
AcDbBlockTableRecord
  2
*B51
340
0
  0
BLOCK_RECORD
  5
512
100
AcDbSymbolTableRecord
100
AcDbBlockTableRecord
  2
*B52
340
0
  0
BLOCK_RECORD
  5
51D
100
AcDbSymbolTableRecord
100
AcDbBlockTableRecord
  2
*B53
340
0
  0
BLOCK_RECORD
  5
529
100
AcDbSymbolTableRecord
100
AcDbBlockTableRecord
  2
*B54
340
0
  0
BLOCK_RECORD
  5
52F
100
AcDbSymbolTableRecord
100
AcDbBlockTableRecord
  2
*B55
340
0
  0
BLOCK_RECORD
  5
534
100
AcDbSymbolTableRecord
100
AcDbBlockTableRecord
  2
*B56
340
0
  0
BLOCK_RECORD
  5
539
100
AcDbSymbolTableRecord
100
AcDbBlockTableRecord
  2
*B57
340
0
  0
BLOCK_RECORD
  5
53E
100
AcDbSymbolTableRecord
100
AcDbBlockTableRecord
  2
*B58
340
0
  0
BLOCK_RECORD
  5
545
100
AcDbSymbolTableRecord
100
AcDbBlockTableRecord
  2
*B59
340
0
  0
BLOCK_RECORD
  5
54A
100
AcDbSymbolTableRecord
100
AcDbBlockTableRecord
  2
*B60
340
0
  0
BLOCK_RECORD
  5
550
100
AcDbSymbolTableRecord
100
AcDbBlockTableRecord
  2
*B61
340
0
  0
BLOCK_RECORD
  5
555
100
AcDbSymbolTableRecord
100
AcDbBlockTableRecord
  2
*B62
340
0
  0
BLOCK_RECORD
  5
560
100
AcDbSymbolTableRecord
100
AcDbBlockTableRecord
  2
*B63
340
0
  0
BLOCK_RECORD
  5
566
100
AcDbSymbolTableRecord
100
AcDbBlockTableRecord
  2
*B64
340
0
  0
BLOCK_RECORD
  5
56C
100
AcDbSymbolTableRecord
100
AcDbBlockTableRecord
  2
*B65
340
0
  0
BLOCK_RECORD
  5
572
100
AcDbSymbolTableRecord
100
AcDbBlockTableRecord
  2
*B66
340
0
  0
BLOCK_RECORD
  5
578
100
AcDbSymbolTableRecord
100
AcDbBlockTableRecord
  2
*B67
340
0
  0
BLOCK_RECORD
  5
57E
100
AcDbSymbolTableRecord
100
AcDbBlockTableRecord
  2
*B68
340
0
  0
BLOCK_RECORD
  5
584
100
AcDbSymbolTableRecord
100
AcDbBlockTableRecord
  2
*B69
340
0
  0
BLOCK_RECORD
  5
58A
100
AcDbSymbolTableRecord
100
AcDbBlockTableRecord
  2
*B70
340
0
  0
BLOCK_RECORD
  5
590
100
AcDbSymbolTableRecord
100
AcDbBlockTableRecord
  2
*B71
340
0
  0
BLOCK_RECORD
  5
595
100
AcDbSymbolTableRecord
100
AcDbBlockTableRecord
  2
*B72
340
0
  0
BLOCK_RECORD
  5
59A
100
AcDbSymbolTableRecord
100
AcDbBlockTableRecord
  2
*B73
340
0
  0
BLOCK_RECORD
  5
59F
100
AcDbSymbolTableRecord
100
AcDbBlockTableRecord
  2
*B74
340
0
  0
BLOCK_RECORD
  5
5A4
100
AcDbSymbolTableRecord
100
AcDbBlockTableRecord
  2
*B75
340
0
  0
BLOCK_RECORD
  5
5A9
100
AcDbSymbolTableRecord
100
AcDbBlockTableRecord
  2
*B76
340
0
  0
BLOCK_RECORD
  5
5AE
100
AcDbSymbolTableRecord
100
AcDbBlockTableRecord
  2
*B77
340
0
  0
BLOCK_RECORD
  5
5B3
100
AcDbSymbolTableRecord
100
AcDbBlockTableRecord
  2
*B78
340
0
  0
BLOCK_RECORD
  5
5B8
100
AcDbSymbolTableRecord
100
AcDbBlockTableRecord
  2
*B79
340
0
  0
BLOCK_RECORD
  5
5BD
100
AcDbSymbolTableRecord
100
AcDbBlockTableRecord
  2
*B80
340
0
  0
BLOCK_RECORD
  5
5C2
100
AcDbSymbolTableRecord
100
AcDbBlockTableRecord
  2
*B81
340
0
  0
BLOCK_RECORD
  5
5C7
100
AcDbSymbolTableRecord
100
AcDbBlockTableRecord
  2
*B82
340
0
  0
BLOCK_RECORD
  5
5CC
100
AcDbSymbolTableRecord
100
AcDbBlockTableRecord
  2
*B83
340
0
  0
BLOCK_RECORD
  5
5D1
100
AcDbSymbolTableRecord
100
AcDbBlockTableRecord
  2
*B84
340
0
  0
BLOCK_RECORD
  5
5D6
100
AcDbSymbolTableRecord
100
AcDbBlockTableRecord
  2
*B85
340
0
  0
BLOCK_RECORD
  5
5DB
100
AcDbSymbolTableRecord
100
AcDbBlockTableRecord
  2
*B86
340
0
  0
BLOCK_RECORD
  5
5E0
100
AcDbSymbolTableRecord
100
AcDbBlockTableRecord
  2
*B87
340
0
  0
BLOCK_RECORD
  5
5E5
100
AcDbSymbolTableRecord
100
AcDbBlockTableRecord
  2
*B88
340
0
  0
BLOCK_RECORD
  5
5EA
100
AcDbSymbolTableRecord
100
AcDbBlockTableRecord
  2
*B89
340
0
  0
BLOCK_RECORD
  5
5EF
100
AcDbSymbolTableRecord
100
AcDbBlockTableRecord
  2
*B90
340
0
  0
BLOCK_RECORD
  5
5F4
100
AcDbSymbolTableRecord
100
AcDbBlockTableRecord
  2
*B91
340
0
  0
BLOCK_RECORD
  5
5F9
100
AcDbSymbolTableRecord
100
AcDbBlockTableRecord
  2
*B92
340
0
  0
BLOCK_RECORD
  5
5FE
100
AcDbSymbolTableRecord
100
AcDbBlockTableRecord
  2
*B93
340
0
  0
BLOCK_RECORD
  5
603
100
AcDbSymbolTableRecord
100
AcDbBlockTableRecord
  2
*B94
340
0
  0
BLOCK_RECORD
  5
608
100
AcDbSymbolTableRecord
100
AcDbBlockTableRecord
  2
*B95
340
0
  0
BLOCK_RECORD
  5
60D
100
AcDbSymbolTableRecord
100
AcDbBlockTableRecord
  2
*B96
340
0
  0
BLOCK_RECORD
  5
612
100
AcDbSymbolTableRecord
100
AcDbBlockTableRecord
  2
*B97
340
0
  0
BLOCK_RECORD
  5
617
100
AcDbSymbolTableRecord
100
AcDbBlockTableRecord
  2
*B98
340
0
  0
BLOCK_RECORD
  5
61C
100
AcDbSymbolTableRecord
100
AcDbBlockTableRecord
  2
*B99
340
0
  0
BLOCK_RECORD
  5
621
100
AcDbSymbolTableRecord
100
AcDbBlockTableRecord
  2
*B100
340
0
  0
ENDTAB
  0
ENDSEC
  0
SECTION
  2
BLOCKS
  0
BLOCK
  5
D
100
AcDbEntity
  8
0
100
AcDbBlockBegin
  2
*MODEL_SPACE
 70
     0
 10
0.0
 20
0.0
 30
0.0
  3
*MODEL_SPACE
  1

  0
ENDBLK
  5
E
100
AcDbEntity
  8
0
100
AcDbBlockEnd
  0
BLOCK
  5
F
100
AcDbEntity
 67
     1
  8
0
100
AcDbBlockBegin
  2
*PAPER_SPACE
 70
     0
 10
0.0
 20
0.0
 30
0.0
  3
*PAPER_SPACE
  1

  0
ENDBLK
  5
10
100
AcDbEntity
 67
     1
  8
0
100
AcDbBlockEnd
  0
BLOCK
  5
2A
100
AcDbEntity
  8
0
100
AcDbBlockBegin
  2
*B0
 70
     0
 10
0.0
 20
0.0
 30
0.0
  3
*B0
  1

  0
ENDBLK
  5
2B
100
AcDbEntity
  8
0
100
AcDbBlockEnd
  0
BLOCK
  5
2D
100
AcDbEntity
  8
0
100
AcDbBlockBegin
  2
*B1
 70
     0
 10
0.0
 20
0.0
 30
0.0
  3
*B1
  1

  0
LINE
  5
2E
100
AcDbEntity
  8
0
  6
HIDDEN
 62
   174
100
AcDbLine
 10
218.738749
 20
170.633521
 30
0.0
 11
218.738749
 21
170.683521
 31
0.0
  0
LINE
  5
2F
100
AcDbEntity
  8
0
  6
HIDDEN
 62
   174
100
AcDbLine
 10
225.538749
 20
170.633521
 30
0.0
 11
225.538749
 21
170.683521
 31
0.0
  0
LINE
  5
30
100
AcDbEntity
  8
0
  6
HIDDEN
 62
   174
100
AcDbLine
 10
93.538749
 20
170.633521
 30
0.0
 11
93.538749
 21
170.683521
 31
0.0
  0
LINE
  5
31
100
AcDbEntity
  8
0
  6
HIDDEN
 62
   174
100
AcDbLine
 10
86.738749
 20
170.633521
 30
0.0
 11
86.738749
 21
170.683521
 31
0.0
  0
LINE
  5
32
100
AcDbEntity
  8
0
  6
HIDDEN
 62
   174
100
AcDbLine
 10
225.138749
 20
170.633521
 30
0.0
 11
225.138749
 21
170.683521
 31
0.0
  0
LINE
  5
33
100
AcDbEntity
  8
0
  6
HIDDEN
 62
   174
100
AcDbLine
 10
87.138749
 20
170.633521
 30
0.0
 11
87.138749
 21
170.683521
 31
0.0
  0
LINE
  5
34
100
AcDbEntity
  8
0
  6
HIDDEN
 62
   174
100
AcDbLine
 10
219.138749
 20
170.633521
 30
0.0
 11
219.138749
 21
170.683521
 31
0.0
  0
LINE
  5
35
100
AcDbEntity
  8
0
  6
HIDDEN
 62
   174
100
AcDbLine
 10
93.138749
 20
170.633521
 30
0.0
 11
93.138749
 21
170.683521
 31
0.0
  0
LINE
  5
36
100
AcDbEntity
  8
0
  6
HIDDEN
 62
   174
100
AcDbLine
 10
224.115932
 20
170.683521
 30
0.0
 11
224.115932
 21
170.633521
 31
0.0
  0
LINE
  5
37
100
AcDbEntity
  8
0
  6
HIDDEN
 62
   174
100
AcDbLine
 10
88.161566
 20
170.683521
 30
0.0
 11
88.161566
 21
170.633521
 31
0.0
  0
LINE
  5
38
100
AcDbEntity
  8
0
  6
HIDDEN
 62
   174
100
AcDbLine
 10
92.395017
 20
170.683521
 30
0.0
 11
92.395017
 21
170.633521
 31
0.0
  0
LINE
  5
39
100
AcDbEntity
  8
0
  6
HIDDEN
 62
   174
100
AcDbLine
 10
219.88248
 20
170.683521
 30
0.0
 11
219.88248
 21
170.633521
 31
0.0
  0
LINE
  5
3A
100
AcDbEntity
  8
0
  6
HIDDEN
 62
   174
100
AcDbLine
 10
224.525596
 20
170.683521
 30
0.0
 11
224.525596
 21
170.633521
 31
0.0
  0
LINE
  5
3B
100
AcDbEntity
  8
0
  6
HIDDEN
 62
   174
100
AcDbLine
 10
87.751902
 20
170.683521
 30
0.0
 11
87.751902
 21
170.633521
 31
0.0
  0
LINE
  5
3C
100
AcDbEntity
  8
0
  6
HIDDEN
 62
   174
100
AcDbLine
 10
222.156893
 20
170.683521
 30
0.0
 11
220.456808
 21
170.683521
 31
0.0
  0
LINE
  5
3D
100
AcDbEntity
  8
0
  6
HIDDEN
 62
   174
100
AcDbLine
 10
224.150557
 20
170.683521
 30
0.0
 11
222.156893
 21
170.683521
 31
0.0
  0
LINE
  5
3E
100
AcDbEntity
  8
0
  6
HIDDEN
 62
   174
100
AcDbLine
 10
88.163307
 20
170.683521
 30
0.0
 11
87.212466
 21
170.683521
 31
0.0
  0
LINE
  5
3F
100
AcDbEntity
  8
0
  6
HIDDEN
 62
   174
100
AcDbLine
 10
225.156843
 20
170.683521
 30
0.0
 11
224.543767
 21
170.683521
 31
0.0
  0
LINE
  5
40
100
AcDbEntity
  8
0
  6
HIDDEN
 62
   174
100
AcDbLine
 10
88.166069
 20
170.683521
 30
0.0
 11
87.156809
 21
170.683521
 31
0.0
  0
LINE
  5
41
100
AcDbEntity
  8
0
  6
HIDDEN
 62
   174
100
AcDbLine
 10
88.329853
 20
170.683521
 30
0.0
 11
88.166069
 21
170.683521
 31
0.0
  0
LINE
  5
42
100
AcDbEntity
  8
0
  6
HIDDEN
 62
   174
100
AcDbLine
 10
224.525596
 20
170.683521
 30
0.0
 11
224.115932
 21
170.683521
 31
0.0
  0
LINE
  5
43
100
AcDbEntity
  8
0
  6
HIDDEN
 62
   174
100
AcDbLine
 10
220.325101
 20
170.683521
 30
0.0
 11
219.15673
 21
170.683521
 31
0.0
  0
LINE
  5
44
100
AcDbEntity
  8
0
  6
HIDDEN
 62
   174
100
AcDbLine
 10
222.058112
 20
170.683521
 30
0.0
 11
220.325101
 21
170.683521
 31
0.0
  0
LINE
  5
45
100
AcDbEntity
  8
0
  6
HIDDEN
 62
   174
100
AcDbLine
 10
92.395017
 20
170.683521
 30
0.0
 11
91.956154
 21
170.683521
 31
0.0
  0
LINE
  5
46
100
AcDbEntity
  8
0
  6
Continuous
 62
   174
100
AcDbLine
 10
248.638749
 20
156.183521
 30
0.0
 11
251.638749
 21
156.183521
 31
0.0
  0
LINE
  5
47
100
AcDbEntity
  8
0
  6
Continuous
 62
   174
100
AcDbLine
 10
60.638749
 20
153.683521
 30
0.0
 11
59.938749
 21
153.683521
 31
0.0
  0
LINE
  5
48
100
AcDbEntity
  8
0
  6
Continuous
 62
   174
100
AcDbLine
 10
56.138749
 20
170.483521
 30
0.0
 11
56.806025
 21
171.639277
 31
0.0
  0
LINE
  5
49
100
AcDbEntity
  8
0
  6
Continuous
 62
   174
100
AcDbLine
 10
63.638749
 20
154.683521
 30
0.0
 11
75.638749
 21
154.683521
 31
0.0
  0
LINE
  5
4A
100
AcDbEntity
  8
0
  6
HIDDEN
 62
   174
100
AcDbLine
 10
151.013749
 20
134.683521
 30
0.0
 11
151.013749
 21
144.683521
 31
0.0
  0
LINE
  5
4B
100
AcDbEntity
  8
0
  6
HIDDEN
 62
   174
100
AcDbLine
 10
151.718749
 20
134.683521
 30
0.0
 11
151.718749
 21
144.683521
 31
0.0
  0
LINE
  5
4C
100
AcDbEntity
  8
0
  6
HIDDEN
 62
   174
100
AcDbLine
 10
173.718749
 20
134.683521
 30
0.0
 11
173.718749
 21
144.683521
 31
0.0
  0
LINE
  5
4D
100
AcDbEntity
  8
0
  6
HIDDEN
 62
   174
100
AcDbLine
 10
173.736868
 20
144.683521
 30
0.0
 11
160.576771
 21
144.683521
 31
0.0
  0
LINE
  5
4E
100
AcDbEntity
  8
0
  6
HIDDEN
 62
   174
100
AcDbLine
 10
128.238749
 20
112.683521
 30
0.0
 11
128.238749
 21
114.183521
 31
0.0
  0
LINE
  5
4F
100
AcDbEntity
  8
0
  6
HIDDEN
 62
   174
100
AcDbLine
 10
128.238749
 20
112.683521
 30
0.0
 11
128.238749
 21
114.183521
 31
0.0
  0
LINE
  5
50
100
AcDbEntity
  8
0
  6
HIDDEN
 62
   174
100
AcDbLine
 10
91.956154
 20
170.683521
 30
0.0
 11
91.956154
 21
170.633521
 31
0.0
  0
LINE
  5
51
100
AcDbEntity
  8
0
  6
HIDDEN
 62
   174
100
AcDbLine
 10
220.456808
 20
170.683521
 30
0.0
 11
220.330411
 21
170.683521
 31
0.0
  0
LINE
  5
52
100
AcDbEntity
  8
0
  6
HIDDEN
 62
   174
100
AcDbLine
 10
90.156971
 20
170.683521
 30
0.0
 11
88.163307
 21
170.683521
 31
0.0
  0
LINE
  5
53
100
AcDbEntity
  8
0
  6
Continuous
 62
   174
100
AcDbLine
 10
251.638749
 20
171.683521
 30
0.0
 11
252.338749
 21
171.683521
 31
0.0
  0
LINE
  5
54
100
AcDbEntity
  8
0
  6
Continuous
 62
   174
100
AcDbLine
 10
256.138749
 20
170.483521
 30
0.0
 11
255.471472
 21
171.639277
 31
0.0
  0
LINE
  5
55
100
AcDbEntity
  8
0
  6
HIDDEN
 62
   174
100
AcDbLine
 10
173.718749
 20
134.683521
 30
0.0
 11
173.718749
 21
144.683521
 31
0.0
  0
LINE
  5
56
100
AcDbEntity
  8
0
  6
HIDDEN
 62
   174
100
AcDbLine
 10
173.013749
 20
144.683521
 30
0.0
 11
173.013749
 21
132.683521
 31
0.0
  0
LINE
  5
57
100
AcDbEntity
  8
0
  6
HIDDEN
 62
   174
100
AcDbLine
 10
173.013749
 20
144.683521
 30
0.0
 11
173.013749
 21
132.683521
 31
0.0
  0
LINE
  5
58
100
AcDbEntity
  8
0
  6
HIDDEN
 62
   174
100
AcDbLine
 10
173.013749
 20
134.683521
 30
0.0
 11
173.013749
 21
144.683521
 31
0.0
  0
LINE
  5
59
100
AcDbEntity
  8
0
  6
HIDDEN
 62
   174
100
AcDbLine
 10
150.238749
 20
112.683521
 30
0.0
 11
150.238749
 21
114.183521
 31
0.0
  0
LINE
  5
5A
100
AcDbEntity
  8
0
  6
HIDDEN
 62
   174
100
AcDbLine
 10
87.212466
 20
170.683521
 30
0.0
 11
87.143001
 21
170.683521
 31
0.0
  0
LINE
  5
5B
100
AcDbEntity
  8
0
  6
HIDDEN
 62
   174
100
AcDbLine
 10
91.856844
 20
170.683521
 30
0.0
 11
90.156971
 21
170.683521
 31
0.0
  0
LINE
  5
5C
100
AcDbEntity
  8
0
  6
HIDDEN
 62
   174
100
AcDbLine
 10
91.974318
 20
170.683521
 30
0.0
 11
90.156971
 21
170.683521
 31
0.0
  0
LINE
  5
5D
100
AcDbEntity
  8
0
  6
HIDDEN
 62
   174
100
AcDbLine
 10
90.156971
 20
170.683521
 30
0.0
 11
88.329853
 21
170.683521
 31
0.0
  0
LINE
  5
5E
100
AcDbEntity
  8
0
  6
HIDDEN
 62
   174
100
AcDbLine
 10
224.133988
 20
170.683521
 30
0.0
 11
222.157105
 21
170.683521
 31
0.0
  0
LINE
  5
5F
100
AcDbEntity
  8
0
  6
Continuous
 62
   174
100
AcDbLine
 10
248.638749
 20
170.683521
 30
0.0
 11
233.638749
 21
170.683521
 31
0.0
  0
LINE
  5
60
100
AcDbEntity
  8
0
  6
Continuous
 62
   174
100
AcDbLine
 10
63.638749
 20
170.683521
 30
0.0
 11
78.638749
 21
170.683521
 31
0.0
  0
LINE
  5
61
100
AcDbEntity
  8
0
  6
HIDDEN
 62
   174
100
AcDbLine
 10
151.013749
 20
144.683521
 30
0.0
 11
151.013749
 21
132.683521
 31
0.0
  0
LINE
  5
62
100
AcDbEntity
  8
0
  6
HIDDEN
 62
   174
100
AcDbLine
 10
173.736868
 20
134.683521
 30
0.0
 11
160.576771
 21
134.683521
 31
0.0
  0
LINE
  5
63
100
AcDbEntity
  8
0
  6
HIDDEN
 62
   174
100
AcDbLine
 10
184.038749
 20
112.683521
 30
0.0
 11
184.038749
 21
114.183521
 31
0.0
  0
LINE
  5
64
100
AcDbEntity
  8
0
  6
HIDDEN
 62
   174
100
AcDbLine
 10
220.321344
 20
170.683521
 30
0.0
 11
220.321344
 21
170.633521
 31
0.0
  0
LINE
  5
65
100
AcDbEntity
  8
0
  6
HIDDEN
 62
   174
100
AcDbLine
 10
219.14271
 20
170.683521
 30
0.0
 11
218.756935
 21
170.683521
 31
0.0
  0
LINE
  5
66
100
AcDbEntity
  8
0
  6
HIDDEN
 62
   174
100
AcDbLine
 10
224.545466
 20
170.683521
 30
0.0
 11
224.150557
 21
170.683521
 31
0.0
  0
LINE
  5
67
100
AcDbEntity
  8
0
  6
HIDDEN
 62
   174
100
AcDbLine
 10
91.983453
 20
170.683521
 30
0.0
 11
91.856844
 21
170.683521
 31
0.0
  0
LINE
  5
68
100
AcDbEntity
  8
0
  6
HIDDEN
 62
   174
100
AcDbLine
 10
93.101477
 20
170.683521
 30
0.0
 11
92.561053
 21
170.683521
 31
0.0
  0
LINE
  5
69
100
AcDbEntity
  8
0
  6
HIDDEN
 62
   174
100
AcDbLine
 10
222.157105
 20
170.683521
 30
0.0
 11
222.058112
 21
170.683521
 31
0.0
  0
LINE
  5
6A
100
AcDbEntity
  8
0
  6
HIDDEN
 62
   174
100
AcDbLine
 10
93.156921
 20
170.683521
 30
0.0
 11
92.413201
 21
170.683521
 31
0.0
  0
LINE
  5
6B
100
AcDbEntity
  8
0
  6
HIDDEN
 62
   174
100
AcDbLine
 10
90.138749
 20
170.683521
 30
0.0
 11
88.161566
 21
170.683521
 31
0.0
  0
LINE
  5
6C
100
AcDbEntity
  8
0
  6
Continuous
 62
   174
100
AcDbLine
 10
248.638749
 20
169.183521
 30
0.0
 11
251.638749
 21
169.183521
 31
0.0
  0
LINE
  5
6D
100
AcDbEntity
  8
0
  6
Continuous
 62
   174
100
AcDbLine
 10
256.138749
 20
154.883521
 30
0.0
 11
255.471495
 21
153.727803
 31
0.0
  0
LINE
  5
6E
100
AcDbEntity
  8
0
  6
HIDDEN
 62
   174
100
AcDbLine
 10
138.558749
 20
134.683521
 30
0.0
 11
138.558749
 21
144.683521
 31
0.0
  0
LINE
  5
6F
100
AcDbEntity
  8
0
  6
HIDDEN
 62
   174
100
AcDbLine
 10
151.013749
 20
144.683521
 30
0.0
 11
151.013749
 21
132.683521
 31
0.0
  0
LINE
  5
70
100
AcDbEntity
  8
0
  6
HIDDEN
 62
   174
100
AcDbLine
 10
184.038749
 20
112.683521
 30
0.0
 11
184.038749
 21
114.183521
 31
0.0
  0
LINE
  5
71
100
AcDbEntity
  8
0
  6
HIDDEN
 62
   174
100
AcDbLine
 10
219.212387
 20
170.683521
 30
0.0
 11
219.14271
 21
170.683521
 31
0.0
  0
LINE
  5
72
100
AcDbEntity
  8
0
  6
HIDDEN
 62
   174
100
AcDbLine
 10
224.560974
 20
170.683521
 30
0.0
 11
224.545466
 21
170.683521
 31
0.0
  0
LINE
  5
73
100
AcDbEntity
  8
0
  6
HIDDEN
 62
   174
100
AcDbLine
 10
225.171076
 20
170.683521
 30
0.0
 11
225.101398
 21
170.683521
 31
0.0
  0
LINE
  5
74
100
AcDbEntity
  8
0
  6
HIDDEN
 62
   174
100
AcDbLine
 10
91.956154
 20
170.683521
 30
0.0
 11
90.138749
 21
170.683521
 31
0.0
  0
LINE
  5
75
100
AcDbEntity
  8
0
  6
Continuous
 62
   174
100
AcDbLine
 10
63.638749
 20
156.183521
 30
0.0
 11
60.638749
 21
156.183521
 31
0.0
  0
LINE
  5
76
100
AcDbEntity
  8
0
  6
HIDDEN
 62
   174
100
AcDbLine
 10
138.558749
 20
134.683521
 30
0.0
 11
138.558749
 21
144.683521
 31
0.0
  0
LINE
  5
77
100
AcDbEntity
  8
0
  6
HIDDEN
 62
   174
100
AcDbLine
 10
139.263749
 20
134.683521
 30
0.0
 11
139.263749
 21
144.683521
 31
0.0
  0
LINE
  5
78
100
AcDbEntity
  8
0
  6
HIDDEN
 62
   174
100
AcDbLine
 10
160.558749
 20
134.683521
 30
0.0
 11
160.558749
 21
144.683521
 31
0.0
  0
LINE
  5
79
100
AcDbEntity
  8
0
  6
HIDDEN
 62
   174
100
AcDbLine
 10
161.263749
 20
144.683521
 30
0.0
 11
161.263749
 21
132.683521
 31
0.0
  0
LINE
  5
7A
100
AcDbEntity
  8
0
  6
HIDDEN
 62
   174
100
AcDbLine
 10
150.238749
 20
112.683521
 30
0.0
 11
150.238749
 21
114.183521
 31
0.0
  0
LINE
  5
7B
100
AcDbEntity
  8
0
  6
HIDDEN
 62
   174
100
AcDbLine
 10
140.038749
 20
112.683521
 30
0.0
 11
140.038749
 21
114.183521
 31
0.0
  0
LINE
  5
7C
100
AcDbEntity
  8
0
  6
HIDDEN
 62
   174
100
AcDbLine
 10
140.038749
 20
112.683521
 30
0.0
 11
140.038749
 21
114.183521
 31
0.0
  0
LINE
  5
7D
100
AcDbEntity
  8
0
  6
HIDDEN
 62
   174
100
AcDbLine
 10
220.330411
 20
170.683521
 30
0.0
 11
219.212387
 21
170.683521
 31
0.0
  0
LINE
  5
7E
100
AcDbEntity
  8
0
  6
HIDDEN
 62
   174
100
AcDbLine
 10
93.556929
 20
170.683521
 30
0.0
 11
93.171154
 21
170.683521
 31
0.0
  0
LINE
  5
7F
100
AcDbEntity
  8
0
  6
HIDDEN
 62
   174
100
AcDbLine
 10
92.425734
 20
170.683521
 30
0.0
 11
91.983453
 21
170.683521
 31
0.0
  0
LINE
  5
80
100
AcDbEntity
  8
0
  6
HIDDEN
 62
   174
100
AcDbLine
 10
92.561053
 20
170.683521
 30
0.0
 11
92.425734
 21
170.683521
 31
0.0
  0
LINE
  5
81
100
AcDbEntity
  8
0
  6
HIDDEN
 62
   174
100
AcDbLine
 10
222.138749
 20
170.683521
 30
0.0
 11
220.321344
 21
170.683521
 31
0.0
  0
LINE
  5
82
100
AcDbEntity
  8
0
  6
Continuous
 62
   174
100
AcDbLine
 10
251.638749
 20
153.683521
 30
0.0
 11
252.338749
 21
153.683521
 31
0.0
  0
LINE
  5
83
100
AcDbEntity
  8
0
  6
Continuous
 62
   174
100
AcDbLine
 10
60.638749
 20
171.683521
 30
0.0
 11
59.938749
 21
171.683521
 31
0.0
  0
LINE
  5
84
100
AcDbEntity
  8
0
  6
HIDDEN
 62
   174
100
AcDbLine
 10
151.736881
 20
134.683521
 30
0.0
 11
138.576784
 21
134.683521
 31
0.0
  0
LINE
  5
85
100
AcDbEntity
  8
0
  6
HIDDEN
 62
   174
100
AcDbLine
 10
139.263749
 20
144.683521
 30
0.0
 11
139.263749
 21
132.683521
 31
0.0
  0
LINE
  5
86
100
AcDbEntity
  8
0
  6
HIDDEN
 62
   174
100
AcDbLine
 10
151.013749
 20
134.683521
 30
0.0
 11
151.013749
 21
144.683521
 31
0.0
  0
LINE
  5
87
100
AcDbEntity
  8
0
  6
HIDDEN
 62
   174
100
AcDbLine
 10
160.558749
 20
134.683521
 30
0.0
 11
160.558749
 21
144.683521
 31
0.0
  0
LINE
  5
88
100
AcDbEntity
  8
0
  6
HIDDEN
 62
   174
100
AcDbLine
 10
161.263749
 20
144.683521
 30
0.0
 11
161.263749
 21
132.683521
 31
0.0
  0
LINE
  5
89
100
AcDbEntity
  8
0
  6
HIDDEN
 62
   174
100
AcDbLine
 10
162.038749
 20
112.683521
 30
0.0
 11
162.038749
 21
114.183521
 31
0.0
  0
LINE
  5
8A
100
AcDbEntity
  8
0
  6
HIDDEN
 62
   174
100
AcDbLine
 10
172.238749
 20
112.683521
 30
0.0
 11
172.238749
 21
114.183521
 31
0.0
  0
LINE
  5
8B
100
AcDbEntity
  8
0
  6
HIDDEN
 62
   174
100
AcDbLine
 10
225.55685
 20
170.683521
 30
0.0
 11
225.171076
 21
170.683521
 31
0.0
  0
LINE
  5
8C
100
AcDbEntity
  8
0
  6
HIDDEN
 62
   174
100
AcDbLine
 10
87.143001
 20
170.683521
 30
0.0
 11
86.756802
 21
170.683521
 31
0.0
  0
LINE
  5
8D
100
AcDbEntity
  8
0
  6
HIDDEN
 62
   174
100
AcDbLine
 10
93.171154
 20
170.683521
 30
0.0
 11
93.101477
 21
170.683521
 31
0.0
  0
LINE
  5
8E
100
AcDbEntity
  8
0
  6
Continuous
 62
   174
100
AcDbLine
 10
63.638749
 20
169.183521
 30
0.0
 11
60.638749
 21
169.183521
 31
0.0
  0
LINE
  5
8F
100
AcDbEntity
  8
0
  6
Continuous
 62
   174
100
AcDbLine
 10
56.138749
 20
154.883521
 30
0.0
 11
56.806003
 21
153.727803
 31
0.0
  0
LINE
  5
90
100
AcDbEntity
  8
0
  6
Continuous
 62
   174
100
AcDbLine
 10
248.638749
 20
154.683521
 30
0.0
 11
236.638749
 21
154.683521
 31
0.0
  0
LINE
  5
91
100
AcDbEntity
  8
0
  6
HIDDEN
 62
   174
100
AcDbLine
 10
151.736881
 20
144.683521
 30
0.0
 11
138.576784
 21
144.683521
 31
0.0
  0
LINE
  5
92
100
AcDbEntity
  8
0
  6
HIDDEN
 62
   174
100
AcDbLine
 10
139.263749
 20
144.683521
 30
0.0
 11
139.263749
 21
132.683521
 31
0.0
  0
LINE
  5
93
100
AcDbEntity
  8
0
  6
HIDDEN
 62
   174
100
AcDbLine
 10
161.263749
 20
134.683521
 30
0.0
 11
161.263749
 21
144.683521
 31
0.0
  0
LINE
  5
94
100
AcDbEntity
  8
0
  6
HIDDEN
 62
   174
100
AcDbLine
 10
162.038749
 20
112.683521
 30
0.0
 11
162.038749
 21
114.183521
 31
0.0
  0
LINE
  5
95
100
AcDbEntity
  8
0
  6
HIDDEN
 62
   174
100
AcDbLine
 10
225.101398
 20
170.683521
 30
0.0
 11
224.560974
 21
170.683521
 31
0.0
  0
LINE
  5
96
100
AcDbEntity
  8
0
  6
HIDDEN
 62
   174
100
AcDbLine
 10
224.115932
 20
170.683521
 30
0.0
 11
222.138749
 21
170.683521
 31
0.0
  0
LINE
  5
97
100
AcDbEntity
  8
0
  6
HIDDEN
 62
   174
100
AcDbLine
 10
151.718749
 20
134.683521
 30
0.0
 11
151.718749
 21
144.683521
 31
0.0
  0
LINE
  5
98
100
AcDbEntity
  8
0
  6
HIDDEN
 62
   174
100
AcDbLine
 10
139.263749
 20
134.683521
 30
0.0
 11
139.263749
 21
144.683521
 31
0.0
  0
LINE
  5
99
100
AcDbEntity
  8
0
  6
HIDDEN
 62
   174
100
AcDbLine
 10
173.013749
 20
134.683521
 30
0.0
 11
173.013749
 21
144.683521
 31
0.0
  0
LINE
  5
9A
100
AcDbEntity
  8
0
  6
HIDDEN
 62
   174
100
AcDbLine
 10
161.263749
 20
134.683521
 30
0.0
 11
161.263749
 21
144.683521
 31
0.0
  0
LINE
  5
9B
100
AcDbEntity
  8
0
  6
HIDDEN
 62
   174
100
AcDbLine
 10
172.238749
 20
112.683521
 30
0.0
 11
172.238749
 21
114.183521
 31
0.0
  0
LINE
  5
9C
100
AcDbEntity
  8
0
  6
Continuous
 62
   174
100
AcDbLine
 10
236.638749
 20
167.683521
 30
0.0
 11
236.638749
 21
165.467403
 31
0.0
  0
ARC
  5
9D
100
AcDbEntity
  8
0
  6
HIDDEN
 62
   174
100
AcDbCircle
 10
183.039242
 20
113.183784
 30
0.0
 40
1.0
100
AcDbArc
 50
-180.0
 51
-90.0
  0
ARC
  5
9E
100
AcDbEntity
  8
0
  6
HIDDEN
 62
   174
100
AcDbCircle
 10
151.239242
 20
113.183784
 30
0.0
 40
1.0
100
AcDbArc
 50
0.0
 51
90.0
  0
ARC
  5
9F
100
AcDbEntity
  8
0
  6
HIDDEN
 62
   174
100
AcDbCircle
 10
161.039242
 20
113.183784
 30
0.0
 40
1.0
100
AcDbArc
 50
0.0
 51
90.0
  0
ARC
  5
A0
100
AcDbEntity
  8
0
  6
HIDDEN
 62
   174
100
AcDbCircle
 10
129.239242
 20
113.183784
 30
0.0
 40
1.0
100
AcDbArc
 50
-90.0
 51
0.0
  0
LINE
  5
A1
100
AcDbEntity
  8
0
  6
HIDDEN
 62
   174
100
AcDbLine
 10
225.538749
 20
170.683521
 30
0.0
 11
233.638749
 21
170.683521
 31
0.0
  0
LWPOLYLINE
  5
A2
100
AcDbEntity
  8
0
  6
HIDDEN
 62
   174
100
AcDbPolyline
 90
        4
 70
   128
 10
256.138749
 20
163.575132
 10
256.005629
 20
164.791847
 10
255.772543
 20
166.014011
 10
255.445929
 20
167.261181
  0
LINE
  5
A3
100
AcDbEntity
  8
0
  6
Continuous
 62
   174
100
AcDbLine
 10
121.138749
 20
144.683521
 30
0.0
 11
182.314605
 21
144.683521
 31
0.0
  0
LINE
  5
A4
100
AcDbEntity
  8
0
  6
HIDDEN
 62
   174
100
AcDbLine
 10
244.838749
 20
127.183521
 30
0.0
 11
238.638749
 21
127.183521
 31
0.0
  0
LWPOLYLINE
  5
A5
100
AcDbEntity
  8
0
  6
HIDDEN
 62
   174
100
AcDbPolyline
 90
        6
 70
   128
 10
236.638749
 20
167.683521
 10
236.466406
 20
168.685695
 10
236.014606
 20
169.515269
 10
235.351536
 20
170.146519
 10
234.543005
 20
170.543996
 10
233.638749
 20
170.683521
  0
LWPOLYLINE
  5
A6
100
AcDbEntity
  8
0
  6
HIDDEN
 62
   174
100
AcDbPolyline
 90
        4
 70
   128
 10
236.596789
 20
162.683521
 10
236.605783
 20
163.632504
 10
236.626189
 20
164.57067
 10
236.638749
 20
165.467403
  0
LINE
  5
A7
100
AcDbEntity
  8
0
  6
HIDDEN
 62
   174
100
AcDbLine
 10
159.638749
 20
114.183521
 30
0.0
 11
159.638749
 21
121.683521
 31
0.0
  0
LINE
  5
A8
100
AcDbEntity
  8
0
  6
Continuous
 62
   174
100
AcDbLine
 10
78.638749
 20
167.683521
 30
0.0
 11
101.638749
 21
167.683521
 31
0.0
  0
LINE
  5
A9
100
AcDbEntity
  8
0
  6
Continuous
 62
   174
100
AcDbLine
 10
210.638749
 20
170.692095
 30
0.0
 11
210.638749
 21
167.692145
 31
0.0
  0
ARC
  5
AA
100
AcDbEntity
  8
0
  6
HIDDEN
 62
   174
100
AcDbCircle
 10
173.239242
 20
113.183784
 30
0.0
 40
1.0
100
AcDbArc
 50
0.0
 51
90.0
  0
LINE
  5
AB
100
AcDbEntity
  8
0
  6
HIDDEN
 62
   174
100
AcDbLine
 10
237.138749
 20
134.694183
 30
0.0
 11
237.138749
 21
124.694633
 31
0.0
  0
LINE
  5
AC
100
AcDbEntity
  8
0
  6
HIDDEN
 62
   174
100
AcDbLine
 10
67.438749
 20
127.186887
 30
0.0
 11
73.638749
 21
127.186887
 31
0.0
  0
LINE
  5
AD
100
AcDbEntity
  8
0
  6
Continuous
 62
   174
100
AcDbLine
 10
207.138749
 20
135.683521
 30
0.0
 11
207.138749
 21
141.683521
 31
0.0
  0
LINE
  5
AE
100
AcDbEntity
  8
0
  6
HIDDEN
 62
   174
100
AcDbLine
 10
233.638749
 20
170.692095
 30
0.0
 11
233.638749
 21
167.692145
 31
0.0
  0
ARC
  5
AF
100
AcDbEntity
  8
0
  6
HIDDEN
 62
   174
100
AcDbCircle
 10
183.039242
 20
113.183784
 30
0.0
 40
1.0
100
AcDbArc
 50
0.0
 51
7.711918
  0
LINE
  5
B0
100
AcDbEntity
  8
0
  6
HIDDEN
 62
   174
100
AcDbLine
 10
161.057289
 20
114.183784
 30
0.0
 11
159.622106
 21
114.183784
 31
0.0
  0
ARC
  5
B1
100
AcDbEntity
  8
0
  6
HIDDEN
 62
   174
100
AcDbCircle
 10
139.039242
 20
113.183784
 30
0.0
 40
1.0
100
AcDbArc
 50
0.0
 51
90.0
  0
LINE
  5
B2
100
AcDbEntity
  8
0
  6
Continuous
 62
   174
100
AcDbLine
 10
121.138749
 20
135.683521
 30
0.0
 11
105.138749
 21
135.683521
 31
0.0
  0
LINE
  5
B3
100
AcDbEntity
  8
0
  6
HIDDEN
 62
   174
100
AcDbLine
 10
60.638749
 20
162.692583
 30
0.0
 11
60.638749
 21
156.192833
 31
0.0
  0
LINE
  5
B4
100
AcDbEntity
  8
0
  6
Continuous
 62
   174
100
AcDbLine
 10
252.338749
 20
153.68397
 30
0.0
 11
255.445929
 21
153.68397
 31
0.0
  0
LINE
  5
B5
100
AcDbEntity
  8
0
  6
Continuous
 62
   174
100
AcDbLine
 10
244.838749
 20
134.366526
 30
0.0
 11
238.638749
 21
134.366526
 31
0.0
  0
LINE
  5
B6
100
AcDbEntity
  8
0
  6
HIDDEN
 62
   174
100
AcDbLine
 10
67.438749
 20
129.765116
 30
0.0
 11
73.638749
 21
129.765116
 31
0.0
  0
LINE
  5
B7
100
AcDbEntity
  8
0
  6
Continuous
 62
   174
100
AcDbLine
 10
238.638749
 20
133.309771
 30
0.0
 11
238.638749
 21
129.775982
 31
0.0
  0
LINE
  5
B8
100
AcDbEntity
  8
0
  6
HIDDEN
 62
   174
100
AcDbLine
 10
181.622093
 20
112.183784
 30
0.0
 11
173.257411
 21
112.183784
 31
0.0
  0
LINE
  5
B9
100
AcDbEntity
  8
0
  6
HIDDEN
 62
   174
100
AcDbLine
 10
159.622106
 20
114.183784
 30
0.0
 11
152.692608
 21
114.183784
 31
0.0
  0
LINE
  5
BA
100
AcDbEntity
  8
0
  6
HIDDEN
 62
   174
100
AcDbLine
 10
161.057289
 20
114.183784
 30
0.0
 11
159.622106
 21
114.183784
 31
0.0
  0
ARC
  5
BB
100
AcDbEntity
  8
0
  6
HIDDEN
 62
   174
100
AcDbCircle
 10
151.239242
 20
113.183784
 30
0.0
 40
1.0
100
AcDbArc
 50
180.0
 51
211.836529
  0
LINE
  5
BC
100
AcDbEntity
  8
0
  6
Continuous
 62
   174
100
AcDbLine
 10
63.638749
 20
170.692095
 30
0.0
 11
63.638749
 21
169.298761
 31
0.0
  0
LINE
  5
BD
100
AcDbEntity
  8
0
  6
HIDDEN
 62
   174
100
AcDbLine
 10
187.438749
 20
144.683521
 30
0.0
 11
187.438749
 21
142.683521
 31
0.0
  0
LINE
  5
BE
100
AcDbEntity
  8
0
  6
HIDDEN
 62
   174
100
AcDbLine
 10
59.938749
 20
167.105411
 30
0.0
 11
56.831569
 21
167.105411
 31
0.0
  0
LINE
  5
BF
100
AcDbEntity
  8
0
  6
HIDDEN
 62
   174
100
AcDbLine
 10
224.115932
 20
170.633521
 30
0.0
 11
219.88248
 21
170.633521
 31
0.0
  0
LINE
  5
C0
100
AcDbEntity
  8
0
  6
HIDDEN
 62
   174
100
AcDbLine
 10
139.057302
 20
112.183784
 30
0.0
 11
129.257438
 21
112.183784
 31
0.0
  0
LINE
  5
C1
100
AcDbEntity
  8
0
  6
Continuous
 62
   174
100
AcDbLine
 10
63.638749
 20
162.692583
 30
0.0
 11
63.638749
 21
156.08598
 31
0.0
  0
LINE
  5
C2
100
AcDbEntity
  8
0
  6
Continuous
 62
   174
100
AcDbLine
 10
255.474736
 20
153.73342
 30
0.0
 11
255.445929
 21
153.68397
 31
0.0
  0
LINE
  5
C3
100
AcDbEntity
  8
0
  6
Continuous
 62
   174
100
AcDbLine
 10
256.138749
 20
169.848744
 30
0.0
 11
256.138749
 21
170.491985
 31
0.0
  0
LINE
  5
C4
100
AcDbEntity
  8
0
  6
Continuous
 62
   174
100
AcDbLine
 10
238.638749
 20
114.683521
 30
0.0
 11
237.138749
 21
114.683521
 31
0.0
  0
ARC
  5
C5
100
AcDbEntity
  8
0
  6
HIDDEN
 62
   174
100
AcDbCircle
 10
183.039242
 20
113.183784
 30
0.0
 40
1.0
100
AcDbArc
 50
-352.288082
 51
-270.0
  0
ARC
  5
C6
100
AcDbEntity
  8
0
  6
Continuous
 62
   174
100
AcDbCircle
 10
161.039242
 20
113.183784
 30
0.0
 40
1.0
100
AcDbArc
 50
-90.0
 51
-31.836529
  0
ARC
  5
C7
100
AcDbEntity
  8
0
  6
HIDDEN
 62
   174
100
AcDbCircle
 10
151.239242
 20
113.183784
 30
0.0
 40
1.0
100
AcDbArc
 50
180.0
 51
211.836529
  0
LINE
  5
C8
100
AcDbEntity
  8
0
  6
Continuous
 62
   174
100
AcDbLine
 10
63.638749
 20
156.08598
 30
0.0
 11
63.638749
 21
154.69307
 31
0.0
  0
LWPOLYLINE
  5
C9
100
AcDbEntity
  8
0
  6
Continuous
 62
   174
100
AcDbPolyline
 90
        7
 70
   128
 10
255.445929
 20
167.105411
 10
255.812031
 20
165.602141
 10
256.040131
 20
164.128151
 10
256.117062
 20
162.683758
 10
256.040175
 20
161.239312
 10
255.812082
 20
159.76516
 10
255.445929
 20
158.26163
  0
LINE
  5
CA
100
AcDbEntity
  8
0
  6
HIDDEN
 62
   174
100
AcDbLine
 10
162.056777
 20
114.183521
 30
0.0
 11
150.256875
 21
114.183521
 31
0.0
  0
LINE
  5
CB
100
AcDbEntity
  8
0
  6
Continuous
 62
   174
100
AcDbLine
 10
105.138749
 20
135.683521
 30
0.0
 11
105.138749
 21
113.683521
 31
0.0
  0
LINE
  5
CC
100
AcDbEntity
  8
0
  6
Continuous
 62
   174
100
AcDbLine
 10
59.938749
 20
153.68397
 30
0.0
 11
56.831569
 21
153.68397
 31
0.0
  0
LINE
  5
CD
100
AcDbEntity
  8
0
  6
Continuous
 62
   174
100
AcDbLine
 10
67.438749
 20
127.183521
 30
0.0
 11
73.638749
 21
127.183521
 31
0.0
  0
LINE
  5
CE
100
AcDbEntity
  8
0
  6
HIDDEN
 62
   174
100
AcDbLine
 10
233.656842
 20
141.683521
 30
0.0
 11
236.656792
 21
141.683521
 31
0.0
  0
ARC
  5
CF
100
AcDbEntity
  8
0
  6
HIDDEN
 62
   174
100
AcDbCircle
 10
233.638749
 20
167.683521
 30
0.0
 40
3.0
100
AcDbArc
 50
0.0
 51
18.0
  0
LINE
  5
D0
100
AcDbEntity
  8
0
  6
Continuous
 62
   174
100
AcDbLine
 10
233.638749
 20
170.683521
 30
0.0
 11
210.638749
 21
170.683521
 31
0.0
  0
LINE
  5
D1
100
AcDbEntity
  8
0
  6
HIDDEN
 62
   174
100
AcDbLine
 10
160.930043
 20
112.683521
 30
0.0
 11
151.383609
 21
112.683521
 31
0.0
  0
LINE
  5
D2
100
AcDbEntity
  8
0
  6
Continuous
 62
   174
100
AcDbLine
 10
105.138749
 20
113.683521
 30
0.0
 11
121.138749
 21
113.683521
 31
0.0
  0
ARC
  5
D3
100
AcDbEntity
  8
0
  6
HIDDEN
 62
   174
100
AcDbCircle
 10
183.039242
 20
113.183784
 30
0.0
 40
1.0
100
AcDbArc
 50
-45.0
 51
-31.836529
  0
LINE
  5
D4
100
AcDbEntity
  8
0
  6
Continuous
 62
   174
100
AcDbLine
 10
60.638749
 20
153.692945
 30
0.0
 11
60.638749
 21
155.97849
 31
0.0
  0
LINE
  5
D5
100
AcDbEntity
  8
0
  6
HIDDEN
 62
   174
100
AcDbLine
 10
73.638749
 20
129.765116
 30
0.0
 11
73.638749
 21
133.299165
 31
0.0
  0
LWPOLYLINE
  5
D6
100
AcDbEntity
  8
0
  6
HIDDEN
 62
   174
100
AcDbPolyline
 90
        7
 70
   128
 10
255.445929
 20
153.68397
 10
255.812055
 20
154.435661
 10
256.040153
 20
155.172707
 10
256.117057
 20
155.894955
 10
256.040138
 20
156.617195
 10
255.812038
 20
157.354214
 10
255.445929
 20
158.105861
  0
LINE
  5
D7
100
AcDbEntity
  8
0
  6
Continuous
 62
   174
100
AcDbLine
 10
182.314605
 20
142.683521
 30
0.0
 11
185.962892
 21
142.683521
 31
0.0
  0
LINE
  5
D8
100
AcDbEntity
  8
0
  6
HIDDEN
 62
   174
100
AcDbLine
 10
152.638749
 20
114.183521
 30
0.0
 11
152.638749
 21
121.683521
 31
0.0
  0
LINE
  5
D9
100
AcDbEntity
  8
0
  6
Continuous
 62
   174
100
AcDbLine
 10
207.138749
 20
113.683521
 30
0.0
 11
237.138749
 21
113.683521
 31
0.0
  0
ARC
  5
DA
100
AcDbEntity
  8
0
  6
HIDDEN
 62
   174
100
AcDbCircle
 10
161.039242
 20
113.183784
 30
0.0
 40
1.0
100
AcDbArc
 50
-180.0
 51
-90.0
  0
ARC
  5
DB
100
AcDbEntity
  8
0
  6
HIDDEN
 62
   174
100
AcDbCircle
 10
129.239242
 20
113.183784
 30
0.0
 40
1.0
100
AcDbArc
 50
0.0
 51
90.0
  0
LINE
  5
DC
100
AcDbEntity
  8
0
  6
Continuous
 62
   174
100
AcDbLine
 10
248.638749
 20
162.692583
 30
0.0
 11
248.638749
 21
169.298973
 31
0.0
  0
LINE
  5
DD
100
AcDbEntity
  8
0
  6
Continuous
 62
   174
100
AcDbLine
 10
248.638749
 20
169.298973
 30
0.0
 11
248.638749
 21
170.692095
 31
0.0
  0
LINE
  5
DE
100
AcDbEntity
  8
0
  6
Continuous
 62
   174
100
AcDbLine
 10
256.138749
 20
156.427994
 30
0.0
 11
256.138749
 21
168.957172
 31
0.0
  0
LINE
  5
DF
100
AcDbEntity
  8
0
  6
Continuous
 62
   174
100
AcDbLine
 10
67.438749
 20
119.604591
 30
0.0
 11
73.638749
 21
119.604591
 31
0.0
  0
LINE
  5
E0
100
AcDbEntity
  8
0
  6
Continuous
 62
   174
100
AcDbLine
 10
237.138749
 20
141.683521
 30
0.0
 11
207.138749
 21
141.683521
 31
0.0
  0
LINE
  5
E1
100
AcDbEntity
  8
0
  6
Continuous
 62
   174
100
AcDbLine
 10
75.138749
 20
113.683521
 30
0.0
 11
75.138749
 21
141.683521
 31
0.0
  0
LINE
  5
E2
100
AcDbEntity
  8
0
  6
HIDDEN
 62
   174
100
AcDbLine
 10
162.014291
 20
112.683521
 30
0.0
 11
160.930043
 21
112.683521
 31
0.0
  0
ARC
  5
E3
100
AcDbEntity
  8
0
  6
HIDDEN
 62
   174
100
AcDbCircle
 10
101.638749
 20
167.683521
 30
0.0
 40
3.0
100
AcDbArc
 50
-288.0
 51
-270.0
  0
LINE
  5
E4
100
AcDbEntity
  8
0
  6
HIDDEN
 62
   174
100
AcDbLine
 10
87.770097
 20
170.633521
 30
0.0
 11
87.156809
 21
170.633521
 31
0.0
  0
ARC
  5
E5
100
AcDbEntity
  8
0
  6
HIDDEN
 62
   174
100
AcDbCircle
 10
161.039242
 20
113.183784
 30
0.0
 40
1.0
100
AcDbArc
 50
-31.836529
 51
0.0
  0
LINE
  5
E6
100
AcDbEntity
  8
0
  6
HIDDEN
 62
   174
100
AcDbLine
 10
224.115932
 20
170.683521
 30
0.0
 11
224.525596
 21
170.683521
 31
0.0
  0
LINE
  5
E7
100
AcDbEntity
  8
0
  6
HIDDEN
 62
   174
100
AcDbLine
 10
252.338749
 20
171.691583
 30
0.0
 11
252.338749
 21
171.692008
 31
0.0
  0
LINE
  5
E8
100
AcDbEntity
  8
0
  6
Continuous
 62
   174
100
AcDbLine
 10
256.138749
 20
154.892968
 30
0.0
 11
256.138749
 21
155.536421
 31
0.0
  0
LINE
  5
E9
100
AcDbEntity
  8
0
  6
Continuous
 62
   174
100
AcDbLine
 10
255.445929
 20
171.683071
 30
0.0
 11
255.47478
 21
171.633547
 31
0.0
  0
LINE
  5
EA
100
AcDbEntity
  8
0
  6
HIDDEN
 62
   174
100
AcDbLine
 10
181.638749
 20
114.183521
 30
0.0
 11
181.638749
 21
121.683521
 31
0.0
  0
LINE
  5
EB
100
AcDbEntity
  8
0
  6
HIDDEN
 62
   174
100
AcDbLine
 10
222.156893
 20
170.633521
 30
0.0
 11
225.55685
 21
170.633521
 31
0.0
  0
LINE
  5
EC
100
AcDbEntity
  8
0
  6
HIDDEN
 62
   174
100
AcDbLine
 10
90.156971
 20
170.633521
 30
0.0
 11
93.556929
 21
170.633521
 31
0.0
  0
LINE
  5
ED
100
AcDbEntity
  8
0
  6
HIDDEN
 62
   174
100
AcDbLine
 10
174.692595
 20
114.183784
 30
0.0
 11
173.257411
 21
114.183784
 31
0.0
  0
LINE
  5
EE
100
AcDbEntity
  8
0
  6
HIDDEN
 62
   174
100
AcDbLine
 10
130.692621
 20
114.183784
 30
0.0
 11
129.257438
 21
114.183784
 31
0.0
  0
LINE
  5
EF
100
AcDbEntity
  8
0
  6
Continuous
 62
   174
100
AcDbLine
 10
67.438749
 20
116.068802
 30
0.0
 11
73.638749
 21
116.068802
 31
0.0
  0
LINE
  5
F0
100
AcDbEntity
  8
0
  6
HIDDEN
 62
   174
100
AcDbLine
 10
75.638749
 20
154.69307
 30
0.0
 11
75.638749
 21
159.908888
 31
0.0
  0
LINE
  5
F1
100
AcDbEntity
  8
0
  6
Continuous
 62
   174
100
AcDbLine
 10
238.638749
 20
127.19792
 30
0.0
 11
238.638749
 21
126.19036
 31
0.0
  0
LINE
  5
F2
100
AcDbEntity
  8
0
  6
HIDDEN
 62
   174
100
AcDbLine
 10
140.05679
 20
112.683521
 30
0.0
 11
140.014304
 21
112.683521
 31
0.0
  0
LINE
  5
F3
100
AcDbEntity
  8
0
  6
HIDDEN
 62
   174
100
AcDbLine
 10
183.057276
 20
112.183784
 30
0.0
 11
181.622093
 21
112.183784
 31
0.0
  0
ARC
  5
F4
100
AcDbEntity
  8
0
  6
HIDDEN
 62
   174
100
AcDbCircle
 10
161.039242
 20
113.183784
 30
0.0
 40
1.0
100
AcDbArc
 50
0.0
 51
90.0
  0
LINE
  5
F5
100
AcDbEntity
  8
0
  6
Continuous
 62
   174
100
AcDbLine
 10
56.138749
 20
161.80101
 30
0.0
 11
56.138749
 21
154.892968
 31
0.0
  0
LINE
  5
F6
100
AcDbEntity
  8
0
  6
HIDDEN
 62
   174
100
AcDbLine
 10
73.638749
 20
116.070569
 30
0.0
 11
73.638749
 21
119.607586
 31
0.0
  0
ARC
  5
F7
100
AcDbEntity
  8
0
  6
Continuous
 62
   174
100
AcDbCircle
 10
78.638749
 20
167.683521
 30
0.0
 40
3.0
100
AcDbArc
 50
-270.0
 51
-180.0
  0
LINE
  5
F8
100
AcDbEntity
  8
0
  6
Continuous
 62
   174
100
AcDbLine
 10
105.138749
 20
141.683521
 30
0.0
 11
75.138749
 21
141.683521
 31
0.0
  0
LINE
  5
F9
100
AcDbEntity
  8
0
  6
HIDDEN
 62
   174
100
AcDbLine
 10
181.638749
 20
114.183521
 30
0.0
 11
181.638749
 21
121.683521
 31
0.0
  0
ARC
  5
FA
100
AcDbEntity
  8
0
  6
HIDDEN
 62
   174
100
AcDbCircle
 10
151.239242
 20
113.183784
 30
0.0
 40
1.0
100
AcDbArc
 50
90.0
 51
180.0
  0
LINE
  5
FB
100
AcDbEntity
  8
0
  6
Continuous
 62
   174
100
AcDbLine
 10
63.638749
 20
169.298761
 30
0.0
 11
63.638749
 21
162.692583
 31
0.0
  0
LINE
  5
FC
100
AcDbEntity
  8
0
  6
HIDDEN
 62
   174
100
AcDbLine
 10
238.638749
 20
133.2974
 30
0.0
 11
238.638749
 21
129.762121
 31
0.0
  0
LINE
  5
FD
100
AcDbEntity
  8
0
  6
HIDDEN
 62
   174
100
AcDbLine
 10
180.838749
 20
144.683521
 30
0.0
 11
180.838749
 21
142.683521
 31
0.0
  0
LINE
  5
FE
100
AcDbEntity
  8
0
  6
HIDDEN
 62
   174
100
AcDbLine
 10
59.938749
 20
158.26163
 30
0.0
 11
59.938749
 21
153.68397
 31
0.0
  0
LINE
  5
FF
100
AcDbEntity
  8
0
  6
HIDDEN
 62
   174
100
AcDbLine
 10
252.338749
 20
167.261181
 30
0.0
 11
252.338749
 21
171.683071
 31
0.0
  0
LINE
  5
100
100
AcDbEntity
  8
0
  6
HIDDEN
 62
   174
100
AcDbLine
 10
244.838749
 20
129.762121
 30
0.0
 11
238.638749
 21
129.762121
 31
0.0
  0
LINE
  5
101
100
AcDbEntity
  8
0
  6
Continuous
 62
   174
100
AcDbLine
 10
67.438749
 20
119.604591
 30
0.0
 11
67.438749
 21
116.068802
 31
0.0
  0
ARC
  5
102
100
AcDbEntity
  8
0
  6
HIDDEN
 62
   174
100
AcDbCircle
 10
233.638749
 20
167.683521
 30
0.0
 40
3.0
100
AcDbArc
 50
18.0
 51
54.0
  0
LINE
  5
103
100
AcDbEntity
  8
0
  6
HIDDEN
 62
   174
100
AcDbLine
 10
104.656871
 20
167.683521
 30
0.0
 11
101.656921
 21
167.683521
 31
0.0
  0
ARC
  5
104
100
AcDbEntity
  8
0
  6
HIDDEN
 62
   174
100
AcDbCircle
 10
183.039242
 20
113.183784
 30
0.0
 40
1.0
100
AcDbArc
 50
0.0
 51
7.711918
  0
ARC
  5
105
100
AcDbEntity
  8
0
  6
Continuous
 62
   174
100
AcDbCircle
 10
129.239242
 20
113.183784
 30
0.0
 40
1.0
100
AcDbArc
 50
211.836529
 51
270.0
  0
LINE
  5
106
100
AcDbEntity
  8
0
  6
Continuous
 62
   174
100
AcDbLine
 10
252.338749
 20
158.270833
 30
0.0
 11
252.338749
 21
162.692583
 31
0.0
  0
LINE
  5
107
100
AcDbEntity
  8
0
  6
Continuous
 62
   174
100
AcDbLine
 10
252.338749
 20
167.114121
 30
0.0
 11
252.338749
 21
171.692008
 31
0.0
  0
LINE
  5
108
100
AcDbEntity
  8
0
  6
Continuous
 62
   174
100
AcDbLine
 10
56.138749
 20
161.791909
 30
0.0
 11
56.138749
 21
163.575132
 31
0.0
  0
LWPOLYLINE
  5
109
100
AcDbEntity
  8
0
  6
Continuous
 62
   174
100
AcDbPolyline
 90
        4
 70
   128
 10
256.138749
 20
168.948436
 10
256.005628
 20
168.340077
 10
255.772546
 20
167.729002
 10
255.445929
 20
167.105411
  0
LINE
  5
10A
100
AcDbEntity
  8
0
  6
HIDDEN
 62
   174
100
AcDbLine
 10
137.656958
 20
121.683521
 30
0.0
 11
130.656933
 21
121.683521
 31
0.0
  0
ARC
  5
10B
100
AcDbEntity
  8
0
  6
HIDDEN
 62
   174
100
AcDbCircle
 10
151.239242
 20
113.183784
 30
0.0
 40
1.0
100
AcDbArc
 50
90.0
 51
180.0
  0
LINE
  5
10C
100
AcDbEntity
  8
0
  6
HIDDEN
 62
   174
100
AcDbLine
 10
186.490373
 20
144.683521
 30
0.0
 11
187.456934
 21
144.683521
 31
0.0
  0
LINE
  5
10D
100
AcDbEntity
  8
0
  6
Continuous
 62
   174
100
AcDbLine
 10
182.314605
 20
144.683521
 30
0.0
 11
182.314605
 21
142.683521
 31
0.0
  0
LINE
  5
10E
100
AcDbEntity
  8
0
  6
Continuous
 62
   174
100
AcDbLine
 10
67.438749
 20
133.2974
 30
0.0
 11
73.638749
 21
133.2974
 31
0.0
  0
LINE
  5
10F
100
AcDbEntity
  8
0
  6
HIDDEN
 62
   174
100
AcDbLine
 10
236.638749
 20
159.908888
 30
0.0
 11
236.638749
 21
154.69307
 31
0.0
  0
LINE
  5
110
100
AcDbEntity
  8
0
  6
Continuous
 62
   174
100
AcDbLine
 10
73.638749
 20
114.683521
 30
0.0
 11
75.138749
 21
114.683521
 31
0.0
  0
LINE
  5
111
100
AcDbEntity
  8
0
  6
HIDDEN
 62
   174
100
AcDbLine
 10
174.638749
 20
114.183521
 30
0.0
 11
174.638749
 21
121.683521
 31
0.0
  0
LINE
  5
112
100
AcDbEntity
  8
0
  6
HIDDEN
 62
   174
100
AcDbLine
 10
162.056777
 20
112.683521
 30
0.0
 11
162.014291
 21
112.683521
 31
0.0
  0
LINE
  5
113
100
AcDbEntity
  8
0
  6
Continuous
 62
   174
100
AcDbLine
 10
210.656943
 20
167.683521
 30
0.0
 11
207.656781
 21
167.683521
 31
0.0
  0
ARC
  5
114
100
AcDbEntity
  8
0
  6
HIDDEN
 62
   174
100
AcDbCircle
 10
173.239242
 20
113.183784
 30
0.0
 40
1.0
100
AcDbArc
 50
90.0
 51
180.0
  0
LINE
  5
115
100
AcDbEntity
  8
0
  6
Continuous
 62
   174
100
AcDbLine
 10
161.057289
 20
112.183784
 30
0.0
 11
151.257425
 21
112.183784
 31
0.0
  0
ARC
  5
116
100
AcDbEntity
  8
0
  6
Continuous
 62
   174
100
AcDbCircle
 10
139.039242
 20
113.183784
 30
0.0
 40
1.0
100
AcDbArc
 50
-90.0
 51
-31.836529
  0
LINE
  5
117
100
AcDbEntity
  8
0
  6
HIDDEN
 62
   174
100
AcDbLine
 10
224.525596
 20
170.683521
 30
0.0
 11
225.138749
 21
170.683521
 31
0.0
  0
LWPOLYLINE
  5
118
100
AcDbEntity
  8
0
  6
HIDDEN
 62
   174
100
AcDbPolyline
 90
        4
 70
   128
 10
255.445929
 20
158.105861
 10
255.773829
 20
159.358676
 10
256.006583
 20
160.581497
 10
256.138749
 20
161.791909
  0
ARC
  5
119
100
AcDbEntity
  8
0
  6
HIDDEN
 62
   174
100
AcDbCircle
 10
139.039242
 20
113.183784
 30
0.0
 40
1.0
100
AcDbArc
 50
-180.0
 51
-90.0
  0
LINE
  5
11A
100
AcDbEntity
  8
0
  6
HIDDEN
 62
   174
100
AcDbLine
 10
225.138749
 20
170.683521
 30
0.0
 11
225.538749
 21
170.683521
 31
0.0
  0
LINE
  5
11B
100
AcDbEntity
  8
0
  6
Continuous
 62
   174
100
AcDbLine
 10
121.138749
 20
112.683521
 30
0.0
 11
191.138749
 21
112.683521
 31
0.0
  0
LINE
  5
11C
100
AcDbEntity
  8
0
  6
Continuous
 62
   174
100
AcDbLine
 10
59.938749
 20
167.270045
 30
0.0
 11
59.938749
 21
162.692583
 31
0.0
  0
LINE
  5
11D
100
AcDbEntity
  8
0
  6
HIDDEN
 62
   174
100
AcDbLine
 10
238.638749
 20
127.183521
 30
0.0
 11
238.638749
 21
122.183521
 31
0.0
  0
LINE
  5
11E
100
AcDbEntity
  8
0
  6
HIDDEN
 62
   174
100
AcDbLine
 10
73.638749
 20
122.186888
 30
0.0
 11
73.638749
 21
127.186887
 31
0.0
  0
LINE
  5
11F
100
AcDbEntity
  8
0
  6
HIDDEN
 62
   174
100
AcDbLine
 10
182.332674
 20
142.683521
 30
0.0
 11
180.856916
 21
142.683521
 31
0.0
  0
LINE
  5
120
100
AcDbEntity
  8
0
  6
Continuous
 62
   174
100
AcDbLine
 10
237.138749
 20
141.683521
 30
0.0
 11
237.138749
 21
113.683521
 31
0.0
  0
LINE
  5
121
100
AcDbEntity
  8
0
  6
HIDDEN
 62
   174
100
AcDbLine
 10
138.930056
 20
112.683521
 30
0.0
 11
129.383622
 21
112.683521
 31
0.0
  0
LINE
  5
122
100
AcDbEntity
  8
0
  6
HIDDEN
 62
   174
100
AcDbLine
 10
184.056764
 20
112.683521
 30
0.0
 11
182.605648
 21
112.683521
 31
0.0
  0
LINE
  5
123
100
AcDbEntity
  8
0
  6
HIDDEN
 62
   174
100
AcDbLine
 10
219.138806
 20
170.683521
 30
0.0
 11
220.321344
 21
170.683521
 31
0.0
  0
LINE
  5
124
100
AcDbEntity
  8
0
  6
HIDDEN
 62
   174
100
AcDbLine
 10
251.638749
 20
156.192833
 30
0.0
 11
251.638749
 21
162.692583
 31
0.0
  0
LINE
  5
125
100
AcDbEntity
  8
0
  6
HIDDEN
 62
   174
100
AcDbLine
 10
255.445929
 20
167.261181
 30
0.0
 11
252.338749
 21
167.261181
 31
0.0
  0
LINE
  5
126
100
AcDbEntity
  8
0
  6
Continuous
 62
   174
100
AcDbLine
 10
252.338749
 20
158.26163
 30
0.0
 11
255.445929
 21
158.26163
 31
0.0
  0
LINE
  5
127
100
AcDbEntity
  8
0
  6
HIDDEN
 62
   174
100
AcDbLine
 10
225.156843
 20
170.633521
 30
0.0
 11
220.339334
 21
170.633521
 31
0.0
  0
LINE
  5
128
100
AcDbEntity
  8
0
  6
HIDDEN
 62
   174
100
AcDbLine
 10
93.156921
 20
170.633521
 30
0.0
 11
88.179664
 21
170.633521
 31
0.0
  0
LINE
  5
129
100
AcDbEntity
  8
0
  6
HIDDEN
 62
   174
100
AcDbLine
 10
181.622093
 20
114.183784
 30
0.0
 11
174.692595
 21
114.183784
 31
0.0
  0
LINE
  5
12A
100
AcDbEntity
  8
0
  6
HIDDEN
 62
   174
100
AcDbLine
 10
152.692608
 20
114.183784
 30
0.0
 11
151.257425
 21
114.183784
 31
0.0
  0
LINE
  5
12B
100
AcDbEntity
  8
0
  6
HIDDEN
 62
   174
100
AcDbLine
 10
137.622119
 20
114.183784
 30
0.0
 11
130.692621
 21
114.183784
 31
0.0
  0
LINE
  5
12C
100
AcDbEntity
  8
0
  6
HIDDEN
 62
   174
100
AcDbLine
 10
75.656859
 20
141.683521
 30
0.0
 11
78.656809
 21
141.683521
 31
0.0
  0
ARC
  5
12D
100
AcDbEntity
  8
0
  6
HIDDEN
 62
   174
100
AcDbCircle
 10
129.239242
 20
113.183784
 30
0.0
 40
1.0
100
AcDbArc
 50
90.0
 51
180.0
  0
LINE
  5
12E
100
AcDbEntity
  8
0
  6
Continuous
 62
   174
100
AcDbLine
 10
56.831569
 20
167.261181
 30
0.0
 11
59.938749
 21
167.261181
 31
0.0
  0
LINE
  5
12F
100
AcDbEntity
  8
0
  6
Continuous
 62
   174
100
AcDbLine
 10
67.438749
 20
127.183521
 30
0.0
 11
67.438749
 21
122.183521
 31
0.0
  0
LINE
  5
130
100
AcDbEntity
  8
0
  6
Continuous
 62
   174
100
AcDbLine
 10
139.057302
 20
112.183784
 30
0.0
 11
129.257438
 21
112.183784
 31
0.0
  0
LINE
  5
131
100
AcDbEntity
  8
0
  6
HIDDEN
 62
   174
100
AcDbLine
 10
67.438749
 20
119.607586
 30
0.0
 11
73.638749
 21
119.607586
 31
0.0
  0
LINE
  5
132
100
AcDbEntity
  8
0
  6
Continuous
 62
   174
100
AcDbLine
 10
75.138749
 20
113.683521
 30
0.0
 11
105.138749
 21
113.683521
 31
0.0
  0
LINE
  5
133
100
AcDbEntity
  8
0
  6
HIDDEN
 62
   174
100
AcDbLine
 10
101.638749
 20
167.692145
 30
0.0
 11
101.638749
 21
170.692095
 31
0.0
  0
LINE
  5
134
100
AcDbEntity
  8
0
  6
HIDDEN
 62
   174
100
AcDbLine
 10
183.057276
 20
114.183784
 30
0.0
 11
181.622093
 21
114.183784
 31
0.0
  0
ARC
  5
135
100
AcDbEntity
  8
0
  6
HIDDEN
 62
   174
100
AcDbCircle
 10
183.039242
 20
113.183784
 30
0.0
 40
1.0
100
AcDbArc
 50
-180.0
 51
-90.0
  0
LWPOLYLINE
  5
136
100
AcDbEntity
  8
0
  6
Continuous
 62
   174
100
AcDbPolyline
 90
        4
 70
   128
 10
255.445929
 20
158.26163
 10
255.773829
 20
157.635223
 10
256.006583
 20
157.02381
 10
256.138749
 20
156.418606
  0
LINE
  5
137
100
AcDbEntity
  8
0
  6
Continuous
 62
   174
100
AcDbLine
 10
185.962892
 20
144.683521
 30
0.0
 11
185.962892
 21
142.683521
 31
0.0
  0
LINE
  5
138
100
AcDbEntity
  8
0
  6
Continuous
 62
   174
100
AcDbLine
 10
78.656809
 20
167.683521
 30
0.0
 11
75.656859
 21
167.683521
 31
0.0
  0
LINE
  5
139
100
AcDbEntity
  8
0
  6
HIDDEN
 62
   174
100
AcDbLine
 10
140.05679
 20
114.183521
 30
0.0
 11
128.256888
 21
114.183521
 31
0.0
  0
LINE
  5
13A
100
AcDbEntity
  8
0
  6
HIDDEN
 62
   174
100
AcDbLine
 10
210.638749
 20
167.683521
 30
0.0
 11
210.638749
 21
141.683521
 31
0.0
  0
LINE
  5
13B
100
AcDbEntity
  8
0
  6
Continuous
 62
   174
100
AcDbLine
 10
244.838749
 20
119.61902
 30
0.0
 11
244.838749
 21
122.198145
 31
0.0
  0
LINE
  5
13C
100
AcDbEntity
  8
0
  6
Continuous
 62
   174
100
AcDbLine
 10
67.438749
 20
122.183521
 30
0.0
 11
73.638749
 21
122.183521
 31
0.0
  0
LINE
  5
13D
100
AcDbEntity
  8
0
  6
Continuous
 62
   174
100
AcDbLine
 10
244.838749
 20
116.070569
 30
0.0
 11
238.638749
 21
116.070569
 31
0.0
  0
LINE
  5
13E
100
AcDbEntity
  8
0
  6
HIDDEN
 62
   174
100
AcDbLine
 10
236.638749
 20
165.476278
 30
0.0
 11
236.638749
 21
167.692145
 31
0.0
  0
LINE
  5
13F
100
AcDbEntity
  8
0
  6
Continuous
 62
   174
100
AcDbLine
 10
75.638749
 20
167.683521
 30
0.0
 11
75.638749
 21
165.467403
 31
0.0
  0
LINE
  5
140
100
AcDbEntity
  8
0
  6
HIDDEN
 62
   174
100
AcDbLine
 10
130.656933
 20
114.183521
 30
0.0
 11
137.656958
 21
114.183521
 31
0.0
  0
ARC
  5
141
100
AcDbEntity
  8
0
  6
HIDDEN
 62
   174
100
AcDbCircle
 10
101.638749
 20
167.683521
 30
0.0
 40
3.0
100
AcDbArc
 50
-306.0
 51
-288.0
  0
ARC
  5
142
100
AcDbEntity
  8
0
  6
HIDDEN
 62
   174
100
AcDbCircle
 10
139.039242
 20
113.183784
 30
0.0
 40
1.0
100
AcDbArc
 50
-31.836529
 51
0.0
  0
LINE
  5
143
100
AcDbEntity
  8
0
  6
Continuous
 62
   174
100
AcDbLine
 10
252.338749
 20
162.692583
 30
0.0
 11
252.338749
 21
167.114121
 31
0.0
  0
LINE
  5
144
100
AcDbEntity
  8
0
  6
Continuous
 62
   174
100
AcDbLine
 10
256.138749
 20
156.418606
 30
0.0
 11
256.138749
 21
155.526994
 31
0.0
  0
LINE
  5
145
100
AcDbEntity
  8
0
  6
Continuous
 62
   174
100
AcDbLine
 10
256.138749
 20
169.840047
 30
0.0
 11
256.138749
 21
168.948436
 31
0.0
  0
LINE
  5
146
100
AcDbEntity
  8
0
  6
Continuous
 62
   174
100
AcDbLine
 10
73.638749
 20
122.194746
 30
0.0
 11
73.638749
 21
126.190784
 31
0.0
  0
LINE
  5
147
100
AcDbEntity
  8
0
  6
Continuous
 62
   174
100
AcDbLine
 10
191.138749
 20
113.683521
 30
0.0
 11
191.138749
 21
135.683521
 31
0.0
  0
ARC
  5
148
100
AcDbEntity
  8
0
  6
HIDDEN
 62
   174
100
AcDbCircle
 10
173.239242
 20
113.183784
 30
0.0
 40
1.0
100
AcDbArc
 50
-90.0
 51
0.0
  0
LINE
  5
149
100
AcDbEntity
  8
0
  6
Continuous
 62
   174
100
AcDbLine
 10
59.938749
 20
162.692583
 30
0.0
 11
59.938749
 21
158.115121
 31
0.0
  0
LINE
  5
14A
100
AcDbEntity
  8
0
  6
Continuous
 62
   174
100
AcDbLine
 10
67.438749
 20
122.194746
 30
0.0
 11
67.438749
 21
119.616046
 31
0.0
  0
LINE
  5
14B
100
AcDbEntity
  8
0
  6
HIDDEN
 62
   174
100
AcDbLine
 10
187.456934
 20
142.683521
 30
0.0
 11
185.980963
 21
142.683521
 31
0.0
  0
LINE
  5
14C
100
AcDbEntity
  8
0
  6
Continuous
 62
   174
100
AcDbLine
 10
252.338749
 20
167.105411
 30
0.0
 11
255.445929
 21
167.105411
 31
0.0
  0
LINE
  5
14D
100
AcDbEntity
  8
0
  6
Continuous
 62
   174
100
AcDbLine
 10
244.838749
 20
127.186887
 30
0.0
 11
238.638749
 21
127.186887
 31
0.0
  0
LWPOLYLINE
  5
14E
100
AcDbEntity
  8
0
  6
Continuous
 62
   174
100
AcDbPolyline
 90
        4
 70
   128
 10
75.680709
 20
162.683521
 10
75.671714
 20
161.734514
 10
75.651308
 20
160.796347
 10
75.638749
 20
159.899639
  0
LINE
  5
14F
100
AcDbEntity
  8
0
  6
HIDDEN
 62
   174
100
AcDbLine
 10
130.638749
 20
114.183521
 30
0.0
 11
130.638749
 21
121.683521
 31
0.0
  0
LINE
  5
150
100
AcDbEntity
  8
0
  6
HIDDEN
 62
   174
100
AcDbLine
 10
150.299998
 20
112.683521
 30
0.0
 11
150.256875
 21
112.683521
 31
0.0
  0
LINE
  5
151
100
AcDbEntity
  8
0
  6
Continuous
 62
   174
100
AcDbLine
 10
207.138749
 20
113.683521
 30
0.0
 11
191.138749
 21
113.683521
 31
0.0
  0
ARC
  5
152
100
AcDbEntity
  8
0
  6
HIDDEN
 62
   174
100
AcDbCircle
 10
161.039242
 20
113.183784
 30
0.0
 40
1.0
100
AcDbArc
 50
-180.0
 51
-90.0
  0
LINE
  5
153
100
AcDbEntity
  8
0
  6
HIDDEN
 62
   174
100
AcDbLine
 10
222.138749
 20
170.683521
 30
0.0
 11
224.115932
 21
170.683521
 31
0.0
  0
LINE
  5
154
100
AcDbEntity
  8
0
  6
HIDDEN
 62
   174
100
AcDbLine
 10
75.138749
 20
124.694633
 30
0.0
 11
75.138749
 21
134.694183
 31
0.0
  0
LINE
  5
155
100
AcDbEntity
  8
0
  6
HIDDEN
 62
   174
100
AcDbLine
 10
252.338749
 20
153.692945
 30
0.0
 11
252.338749
 21
153.693583
 31
0.0
  0
LWPOLYLINE
  5
156
100
AcDbEntity
  8
0
  6
HIDDEN
 62
   174
100
AcDbPolyline
 90
        4
 70
   128
 10
56.138749
 20
168.948436
 10
56.271869
 20
168.340077
 10
56.504952
 20
167.729002
 10
56.831569
 20
167.105411
  0
LINE
  5
157
100
AcDbEntity
  8
0
  6
HIDDEN
 62
   174
100
AcDbLine
 10
67.438749
 20
116.070569
 30
0.0
 11
73.638749
 21
116.070569
 31
0.0
  0
LINE
  5
158
100
AcDbEntity
  8
0
  6
Continuous
 62
   174
100
AcDbLine
 10
67.438749
 20
129.762121
 30
0.0
 11
73.638749
 21
129.762121
 31
0.0
  0
LINE
  5
159
100
AcDbEntity
  8
0
  6
HIDDEN
 62
   174
100
AcDbLine
 10
233.638749
 20
167.683521
 30
0.0
 11
233.638749
 21
141.683521
 31
0.0
  0
LINE
  5
15A
100
AcDbEntity
  8
0
  6
Continuous
 62
   174
100
AcDbLine
 10
238.638749
 20
126.19036
 30
0.0
 11
238.638749
 21
122.198145
 31
0.0
  0
LINE
  5
15B
100
AcDbEntity
  8
0
  6
HIDDEN
 62
   174
100
AcDbLine
 10
183.057276
 20
114.183784
 30
0.0
 11
181.622093
 21
114.183784
 31
0.0
  0
ARC
  5
15C
100
AcDbEntity
  8
0
  6
HIDDEN
 62
   174
100
AcDbCircle
 10
129.239242
 20
113.183784
 30
0.0
 40
1.0
100
AcDbArc
 50
90.0
 51
180.0
  0
LINE
  5
15D
100
AcDbEntity
  8
0
  6
HIDDEN
 62
   174
100
AcDbLine
 10
252.338749
 20
158.105861
 30
0.0
 11
255.445929
 21
158.105861
 31
0.0
  0
LINE
  5
15E
100
AcDbEntity
  8
0
  6
Continuous
 62
   174
100
AcDbLine
 10
59.938749
 20
171.683071
 30
0.0
 11
56.831569
 21
171.683071
 31
0.0
  0
LINE
  5
15F
100
AcDbEntity
  8
0
  6
HIDDEN
 62
   174
100
AcDbLine
 10
90.138749
 20
170.683521
 30
0.0
 11
91.956154
 21
170.683521
 31
0.0
  0
LINE
  5
160
100
AcDbEntity
  8
0
  6
HIDDEN
 62
   174
100
AcDbLine
 10
137.638749
 20
114.183521
 30
0.0
 11
137.638749
 21
121.683521
 31
0.0
  0
ARC
  5
161
100
AcDbEntity
  8
0
  6
HIDDEN
 62
   174
100
AcDbCircle
 10
183.039242
 20
113.183784
 30
0.0
 40
1.0
100
AcDbArc
 50
-352.288082
 51
-270.0
  0
ARC
  5
162
100
AcDbEntity
  8
0
  6
Continuous
 62
   174
100
AcDbCircle
 10
210.638749
 20
167.683521
 30
0.0
 40
3.0
100
AcDbArc
 50
90.0
 51
180.0
  0
ARC
  5
163
100
AcDbEntity
  8
0
  6
Continuous
 62
   174
100
AcDbCircle
 10
161.039242
 20
113.183784
 30
0.0
 40
1.0
100
AcDbArc
 50
-90.0
 51
-31.836529
  0
LINE
  5
164
100
AcDbEntity
  8
0
  6
Continuous
 62
   174
100
AcDbLine
 10
121.138749
 20
112.683521
 30
0.0
 11
121.138749
 21
113.683521
 31
0.0
  0
LINE
  5
165
100
AcDbEntity
  8
0
  6
Continuous
 62
   174
100
AcDbLine
 10
251.638749
 20
162.692583
 30
0.0
 11
251.638749
 21
155.978278
 31
0.0
  0
LINE
  5
166
100
AcDbEntity
  8
0
  6
Continuous
 62
   174
100
AcDbLine
 10
59.938749
 20
158.105861
 30
0.0
 11
56.831569
 21
158.105861
 31
0.0
  0
LINE
  5
167
100
AcDbEntity
  8
0
  6
Continuous
 62
   174
100
AcDbLine
 10
67.438749
 20
115.00074
 30
0.0
 11
73.638749
 21
115.00074
 31
0.0
  0
LINE
  5
168
100
AcDbEntity
  8
0
  6
Continuous
 62
   174
100
AcDbLine
 10
244.838749
 20
129.765116
 30
0.0
 11
244.838749
 21
133.299165
 31
0.0
  0
LINE
  5
169
100
AcDbEntity
  8
0
  6
HIDDEN
 62
   174
100
AcDbLine
 10
159.638749
 20
114.183521
 30
0.0
 11
159.638749
 21
121.683521
 31
0.0
  0
LINE
  5
16A
100
AcDbEntity
  8
0
  6
HIDDEN
 62
   174
100
AcDbLine
 10
137.638749
 20
114.183521
 30
0.0
 11
137.638749
 21
121.683521
 31
0.0
  0
LINE
  5
16B
100
AcDbEntity
  8
0
  6
HIDDEN
 62
   174
100
AcDbLine
 10
161.281829
 20
144.683521
 30
0.0
 11
173.03181
 21
144.683521
 31
0.0
  0
LINE
  5
16C
100
AcDbEntity
  8
0
  6
HIDDEN
 62
   174
100
AcDbLine
 10
78.638749
 20
167.692145
 30
0.0
 11
78.638749
 21
170.692095
 31
0.0
  0
LINE
  5
16D
100
AcDbEntity
  8
0
  6
HIDDEN
 62
   174
100
AcDbLine
 10
181.622093
 20
114.183784
 30
0.0
 11
174.692595
 21
114.183784
 31
0.0
  0
LINE
  5
16E
100
AcDbEntity
  8
0
  6
HIDDEN
 62
   174
100
AcDbLine
 10
59.938749
 20
158.26163
 30
0.0
 11
59.938749
 21
167.105411
 31
0.0
  0
LINE
  5
16F
100
AcDbEntity
  8
0
  6
Continuous
 62
   174
100
AcDbLine
 10
244.838749
 20
119.607586
 30
0.0
 11
238.638749
 21
119.607586
 31
0.0
  0
LWPOLYLINE
  5
170
100
AcDbEntity
  8
0
  6
Continuous
 62
   174
100
AcDbPolyline
 90
        4
 70
   128
 10
236.638749
 20
159.899639
 10
236.626189
 20
160.79634
 10
236.605784
 20
161.734494
 10
236.596789
 20
162.683521
  0
LINE
  5
171
100
AcDbEntity
  8
0
  6
HIDDEN
 62
   174
100
AcDbLine
 10
181.656931
 20
121.683521
 30
0.0
 11
174.656907
 21
121.683521
 31
0.0
  0
LINE
  5
172
100
AcDbEntity
  8
0
  6
Continuous
 62
   174
100
AcDbLine
 10
181.622093
 20
112.183784
 30
0.0
 11
173.257411
 21
112.183784
 31
0.0
  0
LINE
  5
173
100
AcDbEntity
  8
0
  6
HIDDEN
 62
   174
100
AcDbLine
 10
252.338749
 20
158.105861
 30
0.0
 11
252.338749
 21
167.261181
 31
0.0
  0
LINE
  5
174
100
AcDbEntity
  8
0
  6
Continuous
 62
   174
100
AcDbLine
 10
75.638749
 20
159.899639
 30
0.0
 11
75.638749
 21
141.683521
 31
0.0
  0
LINE
  5
175
100
AcDbEntity
  8
0
  6
HIDDEN
 62
   174
100
AcDbLine
 10
86.738749
 20
170.683521
 30
0.0
 11
87.139074
 21
170.683521
 31
0.0
  0
LINE
  5
176
100
AcDbEntity
  8
0
  6
HIDDEN
 62
   174
100
AcDbLine
 10
233.638749
 20
141.683521
 30
0.0
 11
210.638749
 21
141.683521
 31
0.0
  0
LINE
  5
177
100
AcDbEntity
  8
0
  6
HIDDEN
 62
   174
100
AcDbLine
 10
218.756935
 20
170.633521
 30
0.0
 11
222.156893
 21
170.633521
 31
0.0
  0
LINE
  5
178
100
AcDbEntity
  8
0
  6
Continuous
 62
   174
100
AcDbLine
 10
236.638749
 20
159.899639
 30
0.0
 11
236.638749
 21
141.683521
 31
0.0
  0
ARC
  5
179
100
AcDbEntity
  8
0
  6
HIDDEN
 62
   174
100
AcDbCircle
 10
129.239242
 20
113.183784
 30
0.0
 40
1.0
100
AcDbArc
 50
180.0
 51
211.836529
  0
LINE
  5
17A
100
AcDbEntity
  8
0
  6
Continuous
 62
   174
100
AcDbLine
 10
59.938749
 20
171.691583
 30
0.0
 11
59.938749
 21
167.270045
 31
0.0
  0
LINE
  5
17B
100
AcDbEntity
  8
0
  6
HIDDEN
 62
   174
100
AcDbLine
 10
180.856916
 20
144.683521
 30
0.0
 11
182.24494
 21
144.683521
 31
0.0
  0
LINE
  5
17C
100
AcDbEntity
  8
0
  6
Continuous
 62
   174
100
AcDbLine
 10
182.24494
 20
144.683521
 30
0.0
 11
186.490373
 21
144.683521
 31
0.0
  0
LWPOLYLINE
  5
17D
100
AcDbEntity
  8
0
  6
Continuous
 62
   174
100
AcDbPolyline
 90
        4
 70
   128
 10
255.47469
 20
171.633701
 10
255.773829
 20
171.056664
 10
256.006583
 20
170.445251
 10
256.138749
 20
169.840047
  0
ARC
  5
17E
100
AcDbEntity
  8
0
  6
Continuous
 62
   174
100
AcDbCircle
 10
173.239242
 20
113.183784
 30
0.0
 40
1.0
100
AcDbArc
 50
211.836529
 51
270.0
  0
ARC
  5
17F
100
AcDbEntity
  8
0
  6
HIDDEN
 62
   174
100
AcDbCircle
 10
151.239242
 20
113.183784
 30
0.0
 40
1.0
100
AcDbArc
 50
-90.0
 51
0.0
  0
ARC
  5
180
100
AcDbEntity
  8
0
  6
HIDDEN
 62
   174
100
AcDbCircle
 10
139.039242
 20
113.183784
 30
0.0
 40
1.0
100
AcDbArc
 50
-270.0
 51
-180.0
  0
LWPOLYLINE
  5
181
100
AcDbEntity
  8
0
  6
HIDDEN
 62
   174
100
AcDbPolyline
 90
        7
 70
   128
 10
56.831569
 20
167.105411
 10
56.465467
 20
165.602141
 10
56.237367
 20
164.128151
 10
56.160436
 20
162.683758
 10
56.237323
 20
161.239312
 10
56.465415
 20
159.76516
 10
56.831569
 20
158.26163
  0
LWPOLYLINE
  5
182
100
AcDbEntity
  8
0
  6
HIDDEN
 62
   174
100
AcDbPolyline
 90
        6
 70
   128
 10
78.638749
 20
170.683521
 10
77.733433
 20
170.543661
 10
76.925128
 20
170.145939
 10
76.26328
 20
169.515773
 10
75.811454
 20
168.686718
 10
75.638749
 20
167.683521
  0
LINE
  5
183
100
AcDbEntity
  8
0
  6
Continuous
 62
   174
100
AcDbLine
 10
73.638749
 20
126.190784
 30
0.0
 11
73.638749
 21
127.194521
 31
0.0
  0
LINE
  5
184
100
AcDbEntity
  8
0
  6
Continuous
 62
   174
100
AcDbLine
 10
73.638749
 20
114.695296
 30
0.0
 11
73.638749
 21
115.012455
 31
0.0
  0
LINE
  5
185
100
AcDbEntity
  8
0
  6
HIDDEN
 62
   174
100
AcDbLine
 10
139.281842
 20
132.683521
 30
0.0
 11
151.031823
 21
132.683521
 31
0.0
  0
LINE
  5
186
100
AcDbEntity
  8
0
  6
Continuous
 62
   174
100
AcDbLine
 10
238.638749
 20
134.694183
 30
0.0
 11
238.638749
 21
134.377236
 31
0.0
  0
LINE
  5
187
100
AcDbEntity
  8
0
  6
HIDDEN
 62
   174
100
AcDbLine
 10
128.300011
 20
112.683521
 30
0.0
 11
128.256888
 21
112.683521
 31
0.0
  0
LINE
  5
188
100
AcDbEntity
  8
0
  6
HIDDEN
 62
   174
100
AcDbLine
 10
182.605648
 20
112.683521
 30
0.0
 11
172.256862
 21
112.683521
 31
0.0
  0
ARC
  5
189
100
AcDbEntity
  8
0
  6
HIDDEN
 62
   174
100
AcDbCircle
 10
139.039242
 20
113.183784
 30
0.0
 40
1.0
100
AcDbArc
 50
-180.0
 51
-90.0
  0
LINE
  5
18A
100
AcDbEntity
  8
0
  6
HIDDEN
 62
   174
100
AcDbLine
 10
251.638749
 20
162.692583
 30
0.0
 11
251.638749
 21
169.19212
 31
0.0
  0
LINE
  5
18B
100
AcDbEntity
  8
0
  6
HIDDEN
 62
   174
100
AcDbLine
 10
92.395017
 20
170.683521
 30
0.0
 11
93.138749
 21
170.683521
 31
0.0
  0
LINE
  5
18C
100
AcDbEntity
  8
0
  6
HIDDEN
 62
   174
100
AcDbLine
 10
130.638749
 20
114.183521
 30
0.0
 11
130.638749
 21
121.683521
 31
0.0
  0
LINE
  5
18D
100
AcDbEntity
  8
0
  6
HIDDEN
 62
   174
100
AcDbLine
 10
104.656871
 20
141.683521
 30
0.0
 11
101.656921
 21
141.683521
 31
0.0
  0
LINE
  5
18E
100
AcDbEntity
  8
0
  6
HIDDEN
 62
   174
100
AcDbLine
 10
75.638749
 20
154.683521
 30
0.0
 11
75.638749
 21
141.683521
 31
0.0
  0
LINE
  5
18F
100
AcDbEntity
  8
0
  6
HIDDEN
 62
   174
100
AcDbLine
 10
75.138749
 20
114.695296
 30
0.0
 11
75.138749
 21
124.694633
 31
0.0
  0
LINE
  5
190
100
AcDbEntity
  8
0
  6
Continuous
 62
   174
100
AcDbLine
 10
244.838749
 20
122.186888
 30
0.0
 11
238.638749
 21
122.186888
 31
0.0
  0
LWPOLYLINE
  5
191
100
AcDbEntity
  8
0
  6
Continuous
 62
   174
100
AcDbPolyline
 90
        6
 70
   128
 10
56.831569
 20
167.261181
 10
56.465443
 20
168.012871
 10
56.237345
 20
168.749918
 10
56.160441
 20
169.472166
 10
56.237359
 20
170.194405
 10
56.28826
 20
170.405987
  0
LINE
  5
192
100
AcDbEntity
  8
0
  6
HIDDEN
 62
   174
100
AcDbLine
 10
67.438749
 20
133.299165
 30
0.0
 11
73.638749
 21
133.299165
 31
0.0
  0
LINE
  5
193
100
AcDbEntity
  8
0
  6
Continuous
 62
   174
100
AcDbLine
 10
236.656792
 20
167.683521
 30
0.0
 11
233.656842
 21
167.683521
 31
0.0
  0
LWPOLYLINE
  5
194
100
AcDbEntity
  8
0
  6
Continuous
 62
   174
100
AcDbPolyline
 90
        4
 70
   128
 10
236.638749
 20
165.467403
 10
236.626189
 20
164.570668
 10
236.605784
 20
163.632514
 10
236.596789
 20
162.683521
  0
LWPOLYLINE
  5
195
100
AcDbEntity
  8
0
  6
HIDDEN
 62
   174
100
AcDbPolyline
 90
        4
 70
   128
 10
75.638749
 20
165.467403
 10
75.651309
 20
164.570668
 10
75.671714
 20
163.632514
 10
75.680709
 20
162.683521
  0
LINE
  5
196
100
AcDbEntity
  8
0
  6
Continuous
 62
   174
100
AcDbLine
 10
244.838749
 20
133.299165
 30
0.0
 11
238.638749
 21
133.299165
 31
0.0
  0
LWPOLYLINE
  5
197
100
AcDbEntity
  8
0
  6
Continuous
 62
   174
100
AcDbPolyline
 90
        4
 70
   128
 10
75.680709
 20
162.683521
 10
75.671714
 20
163.632504
 10
75.651309
 20
164.57067
 10
75.638749
 20
165.467403
  0
LINE
  5
198
100
AcDbEntity
  8
0
  6
HIDDEN
 62
   174
100
AcDbLine
 10
87.139074
 20
170.683521
 30
0.0
 11
88.161566
 21
170.683521
 31
0.0
  0
ARC
  5
199
100
AcDbEntity
  8
0
  6
Continuous
 62
   174
100
AcDbCircle
 10
151.239242
 20
113.183784
 30
0.0
 40
1.0
100
AcDbArc
 50
211.836529
 51
270.0
  0
ARC
  5
19A
100
AcDbEntity
  8
0
  6
HIDDEN
 62
   174
100
AcDbCircle
 10
161.039242
 20
113.183784
 30
0.0
 40
1.0
100
AcDbArc
 50
-31.836529
 51
0.0
  0
LINE
  5
19B
100
AcDbEntity
  8
0
  6
HIDDEN
 62
   174
100
AcDbLine
 10
220.321344
 20
170.683521
 30
0.0
 11
222.138749
 21
170.683521
 31
0.0
  0
ARC
  5
19C
100
AcDbEntity
  8
0
  6
HIDDEN
 62
   174
100
AcDbCircle
 10
233.638749
 20
167.683521
 30
0.0
 40
3.0
100
AcDbArc
 50
54.0
 51
90.0
  0
LINE
  5
19D
100
AcDbEntity
  8
0
  6
HIDDEN
 62
   174
100
AcDbLine
 10
152.65692
 20
114.183521
 30
0.0
 11
159.656945
 21
114.183521
 31
0.0
  0
LINE
  5
19E
100
AcDbEntity
  8
0
  6
Continuous
 62
   174
100
AcDbLine
 10
238.638749
 20
115.013305
 30
0.0
 11
238.638749
 21
114.695296
 31
0.0
  0
LINE
  5
19F
100
AcDbEntity
  8
0
  6
HIDDEN
 62
   174
100
AcDbLine
 10
78.656809
 20
167.683521
 30
0.0
 11
75.656859
 21
167.683521
 31
0.0
  0
LINE
  5
1A0
100
AcDbEntity
  8
0
  6
HIDDEN
 62
   174
100
AcDbLine
 10
174.692595
 20
114.183784
 30
0.0
 11
173.257411
 21
114.183784
 31
0.0
  0
LINE
  5
1A1
100
AcDbEntity
  8
0
  6
HIDDEN
 62
   174
100
AcDbLine
 10
184.056764
 20
114.183521
 30
0.0
 11
172.256862
 21
114.183521
 31
0.0
  0
LINE
  5
1A2
100
AcDbEntity
  8
0
  6
HIDDEN
 62
   174
100
AcDbLine
 10
161.057289
 20
112.183784
 30
0.0
 11
151.257425
 21
112.183784
 31
0.0
  0
LINE
  5
1A3
100
AcDbEntity
  8
0
  6
Continuous
 62
   174
100
AcDbLine
 10
248.638749
 20
156.086405
 30
0.0
 11
248.638749
 21
162.692583
 31
0.0
  0
LINE
  5
1A4
100
AcDbEntity
  8
0
  6
Continuous
 62
   174
100
AcDbLine
 10
185.962892
 20
144.683521
 30
0.0
 11
191.138749
 21
144.683521
 31
0.0
  0
LINE
  5
1A5
100
AcDbEntity
  8
0
  6
Continuous
 62
   174
100
AcDbLine
 10
73.638749
 20
134.683521
 30
0.0
 11
75.138749
 21
134.683521
 31
0.0
  0
ARC
  5
1A6
100
AcDbEntity
  8
0
  6
HIDDEN
 62
   174
100
AcDbCircle
 10
101.638749
 20
167.683521
 30
0.0
 40
3.0
100
AcDbArc
 50
-324.0
 51
-306.0
  0
LINE
  5
1A7
100
AcDbEntity
  8
0
  6
HIDDEN
 62
   174
100
AcDbLine
 10
91.956154
 20
170.633521
 30
0.0
 11
87.751902
 21
170.633521
 31
0.0
  0
LINE
  5
1A8
100
AcDbEntity
  8
0
  6
HIDDEN
 62
   174
100
AcDbLine
 10
139.057302
 20
114.183784
 30
0.0
 11
137.622119
 21
114.183784
 31
0.0
  0
LINE
  5
1A9
100
AcDbEntity
  8
0
  6
Continuous
 62
   174
100
AcDbLine
 10
59.938749
 20
158.115121
 30
0.0
 11
59.938749
 21
153.693583
 31
0.0
  0
LWPOLYLINE
  5
1AA
100
AcDbEntity
  8
0
  6
HIDDEN
 62
   174
100
AcDbPolyline
 90
        4
 70
   128
 10
75.638749
 20
159.899639
 10
75.651308
 20
160.79634
 10
75.671713
 20
161.734494
 10
75.680709
 20
162.683521
  0
LINE
  5
1AB
100
AcDbEntity
  8
0
  6
Continuous
 62
   174
100
AcDbLine
 10
105.138749
 20
141.683521
 30
0.0
 11
105.138749
 21
135.683521
 31
0.0
  0
ARC
  5
1AC
100
AcDbEntity
  8
0
  6
HIDDEN
 62
   174
100
AcDbCircle
 10
173.239242
 20
113.183784
 30
0.0
 40
1.0
100
AcDbArc
 50
0.0
 51
90.0
  0
ARC
  5
1AD
100
AcDbEntity
  8
0
  6
HIDDEN
 62
   174
100
AcDbCircle
 10
129.239242
 20
113.183784
 30
0.0
 40
1.0
100
AcDbArc
 50
-90.0
 51
0.0
  0
LWPOLYLINE
  5
1AE
100
AcDbEntity
  8
0
  6
Continuous
 62
   174
100
AcDbPolyline
 90
        4
 70
   128
 10
56.138749
 20
163.575132
 10
56.271869
 20
164.791847
 10
56.504955
 20
166.014011
 10
56.831569
 20
167.261181
  0
LINE
  5
1AF
100
AcDbEntity
  8
0
  6
Continuous
 62
   174
100
AcDbLine
 10
244.838749
 20
115.013305
 30
0.0
 11
244.838749
 21
116.082258
 31
0.0
  0
LINE
  5
1B0
100
AcDbEntity
  8
0
  6
Continuous
 62
   174
100
AcDbLine
 10
233.638749
 20
141.683521
 30
0.0
 11
233.638749
 21
167.683521
 31
0.0
  0
LINE
  5
1B1
100
AcDbEntity
  8
0
  6
HIDDEN
 62
   174
100
AcDbLine
 10
161.281829
 20
132.683521
 30
0.0
 11
173.03181
 21
132.683521
 31
0.0
  0
LINE
  5
1B2
100
AcDbEntity
  8
0
  6
Continuous
 62
   174
100
AcDbLine
 10
207.138749
 20
135.683521
 30
0.0
 11
207.138749
 21
113.683521
 31
0.0
  0
ARC
  5
1B3
100
AcDbEntity
  8
0
  6
HIDDEN
 62
   174
100
AcDbCircle
 10
183.039242
 20
113.183784
 30
0.0
 40
1.0
100
AcDbArc
 50
-270.0
 51
-180.0
  0
LINE
  5
1B4
100
AcDbEntity
  8
0
  6
HIDDEN
 62
   174
100
AcDbLine
 10
248.638749
 20
162.692583
 30
0.0
 11
248.638749
 21
169.19212
 31
0.0
  0
LINE
  5
1B5
100
AcDbEntity
  8
0
  6
HIDDEN
 62
   174
100
AcDbLine
 10
63.638749
 20
156.192833
 30
0.0
 11
63.638749
 21
162.692583
 31
0.0
  0
LINE
  5
1B6
100
AcDbEntity
  8
0
  6
Continuous
 62
   174
100
AcDbLine
 10
60.638749
 20
169.406676
 30
0.0
 11
60.638749
 21
171.692008
 31
0.0
  0
LWPOLYLINE
  5
1B7
100
AcDbEntity
  8
0
  6
Continuous
 62
   174
100
AcDbPolyline
 90
        4
 70
   128
 10
56.831569
 20
158.105861
 10
56.503668
 20
159.358676
 10
56.270915
 20
160.581497
 10
56.138749
 20
161.791909
  0
LINE
  5
1B8
100
AcDbEntity
  8
0
  6
Continuous
 62
   174
100
AcDbLine
 10
56.28826
 20
170.405987
 30
0.0
 11
56.804915
 21
171.635688
 31
0.0
  0
LINE
  5
1B9
100
AcDbEntity
  8
0
  6
HIDDEN
 62
   174
100
AcDbLine
 10
91.956154
 20
170.683521
 30
0.0
 11
92.395017
 21
170.683521
 31
0.0
  0
LINE
  5
1BA
100
AcDbEntity
  8
0
  6
HIDDEN
 62
   174
100
AcDbLine
 10
75.638749
 20
165.467403
 30
0.0
 11
75.638749
 21
167.683521
 31
0.0
  0
LINE
  5
1BB
100
AcDbEntity
  8
0
  6
HIDDEN
 62
   174
100
AcDbLine
 10
139.281842
 20
144.683521
 30
0.0
 11
151.031823
 21
144.683521
 31
0.0
  0
LINE
  5
1BC
100
AcDbEntity
  8
0
  6
HIDDEN
 62
   174
100
AcDbLine
 10
104.638749
 20
167.683521
 30
0.0
 11
104.638749
 21
141.683521
 31
0.0
  0
ARC
  5
1BD
100
AcDbEntity
  8
0
  6
HIDDEN
 62
   174
100
AcDbCircle
 10
173.239242
 20
113.183784
 30
0.0
 40
1.0
100
AcDbArc
 50
180.0
 51
211.836529
  0
ARC
  5
1BE
100
AcDbEntity
  8
0
  6
Continuous
 62
   174
100
AcDbCircle
 10
129.239242
 20
113.183784
 30
0.0
 40
1.0
100
AcDbArc
 50
211.836529
 51
270.0
  0
LWPOLYLINE
  5
1BF
100
AcDbEntity
  8
0
  6
HIDDEN
 62
   174
100
AcDbPolyline
 90
        4
 70
   128
 10
56.138749
 20
155.526994
 10
56.271869
 20
154.918635
 10
56.504952
 20
154.307561
 10
56.802848
 20
153.733271
  0
LINE
  5
1C0
100
AcDbEntity
  8
0
  6
Continuous
 62
   174
100
AcDbLine
 10
210.638749
 20
167.683521
 30
0.0
 11
233.638749
 21
167.683521
 31
0.0
  0
LINE
  5
1C1
100
AcDbEntity
  8
0
  6
Continuous
 62
   174
100
AcDbLine
 10
104.638749
 20
141.683521
 30
0.0
 11
104.638749
 21
167.683521
 31
0.0
  0
ARC
  5
1C2
100
AcDbEntity
  8
0
  6
Continuous
 62
   174
100
AcDbCircle
 10
210.638749
 20
167.683521
 30
0.0
 40
3.0
100
AcDbArc
 50
-270.0
 51
-180.0
  0
ARC
  5
1C3
100
AcDbEntity
  8
0
  6
HIDDEN
 62
   174
100
AcDbCircle
 10
139.039242
 20
113.183784
 30
0.0
 40
1.0
100
AcDbArc
 50
0.0
 51
90.0
  0
LINE
  5
1C4
100
AcDbEntity
  8
0
  6
Continuous
 62
   174
100
AcDbLine
 10
251.638749
 20
169.406463
 30
0.0
 11
251.638749
 21
162.692583
 31
0.0
  0
LINE
  5
1C5
100
AcDbEntity
  8
0
  6
Continuous
 62
   174
100
AcDbLine
 10
251.638749
 20
155.978278
 30
0.0
 11
251.638749
 21
153.692945
 31
0.0
  0
LINE
  5
1C6
100
AcDbEntity
  8
0
  6
HIDDEN
 62
   174
100
AcDbLine
 10
75.638749
 20
167.692145
 30
0.0
 11
75.638749
 21
165.476278
 31
0.0
  0
LINE
  5
1C7
100
AcDbEntity
  8
0
  6
Continuous
 62
   174
100
AcDbLine
 10
78.638749
 20
167.692145
 30
0.0
 11
78.638749
 21
170.692095
 31
0.0
  0
ARC
  5
1C8
100
AcDbEntity
  8
0
  6
HIDDEN
 62
   174
100
AcDbCircle
 10
173.239242
 20
113.183784
 30
0.0
 40
1.0
100
AcDbArc
 50
180.0
 51
211.836529
  0
LINE
  5
1C9
100
AcDbEntity
  8
0
  6
Continuous
 62
   174
100
AcDbLine
 10
191.138749
 20
135.683521
 30
0.0
 11
207.138749
 21
135.683521
 31
0.0
  0
LWPOLYLINE
  5
1CA
100
AcDbEntity
  8
0
  6
Continuous
 62
   174
100
AcDbPolyline
 90
        4
 70
   128
 10
256.138749
 20
155.526994
 10
256.005628
 20
154.918635
 10
255.772546
 20
154.307561
 10
255.47465
 20
153.733271
  0
LINE
  5
1CB
100
AcDbEntity
  8
0
  6
HIDDEN
 62
   174
100
AcDbLine
 10
56.802762
 20
153.73342
 30
0.0
 11
56.831569
 21
153.68397
 31
0.0
  0
LINE
  5
1CC
100
AcDbEntity
  8
0
  6
HIDDEN
 62
   174
100
AcDbLine
 10
88.161566
 20
170.683521
 30
0.0
 11
90.138749
 21
170.683521
 31
0.0
  0
LINE
  5
1CD
100
AcDbEntity
  8
0
  6
Continuous
 62
   174
100
AcDbLine
 10
236.638749
 20
141.683521
 30
0.0
 11
236.638749
 21
159.899639
 31
0.0
  0
LINE
  5
1CE
100
AcDbEntity
  8
0
  6
Continuous
 62
   174
100
AcDbLine
 10
73.638749
 20
129.773008
 30
0.0
 11
73.638749
 21
133.308071
 31
0.0
  0
LINE
  5
1CF
100
AcDbEntity
  8
0
  6
Continuous
 62
   174
100
AcDbLine
 10
210.638749
 20
141.683521
 30
0.0
 11
210.638749
 21
167.683521
 31
0.0
  0
LINE
  5
1D0
100
AcDbEntity
  8
0
  6
HIDDEN
 62
   174
100
AcDbLine
 10
237.138749
 20
124.694633
 30
0.0
 11
237.138749
 21
114.695296
 31
0.0
  0
LINE
  5
1D1
100
AcDbEntity
  8
0
  6
Continuous
 62
   174
100
AcDbLine
 10
67.438749
 20
116.080346
 30
0.0
 11
67.438749
 21
115.012455
 31
0.0
  0
LINE
  5
1D2
100
AcDbEntity
  8
0
  6
Continuous
 62
   174
100
AcDbLine
 10
67.438749
 20
133.2974
 30
0.0
 11
67.438749
 21
129.762121
 31
0.0
  0
LINE
  5
1D3
100
AcDbEntity
  8
0
  6
HIDDEN
 62
   174
100
AcDbLine
 10
174.656907
 20
114.183521
 30
0.0
 11
181.656931
 21
114.183521
 31
0.0
  0
LINE
  5
1D4
100
AcDbEntity
  8
0
  6
Continuous
 62
   174
100
AcDbLine
 10
101.638749
 20
167.692145
 30
0.0
 11
101.638749
 21
170.692095
 31
0.0
  0
LINE
  5
1D5
100
AcDbEntity
  8
0
  6
HIDDEN
 62
   174
100
AcDbLine
 10
210.656943
 20
167.683521
 30
0.0
 11
207.656781
 21
167.683521
 31
0.0
  0
LINE
  5
1D6
100
AcDbEntity
  8
0
  6
HIDDEN
 62
   174
100
AcDbLine
 10
233.638749
 20
167.683521
 30
0.0
 11
210.638749
 21
167.683521
 31
0.0
  0
LINE
  5
1D7
100
AcDbEntity
  8
0
  6
HIDDEN
 62
   174
100
AcDbLine
 10
159.622106
 20
114.183784
 30
0.0
 11
152.692608
 21
114.183784
 31
0.0
  0
LINE
  5
1D8
100
AcDbEntity
  8
0
  6
HIDDEN
 62
   174
100
AcDbLine
 10
137.622119
 20
114.183784
 30
0.0
 11
130.692621
 21
114.183784
 31
0.0
  0
LINE
  5
1D9
100
AcDbEntity
  8
0
  6
Continuous
 62
   174
100
AcDbLine
 10
56.831569
 20
153.68397
 30
0.0
 11
56.804096
 21
153.732807
 31
0.0
  0
LINE
  5
1DA
100
AcDbEntity
  8
0
  6
Continuous
 62
   174
100
AcDbLine
 10
252.338749
 20
171.683071
 30
0.0
 11
255.445929
 21
171.683071
 31
0.0
  0
LINE
  5
1DB
100
AcDbEntity
  8
0
  6
Continuous
 62
   174
100
AcDbLine
 10
238.638749
 20
134.683521
 30
0.0
 11
237.138749
 21
134.683521
 31
0.0
  0
ARC
  5
1DC
100
AcDbEntity
  8
0
  6
HIDDEN
 62
   174
100
AcDbCircle
 10
173.239242
 20
113.183784
 30
0.0
 40
1.0
100
AcDbArc
 50
-90.0
 51
0.0
  0
ARC
  5
1DD
100
AcDbEntity
  8
0
  6
HIDDEN
 62
   174
100
AcDbCircle
 10
151.239242
 20
113.183784
 30
0.0
 40
1.0
100
AcDbArc
 50
0.0
 51
90.0
  0
ARC
  5
1DE
100
AcDbEntity
  8
0
  6
HIDDEN
 62
   174
100
AcDbCircle
 10
129.239242
 20
113.183784
 30
0.0
 40
1.0
100
AcDbArc
 50
180.0
 51
211.836529
  0
LINE
  5
1DF
100
AcDbEntity
  8
0
  6
Continuous
 62
   174
100
AcDbLine
 10
105.138749
 20
135.683521
 30
0.0
 11
105.138749
 21
113.683521
 31
0.0
  0
LINE
  5
1E0
100
AcDbEntity
  8
0
  6
HIDDEN
 62
   174
100
AcDbLine
 10
101.638749
 20
167.683521
 30
0.0
 11
78.638749
 21
167.683521
 31
0.0
  0
LINE
  5
1E1
100
AcDbEntity
  8
0
  6
Continuous
 62
   174
100
AcDbLine
 10
101.638749
 20
167.683521
 30
0.0
 11
101.638749
 21
141.683521
 31
0.0
  0
ARC
  5
1E2
100
AcDbEntity
  8
0
  6
HIDDEN
 62
   174
100
AcDbCircle
 10
183.039242
 20
113.183784
 30
0.0
 40
1.0
100
AcDbArc
 50
-270.0
 51
-180.0
  0
LINE
  5
1E3
100
AcDbEntity
  8
0
  6
HIDDEN
 62
   174
100
AcDbLine
 10
152.692608
 20
114.183784
 30
0.0
 11
151.257425
 21
114.183784
 31
0.0
  0
ARC
  5
1E4
100
AcDbEntity
  8
0
  6
HIDDEN
 62
   174
100
AcDbCircle
 10
161.039242
 20
113.183784
 30
0.0
 40
1.0
100
AcDbArc
 50
-270.0
 51
-180.0
  0
LINE
  5
1E5
100
AcDbEntity
  8
0
  6
HIDDEN
 62
   174
100
AcDbLine
 10
248.638749
 20
162.692583
 30
0.0
 11
248.638749
 21
156.192833
 31
0.0
  0
LINE
  5
1E6
100
AcDbEntity
  8
0
  6
Continuous
 62
   174
100
AcDbLine
 10
244.838749
 20
133.309771
 30
0.0
 11
244.838749
 21
134.377236
 31
0.0
  0
LINE
  5
1E7
100
AcDbEntity
  8
0
  6
Continuous
 62
   174
100
AcDbLine
 10
244.838749
 20
129.765116
 30
0.0
 11
238.638749
 21
129.765116
 31
0.0
  0
LINE
  5
1E8
100
AcDbEntity
  8
0
  6
HIDDEN
 62
   174
100
AcDbLine
 10
130.692621
 20
114.183784
 30
0.0
 11
129.257438
 21
114.183784
 31
0.0
  0
LINE
  5
1E9
100
AcDbEntity
  8
0
  6
HIDDEN
 62
   174
100
AcDbLine
 10
63.638749
 20
169.19212
 30
0.0
 11
63.638749
 21
162.692583
 31
0.0
  0
LINE
  5
1EA
100
AcDbEntity
  8
0
  6
Continuous
 62
   174
100
AcDbLine
 10
60.638749
 20
162.692583
 30
0.0
 11
60.638749
 21
169.406676
 31
0.0
  0
LINE
  5
1EB
100
AcDbEntity
  8
0
  6
HIDDEN
 62
   174
100
AcDbLine
 10
252.338749
 20
153.68397
 30
0.0
 11
252.338749
 21
158.105861
 31
0.0
  0
LINE
  5
1EC
100
AcDbEntity
  8
0
  6
Continuous
 62
   174
100
AcDbLine
 10
244.838749
 20
116.070569
 30
0.0
 11
244.838749
 21
119.607586
 31
0.0
  0
LINE
  5
1ED
100
AcDbEntity
  8
0
  6
Continuous
 62
   174
100
AcDbLine
 10
73.638749
 20
134.376174
 30
0.0
 11
73.638749
 21
134.694183
 31
0.0
  0
ARC
  5
1EE
100
AcDbEntity
  8
0
  6
HIDDEN
 62
   174
100
AcDbCircle
 10
183.039242
 20
113.183784
 30
0.0
 40
1.0
100
AcDbArc
 50
-31.836529
 51
0.0
  0
LINE
  5
1EF
100
AcDbEntity
  8
0
  6
Continuous
 62
   174
100
AcDbLine
 10
121.138749
 20
113.683521
 30
0.0
 11
121.138749
 21
135.683521
 31
0.0
  0
LINE
  5
1F0
100
AcDbEntity
  8
0
  6
Continuous
 62
   174
100
AcDbLine
 10
252.338749
 20
153.692945
 30
0.0
 11
252.338749
 21
158.270833
 31
0.0
  0
LINE
  5
1F1
100
AcDbEntity
  8
0
  6
HIDDEN
 62
   174
100
AcDbLine
 10
93.538749
 20
170.683521
 30
0.0
 11
101.638749
 21
170.683521
 31
0.0
  0
LINE
  5
1F2
100
AcDbEntity
  8
0
  6
Continuous
 62
   174
100
AcDbLine
 10
101.638749
 20
170.683521
 30
0.0
 11
78.638749
 21
170.683521
 31
0.0
  0
LINE
  5
1F3
100
AcDbEntity
  8
0
  6
HIDDEN
 62
   174
100
AcDbLine
 10
151.383609
 20
112.683521
 30
0.0
 11
150.299998
 21
112.683521
 31
0.0
  0
LINE
  5
1F4
100
AcDbEntity
  8
0
  6
HIDDEN
 62
   174
100
AcDbLine
 10
129.383622
 20
112.683521
 30
0.0
 11
128.300011
 21
112.683521
 31
0.0
  0
ARC
  5
1F5
100
AcDbEntity
  8
0
  6
Continuous
 62
   174
100
AcDbCircle
 10
139.039242
 20
113.183784
 30
0.0
 40
1.0
100
AcDbArc
 50
-90.0
 51
-31.836529
  0
LINE
  5
1F6
100
AcDbEntity
  8
0
  6
HIDDEN
 62
   174
100
AcDbLine
 10
207.638749
 20
167.683521
 30
0.0
 11
207.638749
 21
141.683521
 31
0.0
  0
LINE
  5
1F7
100
AcDbEntity
  8
0
  6
Continuous
 62
   174
100
AcDbLine
 10
67.438749
 20
134.376174
 30
0.0
 11
67.438749
 21
133.308071
 31
0.0
  0
LINE
  5
1F8
100
AcDbEntity
  8
0
  6
Continuous
 62
   174
100
AcDbLine
 10
67.438749
 20
134.365657
 30
0.0
 11
73.638749
 21
134.365657
 31
0.0
  0
LINE
  5
1F9
100
AcDbEntity
  8
0
  6
HIDDEN
 62
   174
100
AcDbLine
 10
86.756802
 20
170.633521
 30
0.0
 11
90.156971
 21
170.633521
 31
0.0
  0
ARC
  5
1FA
100
AcDbEntity
  8
0
  6
Continuous
 62
   174
100
AcDbCircle
 10
101.638749
 20
167.683521
 30
0.0
 40
3.0
100
AcDbArc
 50
0.0
 51
90.0
  0
LINE
  5
1FB
100
AcDbEntity
  8
0
  6
Continuous
 62
   174
100
AcDbLine
 10
104.656871
 20
167.683521
 30
0.0
 11
101.656921
 21
167.683521
 31
0.0
  0
LINE
  5
1FC
100
AcDbEntity
  8
0
  6
HIDDEN
 62
   174
100
AcDbLine
 10
101.638749
 20
141.683521
 30
0.0
 11
78.638749
 21
141.683521
 31
0.0
  0
LINE
  5
1FD
100
AcDbEntity
  8
0
  6
Continuous
 62
   174
100
AcDbLine
 10
248.638749
 20
154.69307
 30
0.0
 11
248.638749
 21
156.086405
 31
0.0
  0
LINE
  5
1FE
100
AcDbEntity
  8
0
  6
Continuous
 62
   174
100
AcDbLine
 10
251.638749
 20
171.692008
 30
0.0
 11
251.638749
 21
169.406463
 31
0.0
  0
LINE
  5
1FF
100
AcDbEntity
  8
0
  6
HIDDEN
 62
   174
100
AcDbLine
 10
244.838749
 20
133.2974
 30
0.0
 11
238.638749
 21
133.2974
 31
0.0
  0
LINE
  5
200
100
AcDbEntity
  8
0
  6
HIDDEN
 62
   174
100
AcDbLine
 10
236.656792
 20
167.683521
 30
0.0
 11
233.656842
 21
167.683521
 31
0.0
  0
ARC
  5
201
100
AcDbEntity
  8
0
  6
HIDDEN
 62
   174
100
AcDbCircle
 10
78.638749
 20
167.683521
 30
0.0
 40
3.0
100
AcDbArc
 50
90.0
 51
180.0
  0
LINE
  5
202
100
AcDbEntity
  8
0
  6
Continuous
 62
   174
100
AcDbLine
 10
238.638749
 20
119.61902
 30
0.0
 11
238.638749
 21
116.082258
 31
0.0
  0
LINE
  5
203
100
AcDbEntity
  8
0
  6
Continuous
 62
   174
100
AcDbLine
 10
207.138749
 20
113.683521
 30
0.0
 11
207.138749
 21
135.683521
 31
0.0
  0
ARC
  5
204
100
AcDbEntity
  8
0
  6
HIDDEN
 62
   174
100
AcDbCircle
 10
101.638749
 20
167.683521
 30
0.0
 40
3.0
100
AcDbArc
 50
-360.0
 51
-342.0
  0
LINE
  5
205
100
AcDbEntity
  8
0
  6
Continuous
 62
   174
100
AcDbLine
 10
233.638749
 20
170.692095
 30
0.0
 11
233.638749
 21
167.692145
 31
0.0
  0
LINE
  5
206
100
AcDbEntity
  8
0
  6
Continuous
 62
   174
100
AcDbLine
 10
191.138749
 20
135.683521
 30
0.0
 11
191.138749
 21
144.683521
 31
0.0
  0
LINE
  5
207
100
AcDbEntity
  8
0
  6
HIDDEN
 62
   174
100
AcDbLine
 10
238.638749
 20
119.604591
 30
0.0
 11
238.638749
 21
116.068802
 31
0.0
  0
LINE
  5
208
100
AcDbEntity
  8
0
  6
Continuous
 62
   174
100
AcDbLine
 10
56.804129
 20
171.634278
 30
0.0
 11
56.831569
 21
171.683071
 31
0.0
  0
LINE
  5
209
100
AcDbEntity
  8
0
  6
HIDDEN
 62
   174
100
AcDbLine
 10
152.638749
 20
114.183521
 30
0.0
 11
152.638749
 21
121.683521
 31
0.0
  0
ARC
  5
20A
100
AcDbEntity
  8
0
  6
Continuous
 62
   174
100
AcDbCircle
 10
233.638749
 20
167.683521
 30
0.0
 40
3.0
100
AcDbArc
 50
-360.0
 51
-270.0
  0
LINE
  5
20B
100
AcDbEntity
  8
0
  6
HIDDEN
 62
   174
100
AcDbLine
 10
174.638749
 20
114.183521
 30
0.0
 11
174.638749
 21
121.683521
 31
0.0
  0
ARC
  5
20C
100
AcDbEntity
  8
0
  6
HIDDEN
 62
   174
100
AcDbCircle
 10
101.638749
 20
167.683521
 30
0.0
 40
3.0
100
AcDbArc
 50
-342.0
 51
-324.0
  0
LINE
  5
20D
100
AcDbEntity
  8
0
  6
Continuous
 62
   174
100
AcDbLine
 10
183.057276
 20
112.183784
 30
0.0
 11
181.622093
 21
112.183784
 31
0.0
  0
ARC
  5
20E
100
AcDbEntity
  8
0
  6
HIDDEN
 62
   174
100
AcDbCircle
 10
151.239242
 20
113.183784
 30
0.0
 40
1.0
100
AcDbArc
 50
-90.0
 51
0.0
  0
ARC
  5
20F
100
AcDbEntity
  8
0
  6
HIDDEN
 62
   174
100
AcDbCircle
 10
139.039242
 20
113.183784
 30
0.0
 40
1.0
100
AcDbArc
 50
-31.836529
 51
0.0
  0
ARC
  5
210
100
AcDbEntity
  8
0
  6
HIDDEN
 62
   174
100
AcDbCircle
 10
129.239242
 20
113.183784
 30
0.0
 40
1.0
100
AcDbArc
 50
0.0
 51
90.0
  0
LINE
  5
211
100
AcDbEntity
  8
0
  6
Continuous
 62
   174
100
AcDbLine
 10
244.838749
 20
127.19792
 30
0.0
 11
244.838749
 21
129.775982
 31
0.0
  0
LINE
  5
212
100
AcDbEntity
  8
0
  6
Continuous
 62
   174
100
AcDbLine
 10
56.804891
 20
153.731396
 30
0.0
 11
56.288089
 21
154.961691
 31
0.0
  0
LWPOLYLINE
  5
213
100
AcDbEntity
  8
0
  6
HIDDEN
 62
   174
100
AcDbPolyline
 90
        4
 70
   128
 10
56.831569
 20
158.26163
 10
56.503669
 20
157.635223
 10
56.270914
 20
157.02381
 10
56.138749
 20
156.418606
  0
LINE
  5
214
100
AcDbEntity
  8
0
  6
Continuous
 62
   174
100
AcDbLine
 10
236.638749
 20
165.467403
 30
0.0
 11
236.638749
 21
167.683521
 31
0.0
  0
ARC
  5
215
100
AcDbEntity
  8
0
  6
Continuous
 62
   174
100
AcDbCircle
 10
151.239242
 20
113.183784
 30
0.0
 40
1.0
100
AcDbArc
 50
211.836529
 51
270.0
  0
ARC
  5
216
100
AcDbEntity
  8
0
  6
HIDDEN
 62
   174
100
AcDbCircle
 10
161.039242
 20
113.183784
 30
0.0
 40
1.0
100
AcDbArc
 50
-270.0
 51
-180.0
  0
ARC
  5
217
100
AcDbEntity
  8
0
  6
HIDDEN
 62
   174
100
AcDbCircle
 10
139.039242
 20
113.183784
 30
0.0
 40
1.0
100
AcDbArc
 50
-270.0
 51
-180.0
  0
LINE
  5
218
100
AcDbEntity
  8
0
  6
HIDDEN
 62
   174
100
AcDbLine
 10
56.831569
 20
171.683071
 30
0.0
 11
56.802718
 21
171.633547
 31
0.0
  0
LINE
  5
219
100
AcDbEntity
  8
0
  6
Continuous
 62
   174
100
AcDbLine
 10
78.638749
 20
167.683521
 30
0.0
 11
78.638749
 21
141.683521
 31
0.0
  0
LINE
  5
21A
100
AcDbEntity
  8
0
  6
HIDDEN
 62
   174
100
AcDbLine
 10
78.638749
 20
141.683521
 30
0.0
 11
78.638749
 21
167.683521
 31
0.0
  0
LINE
  5
21B
100
AcDbEntity
  8
0
  6
HIDDEN
 62
   174
100
AcDbLine
 10
140.014304
 20
112.683521
 30
0.0
 11
138.930056
 21
112.683521
 31
0.0
  0
LINE
  5
21C
100
AcDbEntity
  8
0
  6
Continuous
 62
   174
100
AcDbLine
 10
207.638749
 20
167.683521
 30
0.0
 11
207.638749
 21
141.683521
 31
0.0
  0
LINE
  5
21D
100
AcDbEntity
  8
0
  6
HIDDEN
 62
   174
100
AcDbLine
 10
210.638749
 20
170.692095
 30
0.0
 11
210.638749
 21
167.692145
 31
0.0
  0
LINE
  5
21E
100
AcDbEntity
  8
0
  6
HIDDEN
 62
   174
100
AcDbLine
 10
219.900664
 20
170.633521
 30
0.0
 11
219.15673
 21
170.633521
 31
0.0
  0
LINE
  5
21F
100
AcDbEntity
  8
0
  6
HIDDEN
 62
   174
100
AcDbLine
 10
139.057302
 20
114.183784
 30
0.0
 11
137.622119
 21
114.183784
 31
0.0
  0
LINE
  5
220
100
AcDbEntity
  8
0
  6
HIDDEN
 62
   174
100
AcDbLine
 10
218.738749
 20
170.683521
 30
0.0
 11
219.138806
 21
170.683521
 31
0.0
  0
LINE
  5
221
100
AcDbEntity
  8
0
  6
Continuous
 62
   174
100
AcDbLine
 10
191.138749
 20
112.683521
 30
0.0
 11
191.138749
 21
113.683521
 31
0.0
  0
LINE
  5
222
100
AcDbEntity
  8
0
  6
Continuous
 62
   174
100
AcDbLine
 10
191.138749
 20
113.683521
 30
0.0
 11
191.138749
 21
135.683521
 31
0.0
  0
LINE
  5
223
100
AcDbEntity
  8
0
  6
HIDDEN
 62
   174
100
AcDbLine
 10
60.638749
 20
169.19212
 30
0.0
 11
60.638749
 21
162.692583
 31
0.0
  0
LINE
  5
224
100
AcDbEntity
  8
0
  6
Continuous
 62
   174
100
AcDbLine
 10
56.138749
 20
170.491985
 30
0.0
 11
56.138749
 21
163.584156
 31
0.0
  0
LINE
  5
225
100
AcDbEntity
  8
0
  6
HIDDEN
 62
   174
100
AcDbLine
 10
244.838749
 20
119.604591
 30
0.0
 11
238.638749
 21
119.604591
 31
0.0
  0
LINE
  5
226
100
AcDbEntity
  8
0
  6
HIDDEN
 62
   174
100
AcDbLine
 10
59.938749
 20
171.683071
 30
0.0
 11
59.938749
 21
167.105411
 31
0.0
  0
LWPOLYLINE
  5
227
100
AcDbEntity
  8
0
  6
HIDDEN
 62
   174
100
AcDbPolyline
 90
        7
 70
   128
 10
255.445929
 20
167.261181
 10
255.812055
 20
168.012871
 10
256.040153
 20
168.749918
 10
256.117057
 20
169.472166
 10
256.040138
 20
170.194405
 10
255.812038
 20
170.931425
 10
255.445929
 20
171.683071
  0
ARC
  5
228
100
AcDbEntity
  8
0
  6
HIDDEN
 62
   174
100
AcDbCircle
 10
183.039242
 20
113.183784
 30
0.0
 40
1.0
100
AcDbArc
 50
-45.0
 51
-31.836529
  0
LINE
  5
229
100
AcDbEntity
  8
0
  6
HIDDEN
 62
   174
100
AcDbLine
 10
244.838749
 20
122.183521
 30
0.0
 11
238.638749
 21
122.183521
 31
0.0
  0
LINE
  5
22A
100
AcDbEntity
  8
0
  6
Continuous
 62
   174
100
AcDbLine
 10
244.838749
 20
115.00161
 30
0.0
 11
238.638749
 21
115.00161
 31
0.0
  0
LINE
  5
22B
100
AcDbEntity
  8
0
  6
HIDDEN
 62
   174
100
AcDbLine
 10
236.638749
 20
167.683521
 30
0.0
 11
236.638749
 21
165.467403
 31
0.0
  0
LINE
  5
22C
100
AcDbEntity
  8
0
  6
HIDDEN
 62
   174
100
AcDbLine
 10
236.638749
 20
159.899639
 30
0.0
 11
236.638749
 21
154.683521
 31
0.0
  0
LINE
  5
22D
100
AcDbEntity
  8
0
  6
Continuous
 62
   174
100
AcDbLine
 10
121.138749
 20
135.683521
 30
0.0
 11
121.138749
 21
144.683521
 31
0.0
  0
LINE
  5
22E
100
AcDbEntity
  8
0
  6
HIDDEN
 62
   174
100
AcDbLine
 10
210.638749
 20
170.683521
 30
0.0
 11
218.738749
 21
170.683521
 31
0.0
  0
LINE
  5
22F
100
AcDbEntity
  8
0
  6
HIDDEN
 62
   174
100
AcDbLine
 10
67.438749
 20
122.186888
 30
0.0
 11
73.638749
 21
122.186888
 31
0.0
  0
LINE
  5
230
100
AcDbEntity
  8
0
  6
HIDDEN
 62
   174
100
AcDbLine
 10
236.638749
 20
154.683521
 30
0.0
 11
236.638749
 21
141.683521
 31
0.0
  0
LINE
  5
231
100
AcDbEntity
  8
0
  6
HIDDEN
 62
   174
100
AcDbLine
 10
78.638749
 20
170.683521
 30
0.0
 11
86.738749
 21
170.683521
 31
0.0
  0
LINE
  5
232
100
AcDbEntity
  8
0
  6
HIDDEN
 62
   174
100
AcDbLine
 10
93.138749
 20
170.683521
 30
0.0
 11
93.538749
 21
170.683521
 31
0.0
  0
LINE
  5
233
100
AcDbEntity
  8
0
  6
Continuous
 62
   174
100
AcDbLine
 10
121.138749
 20
113.683521
 30
0.0
 11
121.138749
 21
135.683521
 31
0.0
  0
ARC
  5
234
100
AcDbEntity
  8
0
  6
Continuous
 62
   174
100
AcDbCircle
 10
183.039242
 20
113.183784
 30
0.0
 40
1.0
100
AcDbArc
 50
-90.0
 51
-45.0
  0
ARC
  5
235
100
AcDbEntity
  8
0
  6
HIDDEN
 62
   174
100
AcDbCircle
 10
173.239242
 20
113.183784
 30
0.0
 40
1.0
100
AcDbArc
 50
90.0
 51
180.0
  0
LINE
  5
236
100
AcDbEntity
  8
0
  6
Continuous
 62
   174
100
AcDbLine
 10
244.838749
 20
122.186888
 30
0.0
 11
244.838749
 21
127.186887
 31
0.0
  0
LINE
  5
237
100
AcDbEntity
  8
0
  6
Continuous
 62
   174
100
AcDbLine
 10
73.638749
 20
116.080346
 30
0.0
 11
73.638749
 21
119.616046
 31
0.0
  0
LINE
  5
238
100
AcDbEntity
  8
0
  6
HIDDEN
 62
   174
100
AcDbLine
 10
159.656945
 20
121.683521
 30
0.0
 11
152.65692
 21
121.683521
 31
0.0
  0
LINE
  5
239
100
AcDbEntity
  8
0
  6
HIDDEN
 62
   174
100
AcDbLine
 10
75.638749
 20
159.899639
 30
0.0
 11
75.638749
 21
154.683521
 31
0.0
  0
ARC
  5
23A
100
AcDbEntity
  8
0
  6
Continuous
 62
   174
100
AcDbCircle
 10
173.239242
 20
113.183784
 30
0.0
 40
1.0
100
AcDbArc
 50
211.836529
 51
270.0
  0
LINE
  5
23B
100
AcDbEntity
  8
0
  6
Continuous
 62
   174
100
AcDbLine
 10
67.438749
 20
129.773008
 30
0.0
 11
67.438749
 21
127.194521
 31
0.0
  0
LWPOLYLINE
  5
23C
100
AcDbEntity
  8
0
  6
Continuous
 62
   174
100
AcDbPolyline
 90
        6
 70
   128
 10
56.288089
 20
154.961691
 10
56.237345
 20
155.172707
 10
56.160441
 20
155.894955
 10
56.237359
 20
156.617195
 10
56.46546
 20
157.354214
 10
56.831569
 20
158.105861
  0
LINE
  5
23D
100
AcDbEntity
  8
0
  6
HIDDEN
 62
   174
100
AcDbLine
 10
210.656943
 20
141.683521
 30
0.0
 11
207.656781
 21
141.683521
 31
0.0
  0
LINE
  5
23E
100
AcDbEntity
  8
0
  6
HIDDEN
 62
   174
100
AcDbLine
 10
101.638749
 20
141.683521
 30
0.0
 11
101.638749
 21
167.683521
 31
0.0
  0
ARC
  5
23F
100
AcDbEntity
  8
0
  6
Continuous
 62
   174
100
AcDbCircle
 10
183.039242
 20
113.183784
 30
0.0
 40
1.0
100
AcDbArc
 50
-90.0
 51
-45.0
  0
ARC
  5
240
100
AcDbEntity
  8
0
  6
HIDDEN
 62
   174
100
AcDbCircle
 10
183.039242
 20
113.183784
 30
0.0
 40
1.0
100
AcDbArc
 50
-31.836529
 51
0.0
  0
LINE
  5
241
100
AcDbEntity
  8
0
  6
Continuous
 62
   174
100
AcDbLine
 10
104.638749
 20
167.683521
 30
0.0
 11
104.638749
 21
141.683521
 31
0.0
  0
LINE
  5
242
100
AcDbEntity
  8
0
  6
Continuous
 62
   174
100
AcDbLine
 10
60.638749
 20
155.97849
 30
0.0
 11
60.638749
 21
162.692583
 31
0.0
  0
LINE
  5
243
100
AcDbEntity
  8
0
  6
HIDDEN
 62
   174
100
AcDbLine
 10
59.938749
 20
158.26163
 30
0.0
 11
56.831569
 21
158.26163
 31
0.0
  0
LINE
  5
244
100
AcDbEntity
  8
0
  6
HIDDEN
 62
   174
100
AcDbLine
 10
244.838749
 20
116.068802
 30
0.0
 11
238.638749
 21
116.068802
 31
0.0
  0
LWPOLYLINE
  5
245
100
AcDbEntity
  8
0
  6
HIDDEN
 62
   174
100
AcDbPolyline
 90
        4
 70
   128
 10
56.802808
 20
171.633701
 10
56.503669
 20
171.056664
 10
56.270914
 20
170.445251
 10
56.138749
 20
169.840047
  0
LWPOLYLINE
  5
246
100
AcDbEntity
  8
0
  6
HIDDEN
 62
   174
100
AcDbPolyline
 90
        4
 70
   128
 10
236.596789
 20
162.683521
 10
236.605784
 20
161.734514
 10
236.626189
 20
160.796347
 10
236.638749
 20
159.899639
  0
ENDBLK
  5
247
100
AcDbEntity
  8
0
100
AcDbBlockEnd
  0
BLOCK
  5
24A
100
AcDbEntity
  8
0
100
AcDbBlockBegin
  2
*B2
 70
     0
 10
0.0
 20
0.0
 30
0.0
  3
*B2
  1

  0
ARC
  5
24B
100
AcDbEntity
  8
0
  6
Continuous
 62
   174
100
AcDbCircle
 10
222.138749
 20
57.007657
 30
0.0
 40
3.4
100
AcDbArc
 50
-90.0
 51
90.0
  0
ARC
  5
24C
100
AcDbEntity
  8
0
  6
Continuous
 62
   174
100
AcDbCircle
 10
222.138749
 20
57.007657
 30
0.0
 40
3.4
100
AcDbArc
 50
-270.0
 51
-90.0
  0
ARC
  5
24D
100
AcDbEntity
  8
0
  6
Continuous
 62
   174
100
AcDbCircle
 10
90.138749
 20
57.007657
 30
0.0
 40
3.4
100
AcDbArc
 50
-270.0
 51
-90.0
  0
ARC
  5
24E
100
AcDbEntity
  8
0
  6
Continuous
 62
   174
100
AcDbCircle
 10
90.138749
 20
57.007657
 30
0.0
 40
3.4
100
AcDbArc
 50
-90.0
 51
90.0
  0
ARC
  5
24F
100
AcDbEntity
  8
0
  6
Continuous
 62
   174
100
AcDbCircle
 10
222.138749
 20
57.007657
 30
0.0
 40
3.0
100
AcDbArc
 50
-37.286546
 51
127.286546
  0
ARC
  5
250
100
AcDbEntity
  8
0
  6
Continuous
 62
   174
100
AcDbCircle
 10
90.138749
 20
57.007657
 30
0.0
 40
3.0
100
AcDbArc
 50
-217.286546
 51
-52.713454
  0
LINE
  5
251
100
AcDbEntity
  8
0
  6
Continuous
 62
   174
100
AcDbLine
 10
224.525596
 20
55.190252
 30
0.0
 11
220.321344
 21
59.394504
 31
0.0
  0
LINE
  5
252
100
AcDbEntity
  8
0
  6
Continuous
 62
   174
100
AcDbLine
 10
87.751902
 20
58.825062
 30
0.0
 11
91.956154
 21
54.62081
 31
0.0
  0
ARC
  5
253
100
AcDbEntity
  8
0
  6
Continuous
 62
   174
100
AcDbCircle
 10
222.138749
 20
57.007657
 30
0.0
 40
3.0
100
AcDbArc
 50
-221.228296
 51
-48.771704
  0
ARC
  5
254
100
AcDbEntity
  8
0
  6
Continuous
 62
   174
100
AcDbCircle
 10
90.138749
 20
57.007657
 30
0.0
 40
3.0
100
AcDbArc
 50
-41.228296
 51
131.228296
  0
LINE
  5
255
100
AcDbEntity
  8
0
  6
Continuous
 62
   174
100
AcDbLine
 10
219.88248
 20
58.98484
 30
0.0
 11
224.115932
 21
54.751388
 31
0.0
  0
LINE
  5
256
100
AcDbEntity
  8
0
  6
Continuous
 62
   174
100
AcDbLine
 10
92.395017
 20
55.030474
 30
0.0
 11
88.161566
 21
59.263925
 31
0.0
  0
LINE
  5
257
100
AcDbEntity
  8
0
  6
Continuous
 62
   174
100
AcDbLine
 10
248.638749
 20
63.507657
 30
0.0
 11
251.638749
 21
63.507657
 31
0.0
  0
LINE
  5
258
100
AcDbEntity
  8
0
  6
Continuous
 62
   174
100
AcDbLine
 10
63.638749
 20
50.507657
 30
0.0
 11
60.638749
 21
50.507657
 31
0.0
  0
LINE
  5
259
100
AcDbEntity
  8
0
  6
Continuous
 62
   174
100
AcDbLine
 10
251.638749
 20
48.007657
 30
0.0
 11
252.338749
 21
48.007657
 31
0.0
  0
LINE
  5
25A
100
AcDbEntity
  8
0
  6
Continuous
 62
   174
100
AcDbLine
 10
248.638749
 20
49.007657
 30
0.0
 11
236.596789
 21
49.007657
 31
0.0
  0
ARC
  5
25B
100
AcDbEntity
  8
0
  6
Continuous
 62
   174
100
AcDbCircle
 10
145.138749
 20
57.007657
 30
0.0
 40
6.58
100
AcDbArc
 50
-179.188157
 51
-0.811843
  0
ARC
  5
25C
100
AcDbEntity
  8
0
  6
Continuous
 62
   174
100
AcDbCircle
 10
128.138749
 20
65.257657
 30
0.0
 40
1.65
100
AcDbArc
 50
0.0
 51
180.0
  0
LINE
  5
25D
100
AcDbEntity
  8
0
  6
Continuous
 62
   174
100
AcDbLine
 10
248.638749
 20
50.416663
 30
0.0
 11
248.638749
 21
63.628806
 31
0.0
  0
LINE
  5
25E
100
AcDbEntity
  8
0
  6
Continuous
 62
   174
100
AcDbLine
 10
251.638749
 20
50.308748
 30
0.0
 11
251.638749
 21
48.023204
 31
0.0
  0
LINE
  5
25F
100
AcDbEntity
  8
0
  6
Continuous
 62
   174
100
AcDbLine
 10
251.638749
 20
63.736509
 30
0.0
 11
251.638749
 21
50.308748
 31
0.0
  0
LINE
  5
260
100
AcDbEntity
  8
0
  6
Continuous
 62
   174
100
AcDbLine
 10
252.338749
 20
48.023204
 30
0.0
 11
252.338749
 21
49.184351
 31
0.0
  0
LINE
  5
261
100
AcDbEntity
  8
0
  6
Continuous
 62
   174
100
AcDbLine
 10
59.938749
 20
66.022053
 30
0.0
 11
59.938749
 21
64.860906
 31
0.0
  0
ARC
  5
262
100
AcDbEntity
  8
0
  6
Continuous
 62
   174
100
AcDbCircle
 10
184.138749
 20
48.757657
 30
0.0
 40
1.65
100
AcDbArc
 50
0.0
 51
180.0
  0
ARC
  5
263
100
AcDbEntity
  8
0
  6
Continuous
 62
   174
100
AcDbCircle
 10
128.138749
 20
65.257657
 30
0.0
 40
3.3
100
AcDbArc
 50
180.0
 51
191.911361
  0
ARC
  5
264
100
AcDbEntity
  8
0
  6
Continuous
 62
   174
100
AcDbCircle
 10
184.138749
 20
48.757657
 30
0.0
 40
3.3
100
AcDbArc
 50
11.911361
 51
168.088639
  0
LINE
  5
265
100
AcDbEntity
  8
0
  6
Continuous
 62
   174
100
AcDbLine
 10
63.638749
 20
63.507657
 30
0.0
 11
60.638749
 21
63.507657
 31
0.0
  0
LINE
  5
266
100
AcDbEntity
  8
0
  6
Continuous
 62
   174
100
AcDbLine
 10
60.638749
 20
48.007657
 30
0.0
 11
59.938749
 21
48.007657
 31
0.0
  0
LINE
  5
267
100
AcDbEntity
  8
0
  6
Continuous
 62
   174
100
AcDbLine
 10
248.638749
 20
65.007657
 30
0.0
 11
236.596789
 21
65.007657
 31
0.0
  0
LINE
  5
268
100
AcDbEntity
  8
0
  6
Continuous
 62
   174
100
AcDbLine
 10
63.638749
 20
49.007657
 30
0.0
 11
75.680709
 21
49.007657
 31
0.0
  0
LINE
  5
269
100
AcDbEntity
  8
0
  6
Continuous
 62
   174
100
AcDbLine
 10
236.638749
 20
50.762659
 30
0.0
 11
236.638749
 21
49.507657
 31
0.0
  0
LINE
  5
26A
100
AcDbEntity
  8
0
  6
Continuous
 62
   174
100
AcDbLine
 10
191.138749
 20
68.007657
 30
0.0
 11
207.138749
 21
68.007657
 31
0.0
  0
LINE
  5
26B
100
AcDbEntity
  8
0
  6
Continuous
 62
   174
100
AcDbLine
 10
121.138749
 20
46.007657
 30
0.0
 11
105.138749
 21
46.007657
 31
0.0
  0
LINE
  5
26C
100
AcDbEntity
  8
0
  6
Continuous
 62
   174
100
AcDbLine
 10
59.938749
 20
49.274209
 30
0.0
 11
59.938749
 21
48.023204
 31
0.0
  0
ARC
  5
26D
100
AcDbEntity
  8
0
  6
Continuous
 62
   174
100
AcDbCircle
 10
184.138749
 20
48.757657
 30
0.0
 40
1.65
100
AcDbArc
 50
-180.0
 51
0.0
  0
LINE
  5
26E
100
AcDbEntity
  8
0
  6
Continuous
 62
   174
100
AcDbLine
 10
252.338749
 20
57.112487
 30
0.0
 11
252.338749
 21
64.771048
 31
0.0
  0
LINE
  5
26F
100
AcDbEntity
  8
0
  6
Continuous
 62
   174
100
AcDbLine
 10
59.938749
 20
56.93277
 30
0.0
 11
59.938749
 21
49.274209
 31
0.0
  0
LWPOLYLINE
  5
270
100
AcDbEntity
  8
0
  6
Continuous
 62
   174
100
AcDbPolyline
 90
        4
 70
   128
 10
256.138749
 20
64.75653
 10
256.005629
 20
64.75653
 10
255.772543
 20
64.75653
 10
255.445929
 20
64.75653
  0
LWPOLYLINE
  5
271
100
AcDbEntity
  8
0
  6
Continuous
 62
   174
100
AcDbPolyline
 90
        4
 70
   128
 10
56.138749
 20
49.258784
 10
56.271869
 20
49.258784
 10
56.504955
 20
49.258784
 10
56.831569
 20
49.258784
  0
LINE
  5
272
100
AcDbEntity
  8
0
  6
Continuous
 62
   174
100
AcDbLine
 10
67.438749
 20
48.408766
 30
0.0
 11
67.438749
 21
47.340663
 31
0.0
  0
ARC
  5
273
100
AcDbEntity
  8
0
  6
Continuous
 62
   174
100
AcDbCircle
 10
184.138749
 20
48.757657
 30
0.0
 40
3.3
100
AcDbArc
 50
303.55731
 51
330.162926
  0
LINE
  5
274
100
AcDbEntity
  8
0
  6
Continuous
 62
   174
100
AcDbLine
 10
256.138749
 20
49.223014
 30
0.0
 11
256.138749
 21
52.376339
 31
0.0
  0
LINE
  5
275
100
AcDbEntity
  8
0
  6
Continuous
 62
   174
100
AcDbLine
 10
251.638749
 20
66.007657
 30
0.0
 11
252.338749
 21
66.007657
 31
0.0
  0
LINE
  5
276
100
AcDbEntity
  8
0
  6
Continuous
 62
   174
100
AcDbLine
 10
63.638749
 20
65.007657
 30
0.0
 11
75.680709
 21
65.007657
 31
0.0
  0
LINE
  5
277
100
AcDbEntity
  8
0
  6
Continuous
 62
   174
100
AcDbLine
 10
104.638749
 20
64.507657
 30
0.0
 11
104.638749
 21
49.507657
 31
0.0
  0
ARC
  5
278
100
AcDbEntity
  8
0
  6
Continuous
 62
   174
100
AcDbCircle
 10
128.138749
 20
65.257657
 30
0.0
 40
1.65
100
AcDbArc
 50
-180.0
 51
0.0
  0
LINE
  5
279
100
AcDbEntity
  8
0
  6
Continuous
 62
   174
100
AcDbLine
 10
248.638749
 20
63.628806
 30
0.0
 11
248.638749
 21
65.022141
 31
0.0
  0
LINE
  5
27A
100
AcDbEntity
  8
0
  6
Continuous
 62
   174
100
AcDbLine
 10
63.638749
 20
63.628594
 30
0.0
 11
63.638749
 21
50.416451
 31
0.0
  0
LINE
  5
27B
100
AcDbEntity
  8
0
  6
Continuous
 62
   174
100
AcDbLine
 10
251.638749
 20
66.022053
 30
0.0
 11
251.638749
 21
63.736509
 31
0.0
  0
LINE
  5
27C
100
AcDbEntity
  8
0
  6
Continuous
 62
   174
100
AcDbLine
 10
244.838749
 20
47.341513
 30
0.0
 11
244.838749
 21
48.410465
 31
0.0
  0
ARC
  5
27D
100
AcDbEntity
  8
0
  6
Continuous
 62
   174
100
AcDbCircle
 10
128.138749
 20
65.257657
 30
0.0
 40
3.3
100
AcDbArc
 50
123.55731
 51
150.162926
  0
ARC
  5
27E
100
AcDbEntity
  8
0
  6
Continuous
 62
   174
100
AcDbCircle
 10
128.138749
 20
65.257657
 30
0.0
 40
3.3
100
AcDbArc
 50
150.162926
 51
180.0
  0
ARC
  5
27F
100
AcDbEntity
  8
0
  6
Continuous
 62
   174
100
AcDbCircle
 10
128.138749
 20
65.257657
 30
0.0
 40
3.3
100
AcDbArc
 50
0.0
 51
29.837074
  0
ARC
  5
280
100
AcDbEntity
  8
0
  6
Continuous
 62
   174
100
AcDbCircle
 10
184.138749
 20
48.757657
 30
0.0
 40
3.3
100
AcDbArc
 50
-29.837074
 51
0.0
  0
ARC
  5
281
100
AcDbEntity
  8
0
  6
Continuous
 62
   174
100
AcDbCircle
 10
184.138749
 20
48.757657
 30
0.0
 40
3.3
100
AcDbArc
 50
0.0
 51
11.911361
  0
LINE
  5
282
100
AcDbEntity
  8
0
  6
Continuous
 62
   174
100
AcDbLine
 10
251.638749
 20
48.007657
 30
0.0
 11
252.338749
 21
48.007657
 31
0.0
  0
LINE
  5
283
100
AcDbEntity
  8
0
  6
Continuous
 62
   174
100
AcDbLine
 10
248.638749
 20
49.007657
 30
0.0
 11
236.596789
 21
49.007657
 31
0.0
  0
ARC
  5
284
100
AcDbEntity
  8
0
  6
Continuous
 62
   174
100
AcDbCircle
 10
145.138749
 20
57.007657
 30
0.0
 40
6.58
100
AcDbArc
 50
-0.811843
 51
0.0
  0
ARC
  5
285
100
AcDbEntity
  8
0
  6
Continuous
 62
   174
100
AcDbCircle
 10
167.138749
 20
57.007657
 30
0.0
 40
6.58
100
AcDbArc
 50
-180.0
 51
-179.112683
  0
LINE
  5
286
100
AcDbEntity
  8
0
  6
Continuous
 62
   174
100
AcDbLine
 10
248.638749
 20
49.023116
 30
0.0
 11
248.638749
 21
50.416663
 31
0.0
  0
LINE
  5
287
100
AcDbEntity
  8
0
  6
Continuous
 62
   174
100
AcDbLine
 10
255.445929
 20
64.75653
 30
0.0
 11
252.338749
 21
64.75653
 31
0.0
  0
ARC
  5
288
100
AcDbEntity
  8
0
  6
Continuous
 62
   174
100
AcDbCircle
 10
184.138749
 20
48.757657
 30
0.0
 40
3.3
100
AcDbArc
 50
209.837074
 51
236.44269
  0
LINE
  5
289
100
AcDbEntity
  8
0
  6
Continuous
 62
   174
100
AcDbLine
 10
248.638749
 20
50.507657
 30
0.0
 11
251.638749
 21
50.507657
 31
0.0
  0
LINE
  5
28A
100
AcDbEntity
  8
0
  6
Continuous
 62
   174
100
AcDbLine
 10
60.638749
 20
48.007657
 30
0.0
 11
59.938749
 21
48.007657
 31
0.0
  0
LINE
  5
28B
100
AcDbEntity
  8
0
  6
Continuous
 62
   174
100
AcDbLine
 10
248.638749
 20
65.007657
 30
0.0
 11
236.596789
 21
65.007657
 31
0.0
  0
LINE
  5
28C
100
AcDbEntity
  8
0
  6
Continuous
 62
   174
100
AcDbLine
 10
63.638749
 20
65.007657
 30
0.0
 11
75.680709
 21
65.007657
 31
0.0
  0
ARC
  5
28D
100
AcDbEntity
  8
0
  6
Continuous
 62
   174
100
AcDbCircle
 10
145.138749
 20
57.007657
 30
0.0
 40
6.58
100
AcDbArc
 50
-180.0
 51
-179.188157
  0
ARC
  5
28E
100
AcDbEntity
  8
0
  6
Continuous
 62
   174
100
AcDbCircle
 10
167.138749
 20
57.007657
 30
0.0
 40
6.58
100
AcDbArc
 50
-359.112683
 51
-241.210326
  0
ARC
  5
28F
100
AcDbEntity
  8
0
  6
Continuous
 62
   174
100
AcDbCircle
 10
167.138749
 20
57.007657
 30
0.0
 40
6.58
100
AcDbArc
 50
0.0
 51
0.887317
  0
ARC
  5
290
100
AcDbEntity
  8
0
  6
Continuous
 62
   174
100
AcDbCircle
 10
167.138749
 20
57.007657
 30
0.0
 40
6.58
100
AcDbArc
 50
-0.887317
 51
0.0
  0
ARC
  5
291
100
AcDbEntity
  8
0
  6
Continuous
 62
   174
100
AcDbCircle
 10
167.138749
 20
57.007657
 30
0.0
 40
6.58
100
AcDbArc
 50
-179.112683
 51
-0.887317
  0
LINE
  5
292
100
AcDbEntity
  8
0
  6
Continuous
 62
   174
100
AcDbLine
 10
207.638749
 20
49.507657
 30
0.0
 11
207.638749
 21
64.507657
 31
0.0
  0
LINE
  5
293
100
AcDbEntity
  8
0
  6
Continuous
 62
   174
100
AcDbLine
 10
63.638749
 20
50.416451
 30
0.0
 11
63.638749
 21
49.023116
 31
0.0
  0
LINE
  5
294
100
AcDbEntity
  8
0
  6
Continuous
 62
   174
100
AcDbLine
 10
252.338749
 20
64.771048
 30
0.0
 11
252.338749
 21
66.022053
 31
0.0
  0
LINE
  5
295
100
AcDbEntity
  8
0
  6
Continuous
 62
   174
100
AcDbLine
 10
59.938749
 20
64.860906
 30
0.0
 11
59.938749
 21
56.93277
 31
0.0
  0
LINE
  5
296
100
AcDbEntity
  8
0
  6
Continuous
 62
   174
100
AcDbLine
 10
244.838749
 20
65.636491
 30
0.0
 11
244.838749
 21
66.704594
 31
0.0
  0
ARC
  5
297
100
AcDbEntity
  8
0
  6
Continuous
 62
   174
100
AcDbCircle
 10
128.138749
 20
65.257657
 30
0.0
 40
3.3
100
AcDbArc
 50
29.837074
 51
56.44269
  0
ARC
  5
298
100
AcDbEntity
  8
0
  6
Continuous
 62
   174
100
AcDbCircle
 10
184.138749
 20
48.757657
 30
0.0
 40
3.3
100
AcDbArc
 50
180.0
 51
209.837074
  0
LINE
  5
299
100
AcDbEntity
  8
0
  6
Continuous
 62
   174
100
AcDbLine
 10
126.314605
 20
68.007657
 30
0.0
 11
121.138749
 21
68.007657
 31
0.0
  0
LINE
  5
29A
100
AcDbEntity
  8
0
  6
Continuous
 62
   174
100
AcDbLine
 10
56.138749
 20
64.807657
 30
0.0
 11
56.237345
 21
64.97843
 31
0.0
  0
LINE
  5
29B
100
AcDbEntity
  8
0
  6
Continuous
 62
   174
100
AcDbLine
 10
63.638749
 20
49.007657
 30
0.0
 11
75.680709
 21
49.007657
 31
0.0
  0
LINE
  5
29C
100
AcDbEntity
  8
0
  6
Continuous
 62
   174
100
AcDbLine
 10
191.138749
 20
46.007657
 30
0.0
 11
191.138749
 21
68.007657
 31
0.0
  0
LINE
  5
29D
100
AcDbEntity
  8
0
  6
Continuous
 62
   174
100
AcDbLine
 10
121.138749
 20
68.007657
 30
0.0
 11
121.138749
 21
46.007657
 31
0.0
  0
LINE
  5
29E
100
AcDbEntity
  8
0
  6
Continuous
 62
   174
100
AcDbLine
 10
78.638749
 20
67.507657
 30
0.0
 11
101.638749
 21
67.507657
 31
0.0
  0
LINE
  5
29F
100
AcDbEntity
  8
0
  6
Continuous
 62
   174
100
AcDbLine
 10
63.638749
 20
65.022141
 30
0.0
 11
63.638749
 21
63.628594
 31
0.0
  0
LINE
  5
2A0
100
AcDbEntity
  8
0
  6
Continuous
 62
   174
100
AcDbLine
 10
60.638749
 20
50.308748
 30
0.0
 11
60.638749
 21
63.736509
 31
0.0
  0
ARC
  5
2A1
100
AcDbEntity
  8
0
  6
Continuous
 62
   174
100
AcDbCircle
 10
128.138749
 20
65.257657
 30
0.0
 40
3.3
100
AcDbArc
 50
-11.911361
 51
0.0
  0
LINE
  5
2A2
100
AcDbEntity
  8
0
  6
Continuous
 62
   174
100
AcDbLine
 10
248.638749
 20
63.507657
 30
0.0
 11
251.638749
 21
63.507657
 31
0.0
  0
LINE
  5
2A3
100
AcDbEntity
  8
0
  6
Continuous
 62
   174
100
AcDbLine
 10
63.638749
 20
63.507657
 30
0.0
 11
60.638749
 21
63.507657
 31
0.0
  0
LINE
  5
2A4
100
AcDbEntity
  8
0
  6
Continuous
 62
   174
100
AcDbLine
 10
251.638749
 20
66.007657
 30
0.0
 11
252.338749
 21
66.007657
 31
0.0
  0
LINE
  5
2A5
100
AcDbEntity
  8
0
  6
Continuous
 62
   174
100
AcDbLine
 10
60.638749
 20
66.007657
 30
0.0
 11
59.938749
 21
66.007657
 31
0.0
  0
LINE
  5
2A6
100
AcDbEntity
  8
0
  6
Continuous
 62
   174
100
AcDbLine
 10
256.138749
 20
49.207657
 30
0.0
 11
256.040153
 21
49.036883
 31
0.0
  0
LINE
  5
2A7
100
AcDbEntity
  8
0
  6
Continuous
 62
   174
100
AcDbLine
 10
75.638749
 20
49.507657
 30
0.0
 11
75.638749
 21
50.762659
 31
0.0
  0
LINE
  5
2A8
100
AcDbEntity
  8
0
  6
Continuous
 62
   174
100
AcDbLine
 10
191.138749
 20
46.007657
 30
0.0
 11
207.138749
 21
46.007657
 31
0.0
  0
LINE
  5
2A9
100
AcDbEntity
  8
0
  6
Continuous
 62
   174
100
AcDbLine
 10
121.138749
 20
68.007657
 30
0.0
 11
105.138749
 21
68.007657
 31
0.0
  0
LINE
  5
2AA
100
AcDbEntity
  8
0
  6
Continuous
 62
   174
100
AcDbLine
 10
60.638749
 20
63.736509
 30
0.0
 11
60.638749
 21
66.022053
 31
0.0
  0
LINE
  5
2AB
100
AcDbEntity
  8
0
  6
Continuous
 62
   174
100
AcDbLine
 10
56.831569
 20
49.258784
 30
0.0
 11
59.938749
 21
49.258784
 31
0.0
  0
ARC
  5
2AC
100
AcDbEntity
  8
0
  6
Continuous
 62
   174
100
AcDbCircle
 10
128.138749
 20
65.257657
 30
0.0
 40
3.3
100
AcDbArc
 50
191.911361
 51
348.088639
  0
LINE
  5
2AD
100
AcDbEntity
  8
0
  6
Continuous
 62
   174
100
AcDbLine
 10
248.638749
 20
50.507657
 30
0.0
 11
251.638749
 21
50.507657
 31
0.0
  0
LINE
  5
2AE
100
AcDbEntity
  8
0
  6
Continuous
 62
   174
100
AcDbLine
 10
63.638749
 20
50.507657
 30
0.0
 11
60.638749
 21
50.507657
 31
0.0
  0
LINE
  5
2AF
100
AcDbEntity
  8
0
  6
Continuous
 62
   174
100
AcDbLine
 10
60.638749
 20
66.007657
 30
0.0
 11
59.938749
 21
66.007657
 31
0.0
  0
ARC
  5
2B0
100
AcDbEntity
  8
0
  6
Continuous
 62
   174
100
AcDbCircle
 10
145.138749
 20
57.007657
 30
0.0
 40
6.58
100
AcDbArc
 50
-359.188157
 51
-241.194706
  0
ARC
  5
2B1
100
AcDbEntity
  8
0
  6
Continuous
 62
   174
100
AcDbCircle
 10
145.138749
 20
57.007657
 30
0.0
 40
6.58
100
AcDbArc
 50
0.0
 51
0.811843
  0
LINE
  5
2B2
100
AcDbEntity
  8
0
  6
Continuous
 62
   174
100
AcDbLine
 10
236.638749
 20
64.507657
 30
0.0
 11
236.638749
 21
63.252655
 31
0.0
  0
LINE
  5
2B3
100
AcDbEntity
  8
0
  6
Continuous
 62
   174
100
AcDbLine
 10
75.638749
 20
63.252655
 30
0.0
 11
75.638749
 21
64.507657
 31
0.0
  0
LINE
  5
2B4
100
AcDbEntity
  8
0
  6
Continuous
 62
   174
100
AcDbLine
 10
233.638749
 20
46.507657
 30
0.0
 11
210.638749
 21
46.507657
 31
0.0
  0
LINE
  5
2B5
100
AcDbEntity
  8
0
  6
Continuous
 62
   174
100
AcDbLine
 10
60.638749
 20
48.023204
 30
0.0
 11
60.638749
 21
50.308748
 31
0.0
  0
LINE
  5
2B6
100
AcDbEntity
  8
0
  6
Continuous
 62
   174
100
AcDbLine
 10
252.338749
 20
49.184351
 30
0.0
 11
252.338749
 21
57.112487
 31
0.0
  0
LINE
  5
2B7
100
AcDbEntity
  8
0
  6
Continuous
 62
   174
100
AcDbLine
 10
67.438749
 20
66.703744
 30
0.0
 11
67.438749
 21
65.634792
 31
0.0
  0
ARC
  5
2B8
100
AcDbEntity
  8
0
  6
Continuous
 62
   174
100
AcDbCircle
 10
184.138749
 20
48.757657
 30
0.0
 40
3.3
100
AcDbArc
 50
168.088639
 51
180.0
  0
ARC
  5
2B9
100
AcDbEntity
  8
0
  6
Continuous
 62
   174
100
AcDbCircle
 10
196.138749
 20
57.007657
 30
0.0
 40
3.0
100
AcDbArc
 50
-180.0
 51
-120.0
  0
LINE
  5
2BA
100
AcDbEntity
  8
0
  6
Continuous
 62
   174
100
AcDbLine
 10
78.638749
 20
64.522291
 30
0.0
 11
78.638749
 21
67.522028
 31
0.0
  0
LINE
  5
2BB
100
AcDbEntity
  8
0
  6
Continuous
 62
   174
100
AcDbLine
 10
75.656859
 20
49.507657
 30
0.0
 11
78.656809
 21
49.507657
 31
0.0
  0
LINE
  5
2BC
100
AcDbEntity
  8
0
  6
Continuous
 62
   174
100
AcDbLine
 10
210.638749
 20
64.507657
 30
0.0
 11
233.638749
 21
64.507657
 31
0.0
  0
LINE
  5
2BD
100
AcDbEntity
  8
0
  6
Continuous
 62
   174
100
AcDbLine
 10
238.638749
 20
67.021966
 30
0.0
 11
238.638749
 21
66.90959
 31
0.0
  0
ARC
  5
2BE
100
AcDbEntity
  8
0
  6
Continuous
 62
   174
100
AcDbCircle
 10
167.138749
 20
57.007657
 30
0.0
 40
5.875
100
AcDbArc
 50
106.035131
 51
109.645968
  0
ARC
  5
2BF
100
AcDbEntity
  8
0
  6
Continuous
 62
   174
100
AcDbCircle
 10
101.638749
 20
49.507657
 30
0.0
 40
3.0
100
AcDbArc
 50
-90.0
 51
0.0
  0
ARC
  5
2C0
100
AcDbEntity
  8
0
  6
Continuous
 62
   174
100
AcDbCircle
 10
116.138749
 20
57.007657
 30
0.0
 40
3.0
100
AcDbArc
 50
-100.437709
 51
-79.562291
  0
LINE
  5
2C1
100
AcDbEntity
  8
0
  6
Continuous
 62
   174
100
AcDbLine
 10
185.962892
 20
46.007657
 30
0.0
 11
191.138749
 21
46.007657
 31
0.0
  0
LINE
  5
2C2
100
AcDbEntity
  8
0
  6
Continuous
 62
   174
100
AcDbLine
 10
59.938749
 20
56.917723
 30
0.0
 11
56.831569
 21
56.917723
 31
0.0
  0
LINE
  5
2C3
100
AcDbEntity
  8
0
  6
Continuous
 62
   174
100
AcDbLine
 10
210.638749
 20
49.522966
 30
0.0
 11
210.638749
 21
46.523229
 31
0.0
  0
LINE
  5
2C4
100
AcDbEntity
  8
0
  6
Continuous
 62
   174
100
AcDbLine
 10
207.138749
 20
46.007657
 30
0.0
 11
207.138749
 21
68.007657
 31
0.0
  0
ARC
  5
2C5
100
AcDbEntity
  8
0
  6
Continuous
 62
   174
100
AcDbCircle
 10
196.138749
 20
57.007657
 30
0.0
 40
2.5
100
AcDbArc
 50
-258.463041
 51
-206.154347
  0
ARC
  5
2C6
100
AcDbEntity
  8
0
  6
Continuous
 62
   174
100
AcDbCircle
 10
145.138749
 20
57.007657
 30
0.0
 40
5.875
100
AcDbArc
 50
107.192183
 51
109.326001
  0
LINE
  5
2C7
100
AcDbEntity
  8
0
  6
Continuous
 62
   174
100
AcDbLine
 10
56.138749
 20
60.109935
 30
0.0
 11
56.138749
 21
61.654251
 31
0.0
  0
LINE
  5
2C8
100
AcDbEntity
  8
0
  6
Continuous
 62
   174
100
AcDbLine
 10
238.138749
 20
47.007657
 30
0.0
 11
237.138749
 21
47.007657
 31
0.0
  0
ARC
  5
2C9
100
AcDbEntity
  8
0
  6
Continuous
 62
   174
100
AcDbCircle
 10
145.138749
 20
57.007657
 30
0.0
 40
5.875
100
AcDbArc
 50
322.363115
 51
325.386931
  0
ARC
  5
2CA
100
AcDbEntity
  8
0
  6
Continuous
 62
   174
100
AcDbCircle
 10
167.138749
 20
57.007657
 30
0.0
 40
5.875
100
AcDbArc
 50
215.057216
 51
217.6271
  0
ARC
  5
2CB
100
AcDbEntity
  8
0
  6
Continuous
 62
   174
100
AcDbCircle
 10
210.638749
 20
49.507657
 30
0.0
 40
3.0
100
AcDbArc
 50
-180.0
 51
-90.0
  0
LINE
  5
2CC
100
AcDbEntity
  8
0
  6
Continuous
 62
   174
100
AcDbLine
 10
207.656781
 20
64.507657
 30
0.0
 11
210.656943
 21
64.507657
 31
0.0
  0
LINE
  5
2CD
100
AcDbEntity
  8
0
  6
Continuous
 62
   174
100
AcDbLine
 10
67.438749
 20
47.325198
 30
0.0
 11
73.638749
 21
47.325198
 31
0.0
  0
ARC
  5
2CE
100
AcDbEntity
  8
0
  6
Continuous
 62
   174
100
AcDbCircle
 10
196.138749
 20
57.007657
 30
0.0
 40
3.0
100
AcDbArc
 50
-240.0
 51
-180.0
  0
LINE
  5
2CF
100
AcDbEntity
  8
0
  6
Continuous
 62
   174
100
AcDbLine
 10
244.838749
 20
48.395027
 30
0.0
 11
238.638749
 21
48.395027
 31
0.0
  0
LWPOLYLINE
  5
2D0
100
AcDbEntity
  8
0
  6
Continuous
 62
   174
100
AcDbPolyline
 90
        4
 70
   128
 10
256.138749
 20
52.361062
 10
256.005628
 20
51.307354
 10
255.772546
 20
50.248941
 10
255.445929
 20
49.168851
  0
LINE
  5
2D1
100
AcDbEntity
  8
0
  6
Continuous
 62
   174
100
AcDbLine
 10
244.838749
 20
66.690115
 30
0.0
 11
238.638749
 21
66.690115
 31
0.0
  0
ARC
  5
2D2
100
AcDbEntity
  8
0
  6
Continuous
 62
   174
100
AcDbCircle
 10
196.138749
 20
57.007657
 30
0.0
 40
3.0
100
AcDbArc
 50
-120.0
 51
-100.437709
  0
ARC
  5
2D3
100
AcDbEntity
  8
0
  6
Continuous
 62
   174
100
AcDbCircle
 10
116.138749
 20
57.007657
 30
0.0
 40
3.0
100
AcDbArc
 50
-60.0
 51
0.0
  0
LINE
  5
2D4
100
AcDbEntity
  8
0
  6
Continuous
 62
   174
100
AcDbLine
 10
195.638749
 20
59.457147
 30
0.0
 11
195.638749
 21
54.558167
 31
0.0
  0
ARC
  5
2D5
100
AcDbEntity
  8
0
  6
Continuous
 62
   174
100
AcDbCircle
 10
167.138749
 20
57.007657
 30
0.0
 40
5.875
100
AcDbArc
 50
322.3729
 51
324.942784
  0
ARC
  5
2D6
100
AcDbEntity
  8
0
  6
Continuous
 62
   174
100
AcDbCircle
 10
167.138749
 20
57.007657
 30
0.0
 40
5.875
100
AcDbArc
 50
73.964869
 51
106.035131
  0
LINE
  5
2D7
100
AcDbEntity
  8
0
  6
Continuous
 62
   174
100
AcDbLine
 10
75.638749
 20
50.762659
 30
0.0
 11
75.638749
 21
49.507657
 31
0.0
  0
ARC
  5
2D8
100
AcDbEntity
  8
0
  6
Continuous
 62
   174
100
AcDbCircle
 10
78.638749
 20
64.507657
 30
0.0
 40
3.0
100
AcDbArc
 50
-270.0
 51
-180.0
  0
LINE
  5
2D9
100
AcDbEntity
  8
0
  6
Continuous
 62
   174
100
AcDbLine
 10
238.638749
 20
67.007657
 30
0.0
 11
238.138749
 21
67.007657
 31
0.0
  0
LINE
  5
2DA
100
AcDbEntity
  8
0
  6
Continuous
 62
   174
100
AcDbLine
 10
238.638749
 20
65.636491
 30
0.0
 11
238.638749
 21
65.04827
 31
0.0
  0
LINE
  5
2DB
100
AcDbEntity
  8
0
  6
Continuous
 62
   174
100
AcDbLine
 10
121.138749
 20
46.007657
 30
0.0
 11
182.314605
 21
46.007657
 31
0.0
  0
LWPOLYLINE
  5
2DC
100
AcDbEntity
  8
0
  6
Continuous
 62
   174
100
AcDbPolyline
 90
        6
 70
   128
 10
78.638749
 20
57.007657
 10
77.733433
 20
58.497017
 10
76.925128
 20
59.890766
 10
76.26328
 20
61.169427
 10
75.811454
 20
62.295532
 10
75.638749
 20
63.252655
  0
LINE
  5
2DD
100
AcDbEntity
  8
0
  6
Continuous
 62
   174
100
AcDbLine
 10
236.656792
 20
64.507657
 30
0.0
 11
233.656842
 21
64.507657
 31
0.0
  0
ARC
  5
2DE
100
AcDbEntity
  8
0
  6
Continuous
 62
   174
100
AcDbCircle
 10
116.138749
 20
57.007657
 30
0.0
 40
3.0
100
AcDbArc
 50
-79.562291
 51
-60.0
  0
LINE
  5
2DF
100
AcDbEntity
  8
0
  6
Continuous
 62
   174
100
AcDbLine
 10
56.138749
 20
60.124758
 30
0.0
 11
56.138749
 21
49.274209
 31
0.0
  0
LINE
  5
2E0
100
AcDbEntity
  8
0
  6
Continuous
 62
   174
100
AcDbLine
 10
67.438749
 20
65.620287
 30
0.0
 11
73.638749
 21
65.620287
 31
0.0
  0
ARC
  5
2E1
100
AcDbEntity
  8
0
  6
Continuous
 62
   174
100
AcDbCircle
 10
167.138749
 20
57.007657
 30
0.0
 40
5.875
100
AcDbArc
 50
180.0
 51
215.057216
  0
LWPOLYLINE
  5
2E2
100
AcDbEntity
  8
0
  6
Continuous
 62
   174
100
AcDbPolyline
 90
        4
 70
   128
 10
56.831569
 20
56.917723
 10
56.503669
 20
58.002692
 10
56.270914
 20
59.061691
 10
56.138749
 20
60.109935
  0
LINE
  5
2E3
100
AcDbEntity
  8
0
  6
Continuous
 62
   174
100
AcDbLine
 10
237.138749
 20
46.007657
 30
0.0
 11
207.138749
 21
46.007657
 31
0.0
  0
ARC
  5
2E4
100
AcDbEntity
  8
0
  6
Continuous
 62
   174
100
AcDbCircle
 10
145.138749
 20
57.007657
 30
0.0
 40
5.875
100
AcDbArc
 50
289.326001
 51
322.363115
  0
ARC
  5
2E5
100
AcDbEntity
  8
0
  6
Continuous
 62
   174
100
AcDbCircle
 10
145.138749
 20
57.007657
 30
0.0
 40
5.875
100
AcDbArc
 50
72.807817
 51
107.192183
  0
LINE
  5
2E6
100
AcDbEntity
  8
0
  6
Continuous
 62
   174
100
AcDbLine
 10
101.638749
 20
46.523229
 30
0.0
 11
101.638749
 21
49.522966
 31
0.0
  0
ARC
  5
2E7
100
AcDbEntity
  8
0
  6
Continuous
 62
   174
100
AcDbCircle
 10
116.138749
 20
57.007657
 30
0.0
 40
2.5
100
AcDbArc
 50
-153.845653
 51
-101.536959
  0
ARC
  5
2E8
100
AcDbEntity
  8
0
  6
Continuous
 62
   174
100
AcDbCircle
 10
145.138749
 20
57.007657
 30
0.0
 40
5.875
100
AcDbArc
 50
217.636885
 51
250.673999
  0
LINE
  5
2E9
100
AcDbEntity
  8
0
  6
Continuous
 62
   174
100
AcDbLine
 10
78.638749
 20
46.507657
 30
0.0
 11
101.638749
 21
46.507657
 31
0.0
  0
ARC
  5
2EA
100
AcDbEntity
  8
0
  6
Continuous
 62
   174
100
AcDbCircle
 10
196.138749
 20
57.007657
 30
0.0
 40
3.0
100
AcDbArc
 50
-100.437709
 51
-79.562291
  0
ARC
  5
2EB
100
AcDbEntity
  8
0
  6
Continuous
 62
   174
100
AcDbCircle
 10
116.138749
 20
57.007657
 30
0.0
 40
3.0
100
AcDbArc
 50
0.0
 51
60.0
  0
LINE
  5
2EC
100
AcDbEntity
  8
0
  6
Continuous
 62
   174
100
AcDbLine
 10
67.438749
 20
66.689245
 30
0.0
 11
73.638749
 21
66.689245
 31
0.0
  0
LINE
  5
2ED
100
AcDbEntity
  8
0
  6
Continuous
 62
   174
100
AcDbLine
 10
238.138749
 20
67.007657
 30
0.0
 11
237.138749
 21
67.007657
 31
0.0
  0
ARC
  5
2EE
100
AcDbEntity
  8
0
  6
Continuous
 62
   174
100
AcDbCircle
 10
116.138749
 20
57.007657
 30
0.0
 40
3.0
100
AcDbArc
 50
-240.0
 51
-180.0
  0
ARC
  5
2EF
100
AcDbEntity
  8
0
  6
Continuous
 62
   174
100
AcDbCircle
 10
167.138749
 20
57.007657
 30
0.0
 40
5.875
100
AcDbArc
 50
70.354032
 51
73.964869
  0
LINE
  5
2F0
100
AcDbEntity
  8
0
  6
Continuous
 62
   174
100
AcDbLine
 10
233.656842
 20
49.507657
 30
0.0
 11
236.656792
 21
49.507657
 31
0.0
  0
ARC
  5
2F1
100
AcDbEntity
  8
0
  6
Continuous
 62
   174
100
AcDbCircle
 10
196.138749
 20
57.007657
 30
0.0
 40
2.5
100
AcDbArc
 50
-206.154347
 51
-153.845653
  0
ARC
  5
2F2
100
AcDbEntity
  8
0
  6
Continuous
 62
   174
100
AcDbCircle
 10
167.138749
 20
57.007657
 30
0.0
 40
5.875
100
AcDbArc
 50
289.645968
 51
322.3729
  0
LINE
  5
2F3
100
AcDbEntity
  8
0
  6
Continuous
 62
   174
100
AcDbLine
 10
244.838749
 20
47.326068
 30
0.0
 11
238.638749
 21
47.326068
 31
0.0
  0
LINE
  5
2F4
100
AcDbEntity
  8
0
  6
Continuous
 62
   174
100
AcDbLine
 10
210.638749
 20
49.507657
 30
0.0
 11
210.638749
 21
64.507657
 31
0.0
  0
LINE
  5
2F5
100
AcDbEntity
  8
0
  6
Continuous
 62
   174
100
AcDbLine
 10
78.638749
 20
57.007657
 30
0.0
 11
78.638749
 21
64.507657
 31
0.0
  0
LINE
  5
2F6
100
AcDbEntity
  8
0
  6
Continuous
 62
   174
100
AcDbLine
 10
210.638749
 20
46.507657
 30
0.0
 11
233.638749
 21
46.507657
 31
0.0
  0
LINE
  5
2F7
100
AcDbEntity
  8
0
  6
Continuous
 62
   174
100
AcDbLine
 10
78.656809
 20
64.507657
 30
0.0
 11
75.656859
 21
64.507657
 31
0.0
  0
LINE
  5
2F8
100
AcDbEntity
  8
0
  6
Continuous
 62
   174
100
AcDbLine
 10
75.638749
 20
64.507657
 30
0.0
 11
75.638749
 21
63.252655
 31
0.0
  0
LINE
  5
2F9
100
AcDbEntity
  8
0
  6
Continuous
 62
   174
100
AcDbLine
 10
104.656871
 20
49.507657
 30
0.0
 11
101.656921
 21
49.507657
 31
0.0
  0
LINE
  5
2FA
100
AcDbEntity
  8
0
  6
Continuous
 62
   174
100
AcDbLine
 10
238.138749
 20
47.007657
 30
0.0
 11
237.138749
 21
47.007657
 31
0.0
  0
ARC
  5
2FB
100
AcDbEntity
  8
0
  6
Continuous
 62
   174
100
AcDbCircle
 10
145.138749
 20
57.007657
 30
0.0
 40
5.875
100
AcDbArc
 50
214.613069
 51
217.636885
  0
ARC
  5
2FC
100
AcDbEntity
  8
0
  6
Continuous
 62
   174
100
AcDbCircle
 10
145.138749
 20
57.007657
 30
0.0
 40
5.875
100
AcDbArc
 50
70.673999
 51
72.807817
  0
LINE
  5
2FD
100
AcDbEntity
  8
0
  6
Continuous
 62
   174
100
AcDbLine
 10
191.138749
 20
68.007657
 30
0.0
 11
129.962892
 21
68.007657
 31
0.0
  0
LINE
  5
2FE
100
AcDbEntity
  8
0
  6
Continuous
 62
   174
100
AcDbLine
 10
73.638749
 20
47.135667
 30
0.0
 11
73.638749
 21
47.340663
 31
0.0
  0
ARC
  5
2FF
100
AcDbEntity
  8
0
  6
Continuous
 62
   174
100
AcDbCircle
 10
196.138749
 20
57.007657
 30
0.0
 40
3.0
100
AcDbArc
 50
-79.562291
 51
-60.0
  0
ARC
  5
300
100
AcDbEntity
  8
0
  6
Continuous
 62
   174
100
AcDbCircle
 10
116.138749
 20
57.007657
 30
0.0
 40
3.0
100
AcDbArc
 50
-300.0
 51
-280.437709
  0
ARC
  5
301
100
AcDbEntity
  8
0
  6
Continuous
 62
   174
100
AcDbCircle
 10
145.138749
 20
57.007657
 30
0.0
 40
5.875
100
AcDbArc
 50
287.192183
 51
289.326001
  0
LINE
  5
302
100
AcDbEntity
  8
0
  6
Continuous
 62
   174
100
AcDbLine
 10
237.138749
 20
68.007657
 30
0.0
 11
237.138749
 21
65.007657
 31
0.0
  0
ARC
  5
303
100
AcDbEntity
  8
0
  6
Continuous
 62
   174
100
AcDbCircle
 10
167.138749
 20
57.007657
 30
0.0
 40
5.875
100
AcDbArc
 50
37.6271
 51
70.354032
  0
LINE
  5
304
100
AcDbEntity
  8
0
  6
Continuous
 62
   174
100
AcDbLine
 10
126.314605
 20
68.007657
 30
0.0
 11
129.962892
 21
68.007657
 31
0.0
  0
ARC
  5
305
100
AcDbEntity
  8
0
  6
Continuous
 62
   174
100
AcDbCircle
 10
116.138749
 20
57.007657
 30
0.0
 40
2.5
100
AcDbArc
 50
-258.463041
 51
-206.154347
  0
LWPOLYLINE
  5
306
100
AcDbEntity
  8
0
  6
Continuous
 62
   174
100
AcDbPolyline
 90
        6
 70
   128
 10
233.638749
 20
57.007657
 10
234.544065
 20
55.518297
 10
235.35237
 20
54.124548
 10
236.014218
 20
52.845886
 10
236.466043
 20
51.719782
 10
236.638749
 20
50.762659
  0
ARC
  5
307
100
AcDbEntity
  8
0
  6
Continuous
 62
   174
100
AcDbCircle
 10
116.138749
 20
57.007657
 30
0.0
 40
2.5
100
AcDbArc
 50
-78.463041
 51
-26.154347
  0
ARC
  5
308
100
AcDbEntity
  8
0
  6
Continuous
 62
   174
100
AcDbCircle
 10
167.138749
 20
57.007657
 30
0.0
 40
5.875
100
AcDbArc
 50
286.035131
 51
289.645968
  0
LINE
  5
309
100
AcDbEntity
  8
0
  6
Continuous
 62
   174
100
AcDbLine
 10
256.138749
 20
53.920499
 30
0.0
 11
256.138749
 21
64.771048
 31
0.0
  0
LWPOLYLINE
  5
30A
100
AcDbEntity
  8
0
  6
Continuous
 62
   174
100
AcDbPolyline
 90
        3
 70
   128
 10
56.831569
 20
64.846463
 10
56.465467
 20
64.846463
 10
56.237367
 20
64.846463
  0
LWPOLYLINE
  5
30B
100
AcDbEntity
  8
0
  6
Continuous
 62
   174
100
AcDbPolyline
 90
        4
 70
   128
 10
56.138749
 20
61.654251
 10
56.271869
 20
62.70796
 10
56.504952
 20
63.766372
 10
56.831569
 20
64.846463
  0
LINE
  5
30C
100
AcDbEntity
  8
0
  6
Continuous
 62
   174
100
AcDbLine
 10
73.638749
 20
67.007657
 30
0.0
 11
74.138749
 21
67.007657
 31
0.0
  0
ARC
  5
30D
100
AcDbEntity
  8
0
  6
Continuous
 62
   174
100
AcDbCircle
 10
196.138749
 20
57.007657
 30
0.0
 40
3.0
100
AcDbArc
 50
-360.0
 51
-300.0
  0
LINE
  5
30E
100
AcDbEntity
  8
0
  6
Continuous
 62
   174
100
AcDbLine
 10
56.138749
 20
64.822243
 30
0.0
 11
56.138749
 21
61.668918
 31
0.0
  0
LINE
  5
30F
100
AcDbEntity
  8
0
  6
Continuous
 62
   174
100
AcDbLine
 10
238.638749
 20
47.007657
 30
0.0
 11
238.138749
 21
47.007657
 31
0.0
  0
LINE
  5
310
100
AcDbEntity
  8
0
  6
Continuous
 62
   174
100
AcDbLine
 10
78.638749
 20
64.507657
 30
0.0
 11
101.638749
 21
64.507657
 31
0.0
  0
LINE
  5
311
100
AcDbEntity
  8
0
  6
Continuous
 62
   174
100
AcDbLine
 10
73.638749
 20
47.023291
 30
0.0
 11
73.638749
 21
47.135667
 31
0.0
  0
ARC
  5
312
100
AcDbEntity
  8
0
  6
Continuous
 62
   174
100
AcDbCircle
 10
145.138749
 20
57.007657
 30
0.0
 40
5.875
100
AcDbArc
 50
180.0
 51
214.613069
  0
LINE
  5
313
100
AcDbEntity
  8
0
  6
Continuous
 62
   174
100
AcDbLine
 10
256.138749
 20
53.905378
 30
0.0
 11
256.138749
 21
52.361062
 31
0.0
  0
ARC
  5
314
100
AcDbEntity
  8
0
  6
Continuous
 62
   174
100
AcDbCircle
 10
116.138749
 20
57.007657
 30
0.0
 40
3.0
100
AcDbArc
 50
-280.437709
 51
-259.562291
  0
LINE
  5
315
100
AcDbEntity
  8
0
  6
Continuous
 62
   174
100
AcDbLine
 10
210.656943
 20
49.507657
 30
0.0
 11
207.656781
 21
49.507657
 31
0.0
  0
LINE
  5
316
100
AcDbEntity
  8
0
  6
Continuous
 62
   174
100
AcDbLine
 10
182.314605
 20
46.007657
 30
0.0
 11
185.962892
 21
46.007657
 31
0.0
  0
LINE
  5
317
100
AcDbEntity
  8
0
  6
Continuous
 62
   174
100
AcDbLine
 10
105.138749
 20
68.007657
 30
0.0
 11
105.138749
 21
46.007657
 31
0.0
  0
ARC
  5
318
100
AcDbEntity
  8
0
  6
Continuous
 62
   174
100
AcDbCircle
 10
145.138749
 20
57.007657
 30
0.0
 40
5.875
100
AcDbArc
 50
252.807817
 51
287.192183
  0
ARC
  5
319
100
AcDbEntity
  8
0
  6
Continuous
 62
   174
100
AcDbCircle
 10
145.138749
 20
57.007657
 30
0.0
 40
5.875
100
AcDbArc
 50
37.636885
 51
70.673999
  0
ARC
  5
31A
100
AcDbEntity
  8
0
  6
Continuous
 62
   174
100
AcDbCircle
 10
196.138749
 20
57.007657
 30
0.0
 40
3.0
100
AcDbArc
 50
-60.0
 51
0.0
  0
ARC
  5
31B
100
AcDbEntity
  8
0
  6
Continuous
 62
   174
100
AcDbCircle
 10
78.638749
 20
49.507657
 30
0.0
 40
3.0
100
AcDbArc
 50
-180.0
 51
-90.0
  0
LINE
  5
31C
100
AcDbEntity
  8
0
  6
Continuous
 62
   174
100
AcDbLine
 10
233.638749
 20
57.007657
 30
0.0
 11
233.638749
 21
49.507657
 31
0.0
  0
ARC
  5
31D
100
AcDbEntity
  8
0
  6
Continuous
 62
   174
100
AcDbCircle
 10
167.138749
 20
57.007657
 30
0.0
 40
5.875
100
AcDbArc
 50
35.057216
 51
37.6271
  0
LINE
  5
31E
100
AcDbEntity
  8
0
  6
Continuous
 62
   174
100
AcDbLine
 10
237.138749
 20
49.007657
 30
0.0
 11
237.138749
 21
46.007657
 31
0.0
  0
LINE
  5
31F
100
AcDbEntity
  8
0
  6
Continuous
 62
   174
100
AcDbLine
 10
101.656921
 20
64.507657
 30
0.0
 11
104.656871
 21
64.507657
 31
0.0
  0
LINE
  5
320
100
AcDbEntity
  8
0
  6
Continuous
 62
   174
100
AcDbLine
 10
56.179065
 20
64.846463
 30
0.0
 11
56.25554
 21
64.846463
 31
0.0
  0
LINE
  5
321
100
AcDbEntity
  8
0
  6
Continuous
 62
   174
100
AcDbLine
 10
67.438749
 20
48.39326
 30
0.0
 11
73.638749
 21
48.39326
 31
0.0
  0
LINE
  5
322
100
AcDbEntity
  8
0
  6
Continuous
 62
   174
100
AcDbLine
 10
101.638749
 20
64.507657
 30
0.0
 11
101.638749
 21
49.507657
 31
0.0
  0
ARC
  5
323
100
AcDbEntity
  8
0
  6
Continuous
 62
   174
100
AcDbCircle
 10
116.138749
 20
57.007657
 30
0.0
 40
3.0
100
AcDbArc
 50
-180.0
 51
-120.0
  0
ARC
  5
324
100
AcDbEntity
  8
0
  6
Continuous
 62
   174
100
AcDbCircle
 10
167.138749
 20
57.007657
 30
0.0
 40
5.875
100
AcDbArc
 50
253.964869
 51
286.035131
  0
LINE
  5
325
100
AcDbEntity
  8
0
  6
Continuous
 62
   174
100
AcDbLine
 10
75.138749
 20
65.007657
 30
0.0
 11
75.138749
 21
68.007657
 31
0.0
  0
LINE
  5
326
100
AcDbEntity
  8
0
  6
Continuous
 62
   174
100
AcDbLine
 10
73.638749
 20
47.007657
 30
0.0
 11
74.138749
 21
47.007657
 31
0.0
  0
ARC
  5
327
100
AcDbEntity
  8
0
  6
Continuous
 62
   174
100
AcDbCircle
 10
196.138749
 20
57.007657
 30
0.0
 40
2.5
100
AcDbArc
 50
-26.154347
 51
26.154347
  0
ARC
  5
328
100
AcDbEntity
  8
0
  6
Continuous
 62
   174
100
AcDbCircle
 10
145.138749
 20
57.007657
 30
0.0
 40
5.875
100
AcDbArc
 50
145.386931
 51
180.0
  0
LINE
  5
329
100
AcDbEntity
  8
0
  6
Continuous
 62
   174
100
AcDbLine
 10
233.638749
 20
67.522028
 30
0.0
 11
233.638749
 21
64.522291
 31
0.0
  0
LWPOLYLINE
  5
32A
100
AcDbEntity
  8
0
  6
Continuous
 62
   174
100
AcDbPolyline
 90
        7
 70
   128
 10
255.445929
 20
64.75653
 10
255.812055
 20
63.454563
 10
256.040153
 20
62.177961
 10
256.117057
 20
60.926991
 10
256.040138
 20
59.676036
 10
255.812038
 20
58.399481
 10
255.445929
 20
57.09759
  0
LINE
  5
32B
100
AcDbEntity
  8
0
  6
Continuous
 62
   174
100
AcDbLine
 10
233.638749
 20
64.507657
 30
0.0
 11
233.638749
 21
57.007657
 31
0.0
  0
LINE
  5
32C
100
AcDbEntity
  8
0
  6
Continuous
 62
   174
100
AcDbLine
 10
73.638749
 20
66.90959
 30
0.0
 11
73.638749
 21
67.021966
 31
0.0
  0
ARC
  5
32D
100
AcDbEntity
  8
0
  6
Continuous
 62
   174
100
AcDbCircle
 10
116.138749
 20
57.007657
 30
0.0
 40
2.5
100
AcDbArc
 50
-206.154347
 51
-153.845653
  0
ARC
  5
32E
100
AcDbEntity
  8
0
  6
Continuous
 62
   174
100
AcDbCircle
 10
167.138749
 20
57.007657
 30
0.0
 40
5.875
100
AcDbArc
 50
144.942784
 51
180.0
  0
ARC
  5
32F
100
AcDbEntity
  8
0
  6
Continuous
 62
   174
100
AcDbCircle
 10
116.138749
 20
57.007657
 30
0.0
 40
3.0
100
AcDbArc
 50
-259.562291
 51
-240.0
  0
LINE
  5
330
100
AcDbEntity
  8
0
  6
Continuous
 62
   174
100
AcDbLine
 10
244.838749
 20
48.395027
 30
0.0
 11
244.838749
 21
49.007657
 31
0.0
  0
ARC
  5
331
100
AcDbEntity
  8
0
  6
Continuous
 62
   174
100
AcDbCircle
 10
196.138749
 20
57.007657
 30
0.0
 40
3.0
100
AcDbArc
 50
-300.0
 51
-280.437709
  0
ARC
  5
332
100
AcDbEntity
  8
0
  6
Continuous
 62
   174
100
AcDbCircle
 10
116.138749
 20
57.007657
 30
0.0
 40
2.5
100
AcDbArc
 50
-26.154347
 51
26.154347
  0
LWPOLYLINE
  5
333
100
AcDbEntity
  8
0
  6
Continuous
 62
   174
100
AcDbPolyline
 90
        3
 70
   128
 10
255.445929
 20
49.168851
 10
255.812031
 20
49.168851
 10
256.040131
 20
49.168851
  0
LINE
  5
334
100
AcDbEntity
  8
0
  6
Continuous
 62
   174
100
AcDbLine
 10
73.638749
 20
48.408766
 30
0.0
 11
73.638749
 21
48.996987
 31
0.0
  0
LINE
  5
335
100
AcDbEntity
  8
0
  6
Continuous
 62
   174
100
AcDbLine
 10
207.138749
 20
68.007657
 30
0.0
 11
237.138749
 21
68.007657
 31
0.0
  0
ARC
  5
336
100
AcDbEntity
  8
0
  6
Continuous
 62
   174
100
AcDbCircle
 10
145.138749
 20
57.007657
 30
0.0
 40
5.875
100
AcDbArc
 50
34.613069
 51
37.636885
  0
LINE
  5
337
100
AcDbEntity
  8
0
  6
Continuous
 62
   174
100
AcDbLine
 10
244.838749
 20
65.622053
 30
0.0
 11
238.638749
 21
65.622053
 31
0.0
  0
LINE
  5
338
100
AcDbEntity
  8
0
  6
Continuous
 62
   174
100
AcDbLine
 10
74.138749
 20
47.007657
 30
0.0
 11
75.138749
 21
47.007657
 31
0.0
  0
ARC
  5
339
100
AcDbEntity
  8
0
  6
Continuous
 62
   174
100
AcDbCircle
 10
233.638749
 20
49.507657
 30
0.0
 40
3.0
100
AcDbArc
 50
-90.0
 51
0.0
  0
ARC
  5
33A
100
AcDbEntity
  8
0
  6
Continuous
 62
   174
100
AcDbCircle
 10
196.138749
 20
57.007657
 30
0.0
 40
2.5
100
AcDbArc
 50
-78.463041
 51
-26.154347
  0
ARC
  5
33B
100
AcDbEntity
  8
0
  6
Continuous
 62
   174
100
AcDbCircle
 10
145.138749
 20
57.007657
 30
0.0
 40
5.875
100
AcDbArc
 50
250.673999
 51
252.807817
  0
LINE
  5
33C
100
AcDbEntity
  8
0
  6
Continuous
 62
   174
100
AcDbLine
 10
105.138749
 20
46.007657
 30
0.0
 11
75.138749
 21
46.007657
 31
0.0
  0
LINE
  5
33D
100
AcDbEntity
  8
0
  6
Continuous
 62
   174
100
AcDbLine
 10
75.138749
 20
68.007657
 30
0.0
 11
105.138749
 21
68.007657
 31
0.0
  0
ARC
  5
33E
100
AcDbEntity
  8
0
  6
Continuous
 62
   174
100
AcDbCircle
 10
167.138749
 20
57.007657
 30
0.0
 40
5.875
100
AcDbArc
 50
0.0
 51
35.057216
  0
LINE
  5
33F
100
AcDbEntity
  8
0
  6
Continuous
 62
   174
100
AcDbLine
 10
233.638749
 20
67.507657
 30
0.0
 11
210.638749
 21
67.507657
 31
0.0
  0
LINE
  5
340
100
AcDbEntity
  8
0
  6
Continuous
 62
   174
100
AcDbLine
 10
59.938749
 20
64.846463
 30
0.0
 11
56.831569
 21
64.846463
 31
0.0
  0
LINE
  5
341
100
AcDbEntity
  8
0
  6
Continuous
 62
   174
100
AcDbLine
 10
67.438749
 20
65.620287
 30
0.0
 11
67.438749
 21
65.007657
 31
0.0
  0
LINE
  5
342
100
AcDbEntity
  8
0
  6
Continuous
 62
   174
100
AcDbLine
 10
236.638749
 20
49.507657
 30
0.0
 11
236.638749
 21
50.762659
 31
0.0
  0
ARC
  5
343
100
AcDbEntity
  8
0
  6
Continuous
 62
   174
100
AcDbCircle
 10
167.138749
 20
57.007657
 30
0.0
 40
5.875
100
AcDbArc
 50
250.354032
 51
253.964869
  0
LWPOLYLINE
  5
344
100
AcDbEntity
  8
0
  6
Continuous
 62
   174
100
AcDbPolyline
 90
        6
 70
   128
 10
75.638749
 20
50.762659
 10
75.811091
 20
51.718621
 10
76.262892
 20
52.84506
 10
76.925962
 20
54.126051
 10
77.734493
 20
55.520067
 10
78.638749
 20
57.007657
  0
LINE
  5
345
100
AcDbEntity
  8
0
  6
Continuous
 62
   174
100
AcDbLine
 10
238.638749
 20
48.996987
 30
0.0
 11
238.638749
 21
48.410465
 31
0.0
  0
LINE
  5
346
100
AcDbEntity
  8
0
  6
Continuous
 62
   174
100
AcDbLine
 10
101.638749
 20
49.507657
 30
0.0
 11
78.638749
 21
49.507657
 31
0.0
  0
ARC
  5
347
100
AcDbEntity
  8
0
  6
Continuous
 62
   174
100
AcDbCircle
 10
196.138749
 20
57.007657
 30
0.0
 40
2.5
100
AcDbArc
 50
-333.845653
 51
-281.536959
  0
ARC
  5
348
100
AcDbEntity
  8
0
  6
Continuous
 62
   174
100
AcDbCircle
 10
101.638749
 20
64.507657
 30
0.0
 40
3.0
100
AcDbArc
 50
0.0
 51
90.0
  0
LINE
  5
349
100
AcDbEntity
  8
0
  6
Continuous
 62
   174
100
AcDbLine
 10
67.438749
 20
49.007657
 30
0.0
 11
67.438749
 21
48.39326
 31
0.0
  0
LINE
  5
34A
100
AcDbEntity
  8
0
  6
Continuous
 62
   174
100
AcDbLine
 10
74.138749
 20
67.007657
 30
0.0
 11
75.138749
 21
67.007657
 31
0.0
  0
LINE
  5
34B
100
AcDbEntity
  8
0
  6
Continuous
 62
   174
100
AcDbLine
 10
74.138749
 20
67.007657
 30
0.0
 11
75.138749
 21
67.007657
 31
0.0
  0
LINE
  5
34C
100
AcDbEntity
  8
0
  6
Continuous
 62
   174
100
AcDbLine
 10
256.134799
 20
49.168851
 30
0.0
 11
256.058111
 21
49.168851
 31
0.0
  0
LINE
  5
34D
100
AcDbEntity
  8
0
  6
Continuous
 62
   174
100
AcDbLine
 10
252.338749
 20
57.09759
 30
0.0
 11
255.445929
 21
57.09759
 31
0.0
  0
LINE
  5
34E
100
AcDbEntity
  8
0
  6
Continuous
 62
   174
100
AcDbLine
 10
78.638749
 20
46.523229
 30
0.0
 11
78.638749
 21
49.522966
 31
0.0
  0
LINE
  5
34F
100
AcDbEntity
  8
0
  6
Continuous
 62
   174
100
AcDbLine
 10
238.638749
 20
66.90959
 30
0.0
 11
238.638749
 21
66.704594
 31
0.0
  0
ARC
  5
350
100
AcDbEntity
  8
0
  6
Continuous
 62
   174
100
AcDbCircle
 10
196.138749
 20
57.007657
 30
0.0
 40
3.0
100
AcDbArc
 50
-280.437709
 51
-259.562291
  0
LINE
  5
351
100
AcDbEntity
  8
0
  6
Continuous
 62
   174
100
AcDbLine
 10
115.638749
 20
59.457147
 30
0.0
 11
115.638749
 21
54.558167
 31
0.0
  0
ARC
  5
352
100
AcDbEntity
  8
0
  6
Continuous
 62
   174
100
AcDbCircle
 10
167.138749
 20
57.007657
 30
0.0
 40
5.875
100
AcDbArc
 50
142.3729
 51
144.942784
  0
ARC
  5
353
100
AcDbEntity
  8
0
  6
Continuous
 62
   174
100
AcDbCircle
 10
145.138749
 20
57.007657
 30
0.0
 40
5.875
100
AcDbArc
 50
0.0
 51
34.613069
  0
ARC
  5
354
100
AcDbEntity
  8
0
  6
Continuous
 62
   174
100
AcDbCircle
 10
145.138749
 20
57.007657
 30
0.0
 40
5.875
100
AcDbArc
 50
142.363115
 51
145.386931
  0
LINE
  5
355
100
AcDbEntity
  8
0
  6
Continuous
 62
   174
100
AcDbLine
 10
207.638749
 20
64.507657
 30
0.0
 11
207.638749
 21
49.507657
 31
0.0
  0
LINE
  5
356
100
AcDbEntity
  8
0
  6
Continuous
 62
   174
100
AcDbLine
 10
233.638749
 20
49.522966
 30
0.0
 11
233.638749
 21
46.523229
 31
0.0
  0
LWPOLYLINE
  5
357
100
AcDbEntity
  8
0
  6
Continuous
 62
   174
100
AcDbPolyline
 90
        6
 70
   128
 10
236.638749
 20
63.252655
 10
236.466406
 20
62.296693
 10
236.014606
 20
61.170253
 10
235.351536
 20
59.889263
 10
234.543005
 20
58.495246
 10
233.638749
 20
57.007657
  0
LINE
  5
358
100
AcDbEntity
  8
0
  6
Continuous
 62
   174
100
AcDbLine
 10
78.638749
 20
49.507657
 30
0.0
 11
78.638749
 21
57.007657
 31
0.0
  0
LINE
  5
359
100
AcDbEntity
  8
0
  6
Continuous
 62
   174
100
AcDbLine
 10
236.638749
 20
63.252655
 30
0.0
 11
236.638749
 21
64.507657
 31
0.0
  0
ARC
  5
35A
100
AcDbEntity
  8
0
  6
Continuous
 62
   174
100
AcDbCircle
 10
167.138749
 20
57.007657
 30
0.0
 40
5.875
100
AcDbArc
 50
-35.057216
 51
0.0
  0
LINE
  5
35B
100
AcDbEntity
  8
0
  6
Continuous
 62
   174
100
AcDbLine
 10
104.638749
 20
49.507657
 30
0.0
 11
104.638749
 21
64.507657
 31
0.0
  0
ARC
  5
35C
100
AcDbEntity
  8
0
  6
Continuous
 62
   174
100
AcDbCircle
 10
233.638749
 20
64.507657
 30
0.0
 40
3.0
100
AcDbArc
 50
0.0
 51
90.0
  0
LINE
  5
35D
100
AcDbEntity
  8
0
  6
Continuous
 62
   174
100
AcDbLine
 10
73.638749
 20
65.048482
 30
0.0
 11
73.638749
 21
65.634792
 31
0.0
  0
ARC
  5
35E
100
AcDbEntity
  8
0
  6
Continuous
 62
   174
100
AcDbCircle
 10
116.138749
 20
57.007657
 30
0.0
 40
2.5
100
AcDbArc
 50
-333.845653
 51
-281.536959
  0
LINE
  5
35F
100
AcDbEntity
  8
0
  6
Continuous
 62
   174
100
AcDbLine
 10
75.138749
 20
46.007657
 30
0.0
 11
75.138749
 21
49.007657
 31
0.0
  0
ARC
  5
360
100
AcDbEntity
  8
0
  6
Continuous
 62
   174
100
AcDbCircle
 10
116.138749
 20
57.007657
 30
0.0
 40
3.0
100
AcDbArc
 50
-120.0
 51
-100.437709
  0
ARC
  5
361
100
AcDbEntity
  8
0
  6
Continuous
 62
   174
100
AcDbCircle
 10
167.138749
 20
57.007657
 30
0.0
 40
5.875
100
AcDbArc
 50
217.6271
 51
250.354032
  0
LINE
  5
362
100
AcDbEntity
  8
0
  6
Continuous
 62
   174
100
AcDbLine
 10
233.638749
 20
49.507657
 30
0.0
 11
210.638749
 21
49.507657
 31
0.0
  0
LWPOLYLINE
  5
363
100
AcDbEntity
  8
0
  6
Continuous
 62
   174
100
AcDbPolyline
 90
        7
 70
   128
 10
56.831569
 20
49.258784
 10
56.465443
 20
50.56075
 10
56.237345
 20
51.837352
 10
56.160441
 20
53.088323
 10
56.237359
 20
54.339278
 10
56.46546
 20
55.615833
 10
56.831569
 20
56.917723
  0
LINE
  5
364
100
AcDbEntity
  8
0
  6
Continuous
 62
   174
100
AcDbLine
 10
238.638749
 20
47.341513
 30
0.0
 11
238.638749
 21
47.135667
 31
0.0
  0
LINE
  5
365
100
AcDbEntity
  8
0
  6
Continuous
 62
   174
100
AcDbLine
 10
196.638749
 20
54.558167
 30
0.0
 11
196.638749
 21
59.457147
 31
0.0
  0
LINE
  5
366
100
AcDbEntity
  8
0
  6
Continuous
 62
   174
100
AcDbLine
 10
210.638749
 20
67.522028
 30
0.0
 11
210.638749
 21
64.522291
 31
0.0
  0
LINE
  5
367
100
AcDbEntity
  8
0
  6
Continuous
 62
   174
100
AcDbLine
 10
73.638749
 20
66.703744
 30
0.0
 11
73.638749
 21
66.90959
 31
0.0
  0
LINE
  5
368
100
AcDbEntity
  8
0
  6
Continuous
 62
   174
100
AcDbLine
 10
252.338749
 20
49.168851
 30
0.0
 11
255.445929
 21
49.168851
 31
0.0
  0
LWPOLYLINE
  5
369
100
AcDbEntity
  8
0
  6
Continuous
 62
   174
100
AcDbPolyline
 90
        4
 70
   128
 10
255.445929
 20
57.09759
 10
255.773829
 20
56.012621
 10
256.006583
 20
54.953623
 10
256.138749
 20
53.905378
  0
LINE
  5
36A
100
AcDbEntity
  8
0
  6
Continuous
 62
   174
100
AcDbLine
 10
244.838749
 20
65.007657
 30
0.0
 11
244.838749
 21
65.622053
 31
0.0
  0
LINE
  5
36B
100
AcDbEntity
  8
0
  6
Continuous
 62
   174
100
AcDbLine
 10
238.638749
 20
47.135667
 30
0.0
 11
238.638749
 21
47.023291
 31
0.0
  0
ARC
  5
36C
100
AcDbEntity
  8
0
  6
Continuous
 62
   174
100
AcDbCircle
 10
196.138749
 20
57.007657
 30
0.0
 40
3.0
100
AcDbArc
 50
-259.562291
 51
-240.0
  0
ARC
  5
36D
100
AcDbEntity
  8
0
  6
Continuous
 62
   174
100
AcDbCircle
 10
145.138749
 20
57.007657
 30
0.0
 40
5.875
100
AcDbArc
 50
-34.613069
 51
0.0
  0
ARC
  5
36E
100
AcDbEntity
  8
0
  6
Continuous
 62
   174
100
AcDbCircle
 10
167.138749
 20
57.007657
 30
0.0
 40
5.875
100
AcDbArc
 50
109.645968
 51
142.3729
  0
LINE
  5
36F
100
AcDbEntity
  8
0
  6
Continuous
 62
   174
100
AcDbLine
 10
101.638749
 20
64.522291
 30
0.0
 11
101.638749
 21
67.522028
 31
0.0
  0
ARC
  5
370
100
AcDbEntity
  8
0
  6
Continuous
 62
   174
100
AcDbCircle
 10
196.138749
 20
57.007657
 30
0.0
 40
2.5
100
AcDbArc
 50
-153.845653
 51
-101.536959
  0
LINE
  5
371
100
AcDbEntity
  8
0
  6
Continuous
 62
   174
100
AcDbLine
 10
116.638749
 20
54.558167
 30
0.0
 11
116.638749
 21
59.457147
 31
0.0
  0
ARC
  5
372
100
AcDbEntity
  8
0
  6
Continuous
 62
   174
100
AcDbCircle
 10
145.138749
 20
57.007657
 30
0.0
 40
5.875
100
AcDbArc
 50
109.326001
 51
142.363115
  0
LINE
  5
373
100
AcDbEntity
  8
0
  6
Continuous
 62
   174
100
AcDbLine
 10
101.638749
 20
67.507657
 30
0.0
 11
78.638749
 21
67.507657
 31
0.0
  0
ARC
  5
374
100
AcDbEntity
  8
0
  6
Continuous
 62
   174
100
AcDbCircle
 10
210.638749
 20
64.507657
 30
0.0
 40
3.0
100
AcDbArc
 50
-270.0
 51
-180.0
  0
ENDBLK
  5
375
100
AcDbEntity
  8
0
100
AcDbBlockEnd
  0
BLOCK
  5
378
100
AcDbEntity
  8
0
100
AcDbBlockBegin
  2
*B3
 70
     0
 10
0.0
 20
0.0
 30
0.0
  3
*B3
  1

  0
LINE
  5
379
100
AcDbEntity
  8
0
  6
Continuous
 62
   172
100
AcDbLine
 10
89.010524
 20
119.976467
 30
0.0
 11
71.319075
 21
89.891514
 31
0.0
  0
LINE
  5
37A
100
AcDbEntity
  8
0
  6
Continuous
 62
   172
100
AcDbLine
 10
71.319075
 20
89.891514
 30
0.0
 11
62.910524
 21
89.891514
 31
0.0
  0
ENDBLK
  5
37B
100
AcDbEntity
  8
0
100
AcDbBlockEnd
  0
BLOCK
  5
37E
100
AcDbEntity
  8
0
100
AcDbBlockBegin
  2
*B4
 70
     0
 10
0.0
 20
0.0
 30
0.0
  3
*B4
  1

  0
LINE
  5
37F
100
AcDbEntity
  8
0
  6
Continuous
 62
   172
100
AcDbLine
 10
69.571919
 20
91.715072
 30
0.0
 11
67.771919
 21
92.376467
 31
0.0
  0
LINE
  5
380
100
AcDbEntity
  8
0
  6
Continuous
 62
   172
100
AcDbLine
 10
69.571919
 20
91.715072
 30
0.0
 11
67.771919
 21
91.176467
 31
0.0
  0
LINE
  5
381
100
AcDbEntity
  8
0
  6
Continuous
 62
   172
100
AcDbLine
 10
68.371919
 20
91.715072
 30
0.0
 11
69.571919
 21
91.715072
 31
0.0
  0
LINE
  5
382
100
AcDbEntity
  8
0
  6
Continuous
 62
   172
100
AcDbLine
 10
69.571919
 20
102.037862
 30
0.0
 11
67.771919
 21
101.376467
 31
0.0
  0
LINE
  5
383
100
AcDbEntity
  8
0
  6
Continuous
 62
   172
100
AcDbLine
 10
69.571919
 20
102.037862
 30
0.0
 11
67.771919
 21
102.576467
 31
0.0
  0
LINE
  5
384
100
AcDbEntity
  8
0
  6
Continuous
 62
   172
100
AcDbLine
 10
68.371919
 20
102.037862
 30
0.0
 11
69.571919
 21
102.037862
 31
0.0
  0
ARC
  5
385
100
AcDbEntity
  8
0
  6
Continuous
 62
   172
100
AcDbCircle
 10
68.371919
 20
96.876467
 30
0.0
 40
5.161395
100
AcDbArc
 50
-270.0
 51
-90.0
  0
ENDBLK
  5
386
100
AcDbEntity
  8
0
100
AcDbBlockEnd
  0
BLOCK
  5
389
100
AcDbEntity
  8
0
100
AcDbBlockBegin
  2
*B5
 70
     0
 10
0.0
 20
0.0
 30
0.0
  3
*B5
  1

  0
ENDBLK
  5
38A
100
AcDbEntity
  8
0
100
AcDbBlockEnd
  0
BLOCK
  5
38C
100
AcDbEntity
  8
0
100
AcDbBlockBegin
  2
*B6
 70
     0
 10
0.0
 20
0.0
 30
0.0
  3
*B6
  1

  0
LINE
  5
38D
100
AcDbEntity
  8
0
  6
Continuous
 62
     0
100
AcDbLine
 10
156.156932
 20
101.012406
 30
0.0
 11
178.156919
 21
101.012406
 31
0.0
  0
SOLID
  5
38E
100
AcDbEntity
  8
0
  6
Continuous
 62
     0
100
AcDbTrace
 10
159.656945
 20
101.612523
 30
0.0
 11
156.156932
 21
101.012406
 31
0.0
 12
159.656945
 22
100.412501
 32
0.0
 13
159.656945
 23
100.412501
 33
0.0
  0
SOLID
  5
38F
100
AcDbEntity
  8
0
  6
Continuous
 62
     0
100
AcDbTrace
 10
174.656907
 20
100.412501
 30
0.0
 11
178.156919
 21
101.012406
 31
0.0
 12
174.656907
 22
101.612523
 32
0.0
 13
174.656907
 23
101.612523
 33
0.0
  0
ENDBLK
  5
390
100
AcDbEntity
  8
0
100
AcDbBlockEnd
  0
BLOCK
  5
393
100
AcDbEntity
  8
0
100
AcDbBlockBegin
  2
*B7
 70
     0
 10
0.0
 20
0.0
 30
0.0
  3
*B7
  1

  0
LINE
  5
394
100
AcDbEntity
  8
0
  6
Continuous
 62
     0
100
AcDbLine
 10
134.156945
 20
101.012406
 30
0.0
 11
156.156932
 21
101.012406
 31
0.0
  0
SOLID
  5
395
100
AcDbEntity
  8
0
  6
Continuous
 62
     0
100
AcDbTrace
 10
137.656958
 20
101.612523
 30
0.0
 11
134.156945
 21
101.012406
 31
0.0
 12
137.656958
 22
100.412501
 32
0.0
 13
137.656958
 23
100.412501
 33
0.0
  0
SOLID
  5
396
100
AcDbEntity
  8
0
  6
Continuous
 62
     0
100
AcDbTrace
 10
152.65692
 20
100.412501
 30
0.0
 11
156.156932
 21
101.012406
 31
0.0
 12
152.65692
 22
101.612523
 32
0.0
 13
152.65692
 23
101.612523
 33
0.0
  0
ENDBLK
  5
397
100
AcDbEntity
  8
0
100
AcDbBlockEnd
  0
BLOCK
  5
39A
100
AcDbEntity
  8
0
100
AcDbBlockBegin
  2
*B8
 70
     0
 10
0.0
 20
0.0
 30
0.0
  3
*B8
  1

  0
LINE
  5
39B
100
AcDbEntity
  8
0
  6
Continuous
 62
     0
100
AcDbLine
 10
114.156996
 20
101.012406
 30
0.0
 11
141.15697
 21
101.012406
 31
0.0
  0
SOLID
  5
39C
100
AcDbEntity
  8
0
  6
Continuous
 62
     0
100
AcDbTrace
 10
117.656796
 20
100.412501
 30
0.0
 11
121.156808
 21
101.012406
 31
0.0
 12
117.656796
 22
101.612523
 32
0.0
 13
117.656796
 23
101.612523
 33
0.0
  0
SOLID
  5
39D
100
AcDbEntity
  8
0
  6
Continuous
 62
     0
100
AcDbTrace
 10
137.656958
 20
101.612523
 30
0.0
 11
134.156945
 21
101.012406
 31
0.0
 12
137.656958
 22
100.412501
 32
0.0
 13
137.656958
 23
100.412501
 33
0.0
  0
ENDBLK
  5
39E
100
AcDbEntity
  8
0
100
AcDbBlockEnd
  0
BLOCK
  5
3A1
100
AcDbEntity
  8
0
100
AcDbBlockBegin
  2
*B9
 70
     0
 10
0.0
 20
0.0
 30
0.0
  3
*B9
  1

  0
LINE
  5
3A2
100
AcDbEntity
  8
0
  6
Continuous
 62
     0
100
AcDbLine
 10
118.821767
 20
33.016231
 30
0.0
 11
158.031848
 21
33.016231
 31
0.0
  0
SOLID
  5
3A3
100
AcDbEntity
  8
0
  6
Continuous
 62
     0
100
AcDbTrace
 10
135.78183
 20
32.416326
 30
0.0
 11
139.281842
 21
33.016231
 31
0.0
 12
135.78183
 22
33.616349
 32
0.0
 13
135.78183
 23
33.616349
 33
0.0
  0
SOLID
  5
3A4
100
AcDbEntity
  8
0
  6
Continuous
 62
     0
100
AcDbTrace
 10
154.531835
 20
33.616349
 30
0.0
 11
151.031823
 21
33.016231
 31
0.0
 12
154.531835
 22
32.416326
 32
0.0
 13
154.531835
 23
32.416326
 33
0.0
  0
ENDBLK
  5
3A5
100
AcDbEntity
  8
0
100
AcDbBlockEnd
  0
BLOCK
  5
3A8
100
AcDbEntity
  8
0
100
AcDbBlockBegin
  2
*B10
 70
     0
 10
0.0
 20
0.0
 30
0.0
  3
*B10
  1

  0
LINE
  5
3A9
100
AcDbEntity
  8
0
  6
Continuous
 62
     0
100
AcDbLine
 10
158.01804
 20
72.271772
 30
0.0
 11
158.01804
 21
41.773485
 31
0.0
  0
SOLID
  5
3AA
100
AcDbEntity
  8
0
  6
Continuous
 62
     0
100
AcDbTrace
 10
157.418135
 20
68.771972
 30
0.0
 11
158.01804
 21
65.272172
 31
0.0
 12
158.618157
 22
68.771972
 32
0.0
 13
158.618157
 23
68.771972
 33
0.0
  0
SOLID
  5
3AB
100
AcDbEntity
  8
0
  6
Continuous
 62
     0
100
AcDbTrace
 10
158.618157
 20
45.273285
 30
0.0
 11
158.01804
 21
48.773085
 31
0.0
 12
157.418135
 22
45.273285
 32
0.0
 13
157.418135
 23
45.273285
 33
0.0
  0
ENDBLK
  5
3AC
100
AcDbEntity
  8
0
100
AcDbBlockEnd
  0
BLOCK
  5
3AF
100
AcDbEntity
  8
0
100
AcDbBlockBegin
  2
*B11
 70
     0
 10
0.0
 20
0.0
 30
0.0
  3
*B11
  1

  0
LINE
  5
3B0
100
AcDbEntity
  8
0
  6
Continuous
 62
     0
100
AcDbLine
 10
177.156794
 20
78.013781
 30
0.0
 11
198.156868
 21
78.013781
 31
0.0
  0
SOLID
  5
3B1
100
AcDbEntity
  8
0
  6
Continuous
 62
     0
100
AcDbTrace
 10
180.656806
 20
77.413876
 30
0.0
 11
184.156819
 21
78.013781
 31
0.0
 12
180.656806
 22
78.613686
 32
0.0
 13
180.656806
 23
78.613686
 33
0.0
  0
SOLID
  5
3B2
100
AcDbEntity
  8
0
  6
Continuous
 62
     0
100
AcDbTrace
 10
194.656856
 20
78.613686
 30
0.0
 11
191.156844
 21
78.013781
 31
0.0
 12
194.656856
 22
77.413876
 32
0.0
 13
194.656856
 23
77.413876
 33
0.0
  0
ENDBLK
  5
3B3
100
AcDbEntity
  8
0
100
AcDbBlockEnd
  0
BLOCK
  5
3B6
100
AcDbEntity
  8
0
100
AcDbBlockBegin
  2
*B12
 70
     0
 10
0.0
 20
0.0
 30
0.0
  3
*B12
  1

  0
LINE
  5
3B7
100
AcDbEntity
  8
0
  6
Continuous
 62
     0
100
AcDbLine
 10
184.156819
 20
78.013781
 30
0.0
 11
128.156833
 21
78.013781
 31
0.0
  0
SOLID
  5
3B8
100
AcDbEntity
  8
0
  6
Continuous
 62
     0
100
AcDbTrace
 10
180.656806
 20
77.413876
 30
0.0
 11
184.156819
 21
78.013781
 31
0.0
 12
180.656806
 22
78.613686
 32
0.0
 13
180.656806
 23
78.613686
 33
0.0
  0
SOLID
  5
3B9
100
AcDbEntity
  8
0
  6
Continuous
 62
     0
100
AcDbTrace
 10
131.656845
 20
78.613686
 30
0.0
 11
128.156833
 21
78.013781
 31
0.0
 12
131.656845
 22
77.413876
 32
0.0
 13
131.656845
 23
77.413876
 33
0.0
  0
ENDBLK
  5
3BA
100
AcDbEntity
  8
0
100
AcDbBlockEnd
  0
BLOCK
  5
3BD
100
AcDbEntity
  8
0
100
AcDbBlockBegin
  2
*B13
 70
     0
 10
0.0
 20
0.0
 30
0.0
  3
*B13
  1

  0
LINE
  5
3BE
100
AcDbEntity
  8
0
  6
Continuous
 62
     0
100
AcDbLine
 10
114.156996
 20
78.013781
 30
0.0
 11
135.156858
 21
78.013781
 31
0.0
  0
SOLID
  5
3BF
100
AcDbEntity
  8
0
  6
Continuous
 62
     0
100
AcDbTrace
 10
117.656796
 20
77.413876
 30
0.0
 11
121.156808
 21
78.013781
 31
0.0
 12
117.656796
 22
78.613686
 32
0.0
 13
117.656796
 23
78.613686
 33
0.0
  0
SOLID
  5
3C0
100
AcDbEntity
  8
0
  6
Continuous
 62
     0
100
AcDbTrace
 10
131.656845
 20
78.613686
 30
0.0
 11
128.156833
 21
78.013781
 31
0.0
 12
131.656845
 22
77.413876
 32
0.0
 13
131.656845
 23
77.413876
 33
0.0
  0
ENDBLK
  5
3C1
100
AcDbEntity
  8
0
100
AcDbBlockEnd
  0
BLOCK
  5
3C4
100
AcDbEntity
  8
0
100
AcDbBlockBegin
  2
*B14
 70
     0
 10
0.0
 20
0.0
 30
0.0
  3
*B14
  1

  0
LINE
  5
3C5
100
AcDbEntity
  8
0
  6
Continuous
 62
     0
100
AcDbLine
 10
192.806795
 20
33.016231
 30
0.0
 11
165.221786
 21
33.016231
 31
0.0
  0
SOLID
  5
3C6
100
AcDbEntity
  8
0
  6
Continuous
 62
     0
100
AcDbTrace
 10
189.306782
 20
33.616349
 30
0.0
 11
185.80677
 21
33.016231
 31
0.0
 12
189.306782
 22
32.416326
 32
0.0
 13
189.306782
 23
32.416326
 33
0.0
  0
SOLID
  5
3C7
100
AcDbEntity
  8
0
  6
Continuous
 62
     0
100
AcDbTrace
 10
179.006855
 20
32.416326
 30
0.0
 11
182.506868
 21
33.016231
 31
0.0
 12
179.006855
 22
33.616349
 32
0.0
 13
179.006855
 23
33.616349
 33
0.0
  0
ENDBLK
  5
3C8
100
AcDbEntity
  8
0
100
AcDbBlockEnd
  0
BLOCK
  5
3CB
100
AcDbEntity
  8
0
100
AcDbBlockBegin
  2
*B15
 70
     0
 10
0.0
 20
0.0
 30
0.0
  3
*B15
  1

  0
LINE
  5
3CC
100
AcDbEntity
  8
0
  6
Continuous
 62
     0
100
AcDbLine
 10
256.156892
 20
182.007867
 30
0.0
 11
207.156931
 21
182.007867
 31
0.0
  0
SOLID
  5
3CD
100
AcDbEntity
  8
0
  6
Continuous
 62
     0
100
AcDbTrace
 10
252.656879
 20
181.407962
 30
0.0
 11
256.156892
 21
182.007867
 31
0.0
 12
252.656879
 22
182.607985
 32
0.0
 13
252.656879
 23
182.607985
 33
0.0
  0
SOLID
  5
3CE
100
AcDbEntity
  8
0
  6
Continuous
 62
     0
100
AcDbTrace
 10
210.656943
 20
182.607985
 30
0.0
 11
207.156931
 21
182.007867
 31
0.0
 12
210.656943
 22
181.407962
 32
0.0
 13
210.656943
 23
181.407962
 33
0.0
  0
ENDBLK
  5
3CF
100
AcDbEntity
  8
0
100
AcDbBlockEnd
  0
BLOCK
  5
3D2
100
AcDbEntity
  8
0
100
AcDbBlockBegin
  2
*B16
 70
     0
 10
0.0
 20
0.0
 30
0.0
  3
*B16
  1

  0
LINE
  5
3D3
100
AcDbEntity
  8
0
  6
Continuous
 62
     0
100
AcDbLine
 10
56.156972
 20
181.007955
 30
0.0
 11
105.156934
 21
181.007955
 31
0.0
  0
SOLID
  5
3D4
100
AcDbEntity
  8
0
  6
Continuous
 62
     0
100
AcDbTrace
 10
59.656985
 20
181.60786
 30
0.0
 11
56.156972
 21
181.007955
 31
0.0
 12
59.656985
 22
180.40805
 32
0.0
 13
59.656985
 23
180.40805
 33
0.0
  0
SOLID
  5
3D5
100
AcDbEntity
  8
0
  6
Continuous
 62
     0
100
AcDbTrace
 10
101.656921
 20
180.40805
 30
0.0
 11
105.156934
 21
181.007955
 31
0.0
 12
101.656921
 22
181.60786
 32
0.0
 13
101.656921
 23
181.60786
 33
0.0
  0
ENDBLK
  5
3D6
100
AcDbEntity
  8
0
100
AcDbBlockEnd
  0
BLOCK
  5
3D9
100
AcDbEntity
  8
0
100
AcDbBlockBegin
  2
*B17
 70
     0
 10
0.0
 20
0.0
 30
0.0
  3
*B17
  1

  0
LINE
  5
3DA
100
AcDbEntity
  8
0
  6
Continuous
 62
     0
100
AcDbLine
 10
267.018062
 20
171.691583
 30
0.0
 11
267.018062
 21
112.695258
 31
0.0
  0
SOLID
  5
3DB
100
AcDbEntity
  8
0
  6
Continuous
 62
     0
100
AcDbTrace
 10
267.618179
 20
168.191783
 30
0.0
 11
267.018062
 21
171.691583
 31
0.0
 12
266.418157
 22
168.191783
 32
0.0
 13
266.418157
 23
168.191783
 33
0.0
  0
SOLID
  5
3DC
100
AcDbEntity
  8
0
  6
Continuous
 62
     0
100
AcDbTrace
 10
266.418157
 20
116.195058
 30
0.0
 11
267.018062
 21
112.695258
 31
0.0
 12
267.618179
 22
116.195058
 32
0.0
 13
267.618179
 23
116.195058
 33
0.0
  0
ENDBLK
  5
3DD
100
AcDbEntity
  8
0
100
AcDbBlockEnd
  0
BLOCK
  5
3E0
100
AcDbEntity
  8
0
100
AcDbBlockBegin
  2
*B18
 70
     0
 10
0.0
 20
0.0
 30
0.0
  3
*B18
  1

  0
LINE
  5
3E1
100
AcDbEntity
  8
0
  6
Continuous
 62
     0
100
AcDbLine
 10
256.018174
 20
144.693521
 30
0.0
 11
256.018174
 21
112.695258
 31
0.0
  0
SOLID
  5
3E2
100
AcDbEntity
  8
0
  6
Continuous
 62
     0
100
AcDbTrace
 10
256.618079
 20
141.193721
 30
0.0
 11
256.018174
 21
144.693521
 31
0.0
 12
255.418057
 22
141.193721
 32
0.0
 13
255.418057
 23
141.193721
 33
0.0
  0
SOLID
  5
3E3
100
AcDbEntity
  8
0
  6
Continuous
 62
     0
100
AcDbTrace
 10
255.418057
 20
116.195058
 30
0.0
 11
256.018174
 21
112.695258
 31
0.0
 12
256.618079
 22
116.195058
 32
0.0
 13
256.618079
 23
116.195058
 33
0.0
  0
ENDBLK
  5
3E4
100
AcDbEntity
  8
0
100
AcDbBlockEnd
  0
BLOCK
  5
3E7
100
AcDbEntity
  8
0
100
AcDbBlockBegin
  2
*B19
 70
     0
 10
0.0
 20
0.0
 30
0.0
  3
*B19
  1

  0
LINE
  5
3E8
100
AcDbEntity
  8
0
  6
Continuous
 62
     0
100
AcDbLine
 10
191.156844
 20
166.008842
 30
0.0
 11
167.156819
 21
166.008842
 31
0.0
  0
SOLID
  5
3E9
100
AcDbEntity
  8
0
  6
Continuous
 62
     0
100
AcDbTrace
 10
187.656831
 20
165.408937
 30
0.0
 11
191.156844
 21
166.008842
 31
0.0
 12
187.656831
 22
166.608747
 32
0.0
 13
187.656831
 23
166.608747
 33
0.0
  0
SOLID
  5
3EA
100
AcDbEntity
  8
0
  6
Continuous
 62
     0
100
AcDbTrace
 10
170.656832
 20
166.608747
 30
0.0
 11
167.156819
 21
166.008842
 31
0.0
 12
170.656832
 22
165.408937
 32
0.0
 13
170.656832
 23
165.408937
 33
0.0
  0
ENDBLK
  5
3EB
100
AcDbEntity
  8
0
100
AcDbBlockEnd
  0
BLOCK
  5
3EE
100
AcDbEntity
  8
0
100
AcDbBlockBegin
  2
*B20
 70
     0
 10
0.0
 20
0.0
 30
0.0
  3
*B20
  1

  0
LINE
  5
3EF
100
AcDbEntity
  8
0
  6
Continuous
 62
     0
100
AcDbLine
 10
267.018062
 20
46.023166
 30
0.0
 11
267.018062
 21
68.022091
 31
0.0
  0
SOLID
  5
3F0
100
AcDbEntity
  8
0
  6
Continuous
 62
     0
100
AcDbTrace
 10
266.418157
 20
49.522966
 30
0.0
 11
267.018062
 21
46.023166
 31
0.0
 12
267.618179
 22
49.522966
 32
0.0
 13
267.618179
 23
49.522966
 33
0.0
  0
SOLID
  5
3F1
100
AcDbEntity
  8
0
  6
Continuous
 62
     0
100
AcDbTrace
 10
267.618179
 20
64.522291
 30
0.0
 11
267.018062
 21
68.022091
 31
0.0
 12
266.418157
 22
64.522291
 32
0.0
 13
266.418157
 23
64.522291
 33
0.0
  0
ENDBLK
  5
3F2
100
AcDbEntity
  8
0
100
AcDbBlockEnd
  0
BLOCK
  5
3F5
100
AcDbEntity
  8
0
100
AcDbBlockBegin
  2
*B21
 70
     0
 10
0.0
 20
0.0
 30
0.0
  3
*B21
  1

  0
LINE
  5
3F6
100
AcDbEntity
  8
0
  6
Continuous
 62
     0
100
AcDbLine
 10
198.156868
 20
101.012406
 30
0.0
 11
171.156894
 21
101.012406
 31
0.0
  0
SOLID
  5
3F7
100
AcDbEntity
  8
0
  6
Continuous
 62
     0
100
AcDbTrace
 10
194.656856
 20
101.612523
 30
0.0
 11
191.156844
 21
101.012406
 31
0.0
 12
194.656856
 22
100.412501
 32
0.0
 13
194.656856
 23
100.412501
 33
0.0
  0
SOLID
  5
3F8
100
AcDbEntity
  8
0
  6
Continuous
 62
     0
100
AcDbTrace
 10
174.656907
 20
100.412501
 30
0.0
 11
178.156919
 21
101.012406
 31
0.0
 12
174.656907
 22
101.612523
 32
0.0
 13
174.656907
 23
101.612523
 33
0.0
  0
ENDBLK
  5
3F9
100
AcDbEntity
  8
0
100
AcDbBlockEnd
  0
BLOCK
  5
3FC
100
AcDbEntity
  8
0
100
AcDbBlockBegin
  2
*B22
 70
     0
 10
0.0
 20
0.0
 30
0.0
  3
*B22
  1

  0
LINE
  5
3FD
100
AcDbEntity
  8
0
  6
Continuous
 62
     0
100
AcDbLine
 10
207.156931
 20
89.013243
 30
0.0
 11
105.156934
 21
89.013243
 31
0.0
  0
SOLID
  5
3FE
100
AcDbEntity
  8
0
  6
Continuous
 62
     0
100
AcDbTrace
 10
203.656918
 20
88.413126
 30
0.0
 11
207.156931
 21
89.013243
 31
0.0
 12
203.656918
 22
89.613148
 32
0.0
 13
203.656918
 23
89.613148
 33
0.0
  0
SOLID
  5
3FF
100
AcDbEntity
  8
0
  6
Continuous
 62
     0
100
AcDbTrace
 10
108.656946
 20
89.613148
 30
0.0
 11
105.156934
 21
89.013243
 31
0.0
 12
108.656946
 22
88.413126
 32
0.0
 13
108.656946
 23
88.413126
 33
0.0
  0
ENDBLK
  5
400
100
AcDbEntity
  8
0
100
AcDbBlockEnd
  0
BLOCK
  5
403
100
AcDbEntity
  8
0
100
AcDbBlockBegin
  2
*B23
 70
     0
 10
0.0
 20
0.0
 30
0.0
  3
*B23
  1

  0
LINE
  5
404
100
AcDbEntity
  8
0
  6
Continuous
 62
     0
100
AcDbLine
 10
139.926995
 20
156.009293
 30
0.0
 11
166.656969
 21
156.009293
 31
0.0
  0
SOLID
  5
405
100
AcDbEntity
  8
0
  6
Continuous
 62
     0
100
AcDbTrace
 10
149.156907
 20
155.409388
 30
0.0
 11
152.65692
 21
156.009293
 31
0.0
 12
149.156907
 22
156.60941
 32
0.0
 13
149.156907
 23
156.60941
 33
0.0
  0
SOLID
  5
406
100
AcDbEntity
  8
0
  6
Continuous
 62
     0
100
AcDbTrace
 10
163.156957
 20
156.60941
 30
0.0
 11
159.656945
 21
156.009293
 31
0.0
 12
163.156957
 22
155.409388
 32
0.0
 13
163.156957
 23
155.409388
 33
0.0
  0
ENDBLK
  5
407
100
AcDbEntity
  8
0
100
AcDbBlockEnd
  0
BLOCK
  5
40A
100
AcDbEntity
  8
0
100
AcDbBlockBegin
  2
*B24
 70
     0
 10
0.0
 20
0.0
 30
0.0
  3
*B24
  1

  0
LINE
  5
40B
100
AcDbEntity
  8
0
  6
Continuous
 62
     0
100
AcDbLine
 10
167.156819
 20
166.008842
 30
0.0
 11
145.156832
 21
166.008842
 31
0.0
  0
SOLID
  5
40C
100
AcDbEntity
  8
0
  6
Continuous
 62
     0
100
AcDbTrace
 10
163.656807
 20
165.408937
 30
0.0
 11
167.156819
 21
166.008842
 31
0.0
 12
163.656807
 22
166.608747
 32
0.0
 13
163.656807
 23
166.608747
 33
0.0
  0
SOLID
  5
40D
100
AcDbEntity
  8
0
  6
Continuous
 62
     0
100
AcDbTrace
 10
148.656845
 20
166.608747
 30
0.0
 11
145.156832
 21
166.008842
 31
0.0
 12
148.656845
 22
165.408937
 32
0.0
 13
148.656845
 23
165.408937
 33
0.0
  0
ENDBLK
  5
40E
100
AcDbEntity
  8
0
100
AcDbBlockEnd
  0
BLOCK
  5
411
100
AcDbEntity
  8
0
100
AcDbBlockBegin
  2
*B25
 70
     0
 10
0.0
 20
0.0
 30
0.0
  3
*B25
  1

  0
LINE
  5
412
100
AcDbEntity
  8
0
  6
Continuous
 62
     8
100
AcDbLine
 10
145.156832
 20
48.148113
 30
0.0
 11
145.156832
 21
55.522654
 31
0.0
  0
LINE
  5
413
100
AcDbEntity
  8
0
  6
Continuous
 62
     8
100
AcDbLine
 10
145.156832
 20
58.522604
 30
0.0
 11
145.156832
 21
65.897144
 31
0.0
  0
ENDBLK
  5
414
100
AcDbEntity
  8
0
100
AcDbBlockEnd
  0
BLOCK
  5
417
100
AcDbEntity
  8
0
100
AcDbBlockBegin
  2
*B26
 70
     0
 10
0.0
 20
0.0
 30
0.0
  3
*B26
  1

  0
LINE
  5
418
100
AcDbEntity
  8
0
  6
Continuous
 62
     8
100
AcDbLine
 10
145.156832
 20
164.009017
 30
0.0
 11
145.156832
 21
168.008667
 31
0.0
  0
LINE
  5
419
100
AcDbEntity
  8
0
  6
Continuous
 62
     8
100
AcDbLine
 10
145.156832
 20
129.694408
 30
0.0
 11
145.156832
 21
136.023151
 31
0.0
  0
LINE
  5
41A
100
AcDbEntity
  8
0
  6
Continuous
 62
     8
100
AcDbLine
 10
145.156832
 20
137.023064
 30
0.0
 11
145.156832
 21
138.022976
 31
0.0
  0
LINE
  5
41B
100
AcDbEntity
  8
0
  6
Continuous
 62
     8
100
AcDbLine
 10
145.156832
 20
139.022889
 30
0.0
 11
145.156832
 21
145.351632
 31
0.0
  0
LINE
  5
41C
100
AcDbEntity
  8
0
  6
Continuous
 62
     8
100
AcDbLine
 10
145.156832
 20
146.351757
 30
0.0
 11
145.156832
 21
147.351669
 31
0.0
  0
LINE
  5
41D
100
AcDbEntity
  8
0
  6
Continuous
 62
     8
100
AcDbLine
 10
145.156832
 20
148.351582
 30
0.0
 11
145.156832
 21
154.680325
 31
0.0
  0
LINE
  5
41E
100
AcDbEntity
  8
0
  6
Continuous
 62
     8
100
AcDbLine
 10
145.156832
 20
155.680237
 30
0.0
 11
145.156832
 21
156.68015
 31
0.0
  0
LINE
  5
41F
100
AcDbEntity
  8
0
  6
Continuous
 62
     8
100
AcDbLine
 10
145.156832
 20
157.680274
 30
0.0
 11
145.156832
 21
164.009017
 31
0.0
  0
ENDBLK
  5
420
100
AcDbEntity
  8
0
100
AcDbBlockEnd
  0
BLOCK
  5
423
100
AcDbEntity
  8
0
100
AcDbBlockBegin
  2
*B27
 70
     0
 10
0.0
 20
0.0
 30
0.0
  3
*B27
  1

  0
LINE
  5
424
100
AcDbEntity
  8
0
  6
Continuous
 62
     8
100
AcDbLine
 10
256.156892
 20
171.491261
 30
0.0
 11
256.156892
 21
184.007905
 31
0.0
  0
ENDBLK
  5
425
100
AcDbEntity
  8
0
100
AcDbBlockEnd
  0
BLOCK
  5
428
100
AcDbEntity
  8
0
100
AcDbBlockBegin
  2
*B28
 70
     0
 10
0.0
 20
0.0
 30
0.0
  3
*B28
  1

  0
LINE
  5
429
100
AcDbEntity
  8
0
  6
Continuous
 62
     8
100
AcDbLine
 10
156.018215
 20
65.272172
 30
0.0
 11
160.018077
 21
65.272172
 31
0.0
  0
LINE
  5
42A
100
AcDbEntity
  8
0
  6
Continuous
 62
     8
100
AcDbLine
 10
121.856981
 20
65.272172
 30
0.0
 11
126.656858
 21
65.272172
 31
0.0
  0
LINE
  5
42B
100
AcDbEntity
  8
0
  6
Continuous
 62
     8
100
AcDbLine
 10
129.656808
 20
65.272172
 30
0.0
 11
136.443977
 21
65.272172
 31
0.0
  0
LINE
  5
42C
100
AcDbEntity
  8
0
  6
Continuous
 62
     8
100
AcDbLine
 10
137.443889
 20
65.272172
 30
0.0
 11
138.444014
 21
65.272172
 31
0.0
  0
LINE
  5
42D
100
AcDbEntity
  8
0
  6
Continuous
 62
     8
100
AcDbLine
 10
139.443927
 20
65.272172
 30
0.0
 11
146.231096
 21
65.272172
 31
0.0
  0
LINE
  5
42E
100
AcDbEntity
  8
0
  6
Continuous
 62
     8
100
AcDbLine
 10
147.231008
 20
65.272172
 30
0.0
 11
148.231133
 21
65.272172
 31
0.0
  0
LINE
  5
42F
100
AcDbEntity
  8
0
  6
Continuous
 62
     8
100
AcDbLine
 10
149.231046
 20
65.272172
 30
0.0
 11
156.018215
 21
65.272172
 31
0.0
  0
ENDBLK
  5
430
100
AcDbEntity
  8
0
100
AcDbBlockEnd
  0
BLOCK
  5
433
100
AcDbEntity
  8
0
100
AcDbBlockBegin
  2
*B29
 70
     0
 10
0.0
 20
0.0
 30
0.0
  3
*B29
  1

  0
LINE
  5
434
100
AcDbEntity
  8
0
  6
Continuous
 62
     8
100
AcDbLine
 10
134.156945
 20
99.012581
 30
0.0
 11
134.156945
 21
103.012443
 31
0.0
  0
LINE
  5
435
100
AcDbEntity
  8
0
  6
Continuous
 62
     8
100
AcDbLine
 10
134.156945
 20
103.012443
 30
0.0
 11
134.156945
 21
108.603838
 31
0.0
  0
LINE
  5
436
100
AcDbEntity
  8
0
  6
Continuous
 62
     8
100
AcDbLine
 10
134.156945
 20
109.603751
 30
0.0
 11
134.156945
 21
110.603663
 31
0.0
  0
LINE
  5
437
100
AcDbEntity
  8
0
  6
Continuous
 62
     8
100
AcDbLine
 10
134.156945
 20
111.603576
 30
0.0
 11
134.156945
 21
117.195183
 31
0.0
  0
ENDBLK
  5
438
100
AcDbEntity
  8
0
100
AcDbBlockEnd
  0
BLOCK
  5
43B
100
AcDbEntity
  8
0
100
AcDbBlockBegin
  2
*B30
 70
     0
 10
0.0
 20
0.0
 30
0.0
  3
*B30
  1

  0
LINE
  5
43C
100
AcDbEntity
  8
0
  6
Continuous
 62
     8
100
AcDbLine
 10
184.156819
 20
76.013956
 30
0.0
 11
184.156819
 21
80.013606
 31
0.0
  0
LINE
  5
43D
100
AcDbEntity
  8
0
  6
Continuous
 62
     8
100
AcDbLine
 10
184.156819
 20
42.473445
 30
0.0
 11
184.156819
 21
47.27311
 31
0.0
  0
LINE
  5
43E
100
AcDbEntity
  8
0
  6
Continuous
 62
     8
100
AcDbLine
 10
184.156819
 20
50.27306
 30
0.0
 11
184.156819
 21
56.853321
 31
0.0
  0
LINE
  5
43F
100
AcDbEntity
  8
0
  6
Continuous
 62
     8
100
AcDbLine
 10
184.156819
 20
57.853446
 30
0.0
 11
184.156819
 21
58.853359
 31
0.0
  0
LINE
  5
440
100
AcDbEntity
  8
0
  6
Continuous
 62
     8
100
AcDbLine
 10
184.156819
 20
59.853271
 30
0.0
 11
184.156819
 21
66.433745
 31
0.0
  0
LINE
  5
441
100
AcDbEntity
  8
0
  6
Continuous
 62
     8
100
AcDbLine
 10
184.156819
 20
67.433657
 30
0.0
 11
184.156819
 21
68.43357
 31
0.0
  0
LINE
  5
442
100
AcDbEntity
  8
0
  6
Continuous
 62
     8
100
AcDbLine
 10
184.156819
 20
69.433482
 30
0.0
 11
184.156819
 21
76.013956
 31
0.0
  0
ENDBLK
  5
443
100
AcDbEntity
  8
0
100
AcDbBlockEnd
  0
BLOCK
  5
446
100
AcDbEntity
  8
0
100
AcDbBlockBegin
  2
*B31
 70
     0
 10
0.0
 20
0.0
 30
0.0
  3
*B31
  1

  0
LINE
  5
447
100
AcDbEntity
  8
0
  6
Continuous
 62
     8
100
AcDbLine
 10
151.031823
 20
31.016406
 30
0.0
 11
151.031823
 21
56.022716
 31
0.0
  0
ENDBLK
  5
448
100
AcDbEntity
  8
0
100
AcDbBlockEnd
  0
BLOCK
  5
44B
100
AcDbEntity
  8
0
100
AcDbBlockBegin
  2
*B32
 70
     0
 10
0.0
 20
0.0
 30
0.0
  3
*B32
  1

  0
LINE
  5
44C
100
AcDbEntity
  8
0
  6
Continuous
 62
     8
100
AcDbLine
 10
152.65692
 20
122.694808
 30
0.0
 11
152.65692
 21
158.00933
 31
0.0
  0
ENDBLK
  5
44D
100
AcDbEntity
  8
0
100
AcDbBlockEnd
  0
BLOCK
  5
450
100
AcDbEntity
  8
0
100
AcDbBlockBegin
  2
*B33
 70
     0
 10
0.0
 20
0.0
 30
0.0
  3
*B33
  1

  0
LINE
  5
451
100
AcDbEntity
  8
0
  6
Continuous
 62
     8
100
AcDbLine
 10
238.156767
 20
68.022091
 30
0.0
 11
269.018099
 21
68.022091
 31
0.0
  0
ENDBLK
  5
452
100
AcDbEntity
  8
0
100
AcDbBlockEnd
  0
BLOCK
  5
455
100
AcDbEntity
  8
0
100
AcDbBlockBegin
  2
*B34
 70
     0
 10
0.0
 20
0.0
 30
0.0
  3
*B34
  1

  0
LINE
  5
456
100
AcDbEntity
  8
0
  6
Continuous
 62
     8
100
AcDbLine
 10
121.156808
 20
69.022003
 30
0.0
 11
121.156808
 21
80.013606
 31
0.0
  0
ENDBLK
  5
457
100
AcDbEntity
  8
0
100
AcDbBlockEnd
  0
BLOCK
  5
45A
100
AcDbEntity
  8
0
100
AcDbBlockBegin
  2
*B35
 70
     0
 10
0.0
 20
0.0
 30
0.0
  3
*B35
  1

  0
LINE
  5
45B
100
AcDbEntity
  8
0
  6
Continuous
 62
     8
100
AcDbLine
 10
121.156808
 20
99.012581
 30
0.0
 11
121.156808
 21
112.695258
 31
0.0
  0
ENDBLK
  5
45C
100
AcDbEntity
  8
0
100
AcDbBlockEnd
  0
BLOCK
  5
45F
100
AcDbEntity
  8
0
100
AcDbBlockBegin
  2
*B36
 70
     0
 10
0.0
 20
0.0
 30
0.0
  3
*B36
  1

  0
LINE
  5
460
100
AcDbEntity
  8
0
  6
Continuous
 62
     8
100
AcDbLine
 10
222.156893
 20
50.622934
 30
0.0
 11
222.156893
 21
55.522654
 31
0.0
  0
LINE
  5
461
100
AcDbEntity
  8
0
  6
Continuous
 62
     8
100
AcDbLine
 10
222.156893
 20
58.522604
 30
0.0
 11
222.156893
 21
63.422323
 31
0.0
  0
ENDBLK
  5
462
100
AcDbEntity
  8
0
100
AcDbBlockEnd
  0
BLOCK
  5
465
100
AcDbEntity
  8
0
100
AcDbBlockBegin
  2
*B37
 70
     0
 10
0.0
 20
0.0
 30
0.0
  3
*B37
  1

  0
LINE
  5
466
100
AcDbEntity
  8
0
  6
Continuous
 62
     8
100
AcDbLine
 10
57.656947
 20
57.022629
 30
0.0
 11
63.156997
 21
57.022629
 31
0.0
  0
LINE
  5
467
100
AcDbEntity
  8
0
  6
Continuous
 62
     8
100
AcDbLine
 10
64.15691
 20
57.022629
 30
0.0
 11
65.156822
 21
57.022629
 31
0.0
  0
LINE
  5
468
100
AcDbEntity
  8
0
  6
Continuous
 62
     8
100
AcDbLine
 10
66.156947
 20
57.022629
 30
0.0
 11
71.656997
 21
57.022629
 31
0.0
  0
LINE
  5
469
100
AcDbEntity
  8
0
  6
Continuous
 62
     8
100
AcDbLine
 10
72.656909
 20
57.022629
 30
0.0
 11
73.656822
 21
57.022629
 31
0.0
  0
LINE
  5
46A
100
AcDbEntity
  8
0
  6
Continuous
 62
     8
100
AcDbLine
 10
74.656947
 20
57.022629
 30
0.0
 11
80.156997
 21
57.022629
 31
0.0
  0
LINE
  5
46B
100
AcDbEntity
  8
0
  6
Continuous
 62
     8
100
AcDbLine
 10
81.156909
 20
57.022629
 30
0.0
 11
82.156822
 21
57.022629
 31
0.0
  0
LINE
  5
46C
100
AcDbEntity
  8
0
  6
Continuous
 62
     8
100
AcDbLine
 10
83.156947
 20
57.022629
 30
0.0
 11
88.656996
 21
57.022629
 31
0.0
  0
LINE
  5
46D
100
AcDbEntity
  8
0
  6
Continuous
 62
     8
100
AcDbLine
 10
91.656946
 20
57.022629
 30
0.0
 11
97.323542
 21
57.022629
 31
0.0
  0
LINE
  5
46E
100
AcDbEntity
  8
0
  6
Continuous
 62
     8
100
AcDbLine
 10
98.323667
 20
57.022629
 30
0.0
 11
99.32358
 21
57.022629
 31
0.0
  0
LINE
  5
46F
100
AcDbEntity
  8
0
  6
Continuous
 62
     8
100
AcDbLine
 10
100.323492
 20
57.022629
 30
0.0
 11
105.9903
 21
57.022629
 31
0.0
  0
LINE
  5
470
100
AcDbEntity
  8
0
  6
Continuous
 62
     8
100
AcDbLine
 10
106.990213
 20
57.022629
 30
0.0
 11
107.990125
 21
57.022629
 31
0.0
  0
LINE
  5
471
100
AcDbEntity
  8
0
  6
Continuous
 62
     8
100
AcDbLine
 10
108.99025
 20
57.022629
 30
0.0
 11
114.656846
 21
57.022629
 31
0.0
  0
LINE
  5
472
100
AcDbEntity
  8
0
  6
Continuous
 62
     8
100
AcDbLine
 10
117.656796
 20
57.022629
 30
0.0
 11
124.323516
 21
57.022629
 31
0.0
  0
LINE
  5
473
100
AcDbEntity
  8
0
  6
Continuous
 62
     8
100
AcDbLine
 10
125.323641
 20
57.022629
 30
0.0
 11
126.323554
 21
57.022629
 31
0.0
  0
LINE
  5
474
100
AcDbEntity
  8
0
  6
Continuous
 62
     8
100
AcDbLine
 10
127.323466
 20
57.022629
 30
0.0
 11
133.990187
 21
57.022629
 31
0.0
  0
LINE
  5
475
100
AcDbEntity
  8
0
  6
Continuous
 62
     8
100
AcDbLine
 10
134.990312
 20
57.022629
 30
0.0
 11
135.990224
 21
57.022629
 31
0.0
  0
LINE
  5
476
100
AcDbEntity
  8
0
  6
Continuous
 62
     8
100
AcDbLine
 10
136.990137
 20
57.022629
 30
0.0
 11
143.656857
 21
57.022629
 31
0.0
  0
LINE
  5
477
100
AcDbEntity
  8
0
  6
Continuous
 62
     8
100
AcDbLine
 10
146.656807
 20
57.022629
 30
0.0
 11
154.656957
 21
57.022629
 31
0.0
  0
LINE
  5
478
100
AcDbEntity
  8
0
  6
Continuous
 62
     8
100
AcDbLine
 10
155.65687
 20
57.022629
 30
0.0
 11
156.656782
 21
57.022629
 31
0.0
  0
LINE
  5
479
100
AcDbEntity
  8
0
  6
Continuous
 62
     8
100
AcDbLine
 10
157.656907
 20
57.022629
 30
0.0
 11
165.656844
 21
57.022629
 31
0.0
  0
LINE
  5
47A
100
AcDbEntity
  8
0
  6
Continuous
 62
     8
100
AcDbLine
 10
168.656794
 20
57.022629
 30
0.0
 11
175.323515
 21
57.022629
 31
0.0
  0
LINE
  5
47B
100
AcDbEntity
  8
0
  6
Continuous
 62
     8
100
AcDbLine
 10
176.323427
 20
57.022629
 30
0.0
 11
177.323552
 21
57.022629
 31
0.0
  0
LINE
  5
47C
100
AcDbEntity
  8
0
  6
Continuous
 62
     8
100
AcDbLine
 10
178.323465
 20
57.022629
 30
0.0
 11
184.990185
 21
57.022629
 31
0.0
  0
LINE
  5
47D
100
AcDbEntity
  8
0
  6
Continuous
 62
     8
100
AcDbLine
 10
185.990098
 20
57.022629
 30
0.0
 11
186.990223
 21
57.022629
 31
0.0
  0
LINE
  5
47E
100
AcDbEntity
  8
0
  6
Continuous
 62
     8
100
AcDbLine
 10
187.990135
 20
57.022629
 30
0.0
 11
194.656856
 21
57.022629
 31
0.0
  0
LINE
  5
47F
100
AcDbEntity
  8
0
  6
Continuous
 62
     8
100
AcDbLine
 10
197.656806
 20
57.022629
 30
0.0
 11
203.323614
 21
57.022629
 31
0.0
  0
LINE
  5
480
100
AcDbEntity
  8
0
  6
Continuous
 62
     8
100
AcDbLine
 10
204.323527
 20
57.022629
 30
0.0
 11
205.323439
 21
57.022629
 31
0.0
  0
LINE
  5
481
100
AcDbEntity
  8
0
  6
Continuous
 62
     8
100
AcDbLine
 10
206.323564
 20
57.022629
 30
0.0
 11
211.99016
 21
57.022629
 31
0.0
  0
LINE
  5
482
100
AcDbEntity
  8
0
  6
Continuous
 62
     8
100
AcDbLine
 10
212.990072
 20
57.022629
 30
0.0
 11
213.990197
 21
57.022629
 31
0.0
  0
LINE
  5
483
100
AcDbEntity
  8
0
  6
Continuous
 62
     8
100
AcDbLine
 10
214.99011
 20
57.022629
 30
0.0
 11
220.656918
 21
57.022629
 31
0.0
  0
LINE
  5
484
100
AcDbEntity
  8
0
  6
Continuous
 62
     8
100
AcDbLine
 10
223.656868
 20
57.022629
 30
0.0
 11
229.156918
 21
57.022629
 31
0.0
  0
LINE
  5
485
100
AcDbEntity
  8
0
  6
Continuous
 62
     8
100
AcDbLine
 10
230.15683
 20
57.022629
 30
0.0
 11
231.156743
 21
57.022629
 31
0.0
  0
LINE
  5
486
100
AcDbEntity
  8
0
  6
Continuous
 62
     8
100
AcDbLine
 10
232.156868
 20
57.022629
 30
0.0
 11
237.656917
 21
57.022629
 31
0.0
  0
LINE
  5
487
100
AcDbEntity
  8
0
  6
Continuous
 62
     8
100
AcDbLine
 10
238.65683
 20
57.022629
 30
0.0
 11
239.656742
 21
57.022629
 31
0.0
  0
LINE
  5
488
100
AcDbEntity
  8
0
  6
Continuous
 62
     8
100
AcDbLine
 10
240.656867
 20
57.022629
 30
0.0
 11
246.156917
 21
57.022629
 31
0.0
  0
LINE
  5
489
100
AcDbEntity
  8
0
  6
Continuous
 62
     8
100
AcDbLine
 10
247.15683
 20
57.022629
 30
0.0
 11
248.156742
 21
57.022629
 31
0.0
  0
LINE
  5
48A
100
AcDbEntity
  8
0
  6
Continuous
 62
     8
100
AcDbLine
 10
249.156867
 20
57.022629
 30
0.0
 11
254.656917
 21
57.022629
 31
0.0
  0
ENDBLK
  5
48B
100
AcDbEntity
  8
0
100
AcDbBlockEnd
  0
BLOCK
  5
48E
100
AcDbEntity
  8
0
100
AcDbBlockBegin
  2
*B38
 70
     0
 10
0.0
 20
0.0
 30
0.0
  3
*B38
  1

  0
LINE
  5
48F
100
AcDbEntity
  8
0
  6
Continuous
 62
     8
100
AcDbLine
 10
182.506868
 20
31.016406
 30
0.0
 11
182.506868
 21
47.773172
 31
0.0
  0
ENDBLK
  5
490
100
AcDbEntity
  8
0
100
AcDbBlockEnd
  0
BLOCK
  5
493
100
AcDbEntity
  8
0
100
AcDbBlockBegin
  2
*B39
 70
     0
 10
0.0
 20
0.0
 30
0.0
  3
*B39
  1

  0
LINE
  5
494
100
AcDbEntity
  8
0
  6
Continuous
 62
     8
100
AcDbLine
 10
238.156767
 20
46.023166
 30
0.0
 11
269.018099
 21
46.023166
 31
0.0
  0
ENDBLK
  5
495
100
AcDbEntity
  8
0
100
AcDbBlockEnd
  0
BLOCK
  5
498
100
AcDbEntity
  8
0
100
AcDbBlockBegin
  2
*B40
 70
     0
 10
0.0
 20
0.0
 30
0.0
  3
*B40
  1

  0
LINE
  5
499
100
AcDbEntity
  8
0
  6
Continuous
 62
     8
100
AcDbLine
 10
156.156932
 20
99.012581
 30
0.0
 11
156.156932
 21
103.012443
 31
0.0
  0
LINE
  5
49A
100
AcDbEntity
  8
0
  6
Continuous
 62
     8
100
AcDbLine
 10
156.156932
 20
103.012443
 30
0.0
 11
156.156932
 21
108.239944
 31
0.0
  0
LINE
  5
49B
100
AcDbEntity
  8
0
  6
Continuous
 62
     8
100
AcDbLine
 10
156.156932
 20
109.239856
 30
0.0
 11
156.156932
 21
110.239769
 31
0.0
  0
LINE
  5
49C
100
AcDbEntity
  8
0
  6
Continuous
 62
     8
100
AcDbLine
 10
156.156932
 20
111.239681
 30
0.0
 11
156.156932
 21
116.467395
 31
0.0
  0
LINE
  5
49D
100
AcDbEntity
  8
0
  6
Continuous
 62
     8
100
AcDbLine
 10
156.156932
 20
117.467307
 30
0.0
 11
156.156932
 21
118.46722
 31
0.0
  0
LINE
  5
49E
100
AcDbEntity
  8
0
  6
Continuous
 62
     8
100
AcDbLine
 10
156.156932
 20
119.467132
 30
0.0
 11
156.156932
 21
124.694633
 31
0.0
  0
ENDBLK
  5
49F
100
AcDbEntity
  8
0
100
AcDbBlockEnd
  0
BLOCK
  5
4A2
100
AcDbEntity
  8
0
100
AcDbBlockBegin
  2
*B41
 70
     0
 10
0.0
 20
0.0
 30
0.0
  3
*B41
  1

  0
LINE
  5
4A3
100
AcDbEntity
  8
0
  6
Continuous
 62
     8
100
AcDbLine
 10
196.156831
 20
51.022941
 30
0.0
 11
196.156831
 21
55.522654
 31
0.0
  0
LINE
  5
4A4
100
AcDbEntity
  8
0
  6
Continuous
 62
     8
100
AcDbLine
 10
196.156831
 20
58.522604
 30
0.0
 11
196.156831
 21
63.022316
 31
0.0
  0
ENDBLK
  5
4A5
100
AcDbEntity
  8
0
100
AcDbBlockEnd
  0
BLOCK
  5
4A8
100
AcDbEntity
  8
0
100
AcDbBlockBegin
  2
*B42
 70
     0
 10
0.0
 20
0.0
 30
0.0
  3
*B42
  1

  0
LINE
  5
4A9
100
AcDbEntity
  8
0
  6
Continuous
 62
     8
100
AcDbLine
 10
191.156844
 20
69.022003
 30
0.0
 11
191.156844
 21
80.013606
 31
0.0
  0
ENDBLK
  5
4AA
100
AcDbEntity
  8
0
100
AcDbBlockEnd
  0
BLOCK
  5
4AD
100
AcDbEntity
  8
0
100
AcDbBlockBegin
  2
*B43
 70
     0
 10
0.0
 20
0.0
 30
0.0
  3
*B43
  1

  0
LINE
  5
4AE
100
AcDbEntity
  8
0
  6
Continuous
 62
     8
100
AcDbLine
 10
191.156844
 20
99.012581
 30
0.0
 11
191.156844
 21
112.695258
 31
0.0
  0
LINE
  5
4AF
100
AcDbEntity
  8
0
  6
Continuous
 62
     8
100
AcDbLine
 10
191.156844
 20
136.694008
 30
0.0
 11
191.156844
 21
168.008667
 31
0.0
  0
ENDBLK
  5
4B0
100
AcDbEntity
  8
0
100
AcDbBlockEnd
  0
BLOCK
  5
4B3
100
AcDbEntity
  8
0
100
AcDbBlockBegin
  2
*B44
 70
     0
 10
0.0
 20
0.0
 30
0.0
  3
*B44
  1

  0
LINE
  5
4B4
100
AcDbEntity
  8
0
  6
Continuous
 62
     8
100
AcDbLine
 10
207.156931
 20
87.013206
 30
0.0
 11
207.156931
 21
112.695258
 31
0.0
  0
LINE
  5
4B5
100
AcDbEntity
  8
0
  6
Continuous
 62
     8
100
AcDbLine
 10
207.156931
 20
142.693696
 30
0.0
 11
207.156931
 21
184.007905
 31
0.0
  0
ENDBLK
  5
4B6
100
AcDbEntity
  8
0
100
AcDbBlockEnd
  0
BLOCK
  5
4B9
100
AcDbEntity
  8
0
100
AcDbBlockBegin
  2
*B45
 70
     0
 10
0.0
 20
0.0
 30
0.0
  3
*B45
  1

  0
LINE
  5
4BA
100
AcDbEntity
  8
0
  6
Continuous
 62
     8
100
AcDbLine
 10
105.156934
 20
87.013206
 30
0.0
 11
105.156934
 21
112.695258
 31
0.0
  0
LINE
  5
4BB
100
AcDbEntity
  8
0
  6
Continuous
 62
     8
100
AcDbLine
 10
105.156934
 20
142.693696
 30
0.0
 11
105.156934
 21
183.00778
 31
0.0
  0
ENDBLK
  5
4BC
100
AcDbEntity
  8
0
100
AcDbBlockEnd
  0
BLOCK
  5
4BF
100
AcDbEntity
  8
0
100
AcDbBlockBegin
  2
*B46
 70
     0
 10
0.0
 20
0.0
 30
0.0
  3
*B46
  1

  0
LINE
  5
4C0
100
AcDbEntity
  8
0
  6
Continuous
 62
     8
100
AcDbLine
 10
64.456862
 20
124.694633
 30
0.0
 11
69.561366
 21
124.694633
 31
0.0
  0
LINE
  5
4C1
100
AcDbEntity
  8
0
  6
Continuous
 62
     8
100
AcDbLine
 10
70.561278
 20
124.694633
 30
0.0
 11
71.561191
 21
124.694633
 31
0.0
  0
LINE
  5
4C2
100
AcDbEntity
  8
0
  6
Continuous
 62
     8
100
AcDbLine
 10
72.561316
 20
124.694633
 30
0.0
 11
77.665606
 21
124.694633
 31
0.0
  0
LINE
  5
4C3
100
AcDbEntity
  8
0
  6
Continuous
 62
     8
100
AcDbLine
 10
78.665519
 20
124.694633
 30
0.0
 11
79.665644
 21
124.694633
 31
0.0
  0
LINE
  5
4C4
100
AcDbEntity
  8
0
  6
Continuous
 62
     8
100
AcDbLine
 10
80.665556
 20
124.694633
 30
0.0
 11
85.769847
 21
124.694633
 31
0.0
  0
LINE
  5
4C5
100
AcDbEntity
  8
0
  6
Continuous
 62
     8
100
AcDbLine
 10
86.769972
 20
124.694633
 30
0.0
 11
87.769885
 21
124.694633
 31
0.0
  0
LINE
  5
4C6
100
AcDbEntity
  8
0
  6
Continuous
 62
     8
100
AcDbLine
 10
88.77001
 20
124.694633
 30
0.0
 11
93.874301
 21
124.694633
 31
0.0
  0
LINE
  5
4C7
100
AcDbEntity
  8
0
  6
Continuous
 62
     8
100
AcDbLine
 10
94.874213
 20
124.694633
 30
0.0
 11
95.874338
 21
124.694633
 31
0.0
  0
LINE
  5
4C8
100
AcDbEntity
  8
0
  6
Continuous
 62
     8
100
AcDbLine
 10
96.874251
 20
124.694633
 30
0.0
 11
101.978542
 21
124.694633
 31
0.0
  0
LINE
  5
4C9
100
AcDbEntity
  8
0
  6
Continuous
 62
     8
100
AcDbLine
 10
102.978667
 20
124.694633
 30
0.0
 11
103.978579
 21
124.694633
 31
0.0
  0
LINE
  5
4CA
100
AcDbEntity
  8
0
  6
Continuous
 62
     8
100
AcDbLine
 10
104.978704
 20
124.694633
 30
0.0
 11
110.082995
 21
124.694633
 31
0.0
  0
LINE
  5
4CB
100
AcDbEntity
  8
0
  6
Continuous
 62
     8
100
AcDbLine
 10
111.082907
 20
124.694633
 30
0.0
 11
112.083032
 21
124.694633
 31
0.0
  0
LINE
  5
4CC
100
AcDbEntity
  8
0
  6
Continuous
 62
     8
100
AcDbLine
 10
113.082945
 20
124.694633
 30
0.0
 11
118.187236
 21
124.694633
 31
0.0
  0
LINE
  5
4CD
100
AcDbEntity
  8
0
  6
Continuous
 62
     8
100
AcDbLine
 10
119.187361
 20
124.694633
 30
0.0
 11
120.187273
 21
124.694633
 31
0.0
  0
LINE
  5
4CE
100
AcDbEntity
  8
0
  6
Continuous
 62
     8
100
AcDbLine
 10
121.187398
 20
124.694633
 30
0.0
 11
126.291689
 21
124.694633
 31
0.0
  0
LINE
  5
4CF
100
AcDbEntity
  8
0
  6
Continuous
 62
     8
100
AcDbLine
 10
127.291602
 20
124.694633
 30
0.0
 11
128.291727
 21
124.694633
 31
0.0
  0
LINE
  5
4D0
100
AcDbEntity
  8
0
  6
Continuous
 62
     8
100
AcDbLine
 10
129.291639
 20
124.694633
 30
0.0
 11
134.39593
 21
124.694633
 31
0.0
  0
LINE
  5
4D1
100
AcDbEntity
  8
0
  6
Continuous
 62
     8
100
AcDbLine
 10
135.396055
 20
124.694633
 30
0.0
 11
136.395967
 21
124.694633
 31
0.0
  0
LINE
  5
4D2
100
AcDbEntity
  8
0
  6
Continuous
 62
     8
100
AcDbLine
 10
137.396092
 20
124.694633
 30
0.0
 11
142.500383
 21
124.694633
 31
0.0
  0
LINE
  5
4D3
100
AcDbEntity
  8
0
  6
Continuous
 62
     8
100
AcDbLine
 10
143.500296
 20
124.694633
 30
0.0
 11
144.500421
 21
124.694633
 31
0.0
  0
LINE
  5
4D4
100
AcDbEntity
  8
0
  6
Continuous
 62
     8
100
AcDbLine
 10
145.500333
 20
124.694633
 30
0.0
 11
150.604624
 21
124.694633
 31
0.0
  0
LINE
  5
4D5
100
AcDbEntity
  8
0
  6
Continuous
 62
     8
100
AcDbLine
 10
151.604749
 20
124.694633
 30
0.0
 11
152.604662
 21
124.694633
 31
0.0
  0
LINE
  5
4D6
100
AcDbEntity
  8
0
  6
Continuous
 62
     8
100
AcDbLine
 10
153.604787
 20
124.694633
 30
0.0
 11
158.709078
 21
124.694633
 31
0.0
  0
LINE
  5
4D7
100
AcDbEntity
  8
0
  6
Continuous
 62
     8
100
AcDbLine
 10
159.70899
 20
124.694633
 30
0.0
 11
160.709115
 21
124.694633
 31
0.0
  0
LINE
  5
4D8
100
AcDbEntity
  8
0
  6
Continuous
 62
     8
100
AcDbLine
 10
161.709028
 20
124.694633
 30
0.0
 11
166.813318
 21
124.694633
 31
0.0
  0
LINE
  5
4D9
100
AcDbEntity
  8
0
  6
Continuous
 62
     8
100
AcDbLine
 10
167.813443
 20
124.694633
 30
0.0
 11
168.813356
 21
124.694633
 31
0.0
  0
LINE
  5
4DA
100
AcDbEntity
  8
0
  6
Continuous
 62
     8
100
AcDbLine
 10
169.813481
 20
124.694633
 30
0.0
 11
174.917772
 21
124.694633
 31
0.0
  0
LINE
  5
4DB
100
AcDbEntity
  8
0
  6
Continuous
 62
     8
100
AcDbLine
 10
175.917684
 20
124.694633
 30
0.0
 11
176.917809
 21
124.694633
 31
0.0
  0
LINE
  5
4DC
100
AcDbEntity
  8
0
  6
Continuous
 62
     8
100
AcDbLine
 10
177.917722
 20
124.694633
 30
0.0
 11
183.022013
 21
124.694633
 31
0.0
  0
LINE
  5
4DD
100
AcDbEntity
  8
0
  6
Continuous
 62
     8
100
AcDbLine
 10
184.022138
 20
124.694633
 30
0.0
 11
185.02205
 21
124.694633
 31
0.0
  0
LINE
  5
4DE
100
AcDbEntity
  8
0
  6
Continuous
 62
     8
100
AcDbLine
 10
186.022175
 20
124.694633
 30
0.0
 11
191.126466
 21
124.694633
 31
0.0
  0
LINE
  5
4DF
100
AcDbEntity
  8
0
  6
Continuous
 62
     8
100
AcDbLine
 10
192.126379
 20
124.694633
 30
0.0
 11
193.126503
 21
124.694633
 31
0.0
  0
LINE
  5
4E0
100
AcDbEntity
  8
0
  6
Continuous
 62
     8
100
AcDbLine
 10
194.126416
 20
124.694633
 30
0.0
 11
199.230707
 21
124.694633
 31
0.0
  0
LINE
  5
4E1
100
AcDbEntity
  8
0
  6
Continuous
 62
     8
100
AcDbLine
 10
200.230832
 20
124.694633
 30
0.0
 11
201.230744
 21
124.694633
 31
0.0
  0
LINE
  5
4E2
100
AcDbEntity
  8
0
  6
Continuous
 62
     8
100
AcDbLine
 10
202.230869
 20
124.694633
 30
0.0
 11
207.33516
 21
124.694633
 31
0.0
  0
LINE
  5
4E3
100
AcDbEntity
  8
0
  6
Continuous
 62
     8
100
AcDbLine
 10
208.335073
 20
124.694633
 30
0.0
 11
209.335198
 21
124.694633
 31
0.0
  0
LINE
  5
4E4
100
AcDbEntity
  8
0
  6
Continuous
 62
     8
100
AcDbLine
 10
210.33511
 20
124.694633
 30
0.0
 11
215.439401
 21
124.694633
 31
0.0
  0
LINE
  5
4E5
100
AcDbEntity
  8
0
  6
Continuous
 62
     8
100
AcDbLine
 10
216.439526
 20
124.694633
 30
0.0
 11
217.439439
 21
124.694633
 31
0.0
  0
LINE
  5
4E6
100
AcDbEntity
  8
0
  6
Continuous
 62
     8
100
AcDbLine
 10
218.439351
 20
124.694633
 30
0.0
 11
223.543854
 21
124.694633
 31
0.0
  0
LINE
  5
4E7
100
AcDbEntity
  8
0
  6
Continuous
 62
     8
100
AcDbLine
 10
224.543767
 20
124.694633
 30
0.0
 11
225.543892
 21
124.694633
 31
0.0
  0
LINE
  5
4E8
100
AcDbEntity
  8
0
  6
Continuous
 62
     8
100
AcDbLine
 10
226.543804
 20
124.694633
 30
0.0
 11
231.648095
 21
124.694633
 31
0.0
  0
LINE
  5
4E9
100
AcDbEntity
  8
0
  6
Continuous
 62
     8
100
AcDbLine
 10
232.64822
 20
124.694633
 30
0.0
 11
233.648133
 21
124.694633
 31
0.0
  0
LINE
  5
4EA
100
AcDbEntity
  8
0
  6
Continuous
 62
     8
100
AcDbLine
 10
234.648045
 20
124.694633
 30
0.0
 11
239.752549
 21
124.694633
 31
0.0
  0
LINE
  5
4EB
100
AcDbEntity
  8
0
  6
Continuous
 62
     8
100
AcDbLine
 10
240.752461
 20
124.694633
 30
0.0
 11
241.752374
 21
124.694633
 31
0.0
  0
LINE
  5
4EC
100
AcDbEntity
  8
0
  6
Continuous
 62
     8
100
AcDbLine
 10
242.752499
 20
124.694633
 30
0.0
 11
247.85679
 21
124.694633
 31
0.0
  0
ENDBLK
  5
4ED
100
AcDbEntity
  8
0
100
AcDbBlockEnd
  0
BLOCK
  5
4F0
100
AcDbEntity
  8
0
100
AcDbBlockBegin
  2
*B47
 70
     0
 10
0.0
 20
0.0
 30
0.0
  3
*B47
  1

  0
LINE
  5
4F1
100
AcDbEntity
  8
0
  6
Continuous
 62
     8
100
AcDbLine
 10
159.656945
 20
122.694808
 30
0.0
 11
159.656945
 21
158.00933
 31
0.0
  0
ENDBLK
  5
4F2
100
AcDbEntity
  8
0
100
AcDbBlockEnd
  0
BLOCK
  5
4F5
100
AcDbEntity
  8
0
100
AcDbBlockBegin
  2
*B48
 70
     0
 10
0.0
 20
0.0
 30
0.0
  3
*B48
  1

  0
LINE
  5
4F6
100
AcDbEntity
  8
0
  6
Continuous
 62
     8
100
AcDbLine
 10
230.656893
 20
162.692583
 30
0.0
 11
235.531758
 21
162.692583
 31
0.0
  0
LINE
  5
4F7
100
AcDbEntity
  8
0
  6
Continuous
 62
     8
100
AcDbLine
 10
236.531883
 20
162.692583
 30
0.0
 11
237.531796
 21
162.692583
 31
0.0
  0
LINE
  5
4F8
100
AcDbEntity
  8
0
  6
Continuous
 62
     8
100
AcDbLine
 10
238.53192
 20
162.692583
 30
0.0
 11
243.406786
 21
162.692583
 31
0.0
  0
LINE
  5
4F9
100
AcDbEntity
  8
0
  6
Continuous
 62
     8
100
AcDbLine
 10
244.406911
 20
162.692583
 30
0.0
 11
245.406823
 21
162.692583
 31
0.0
  0
LINE
  5
4FA
100
AcDbEntity
  8
0
  6
Continuous
 62
     8
100
AcDbLine
 10
246.406736
 20
162.692583
 30
0.0
 11
251.281814
 21
162.692583
 31
0.0
  0
LINE
  5
4FB
100
AcDbEntity
  8
0
  6
Continuous
 62
     8
100
AcDbLine
 10
252.281726
 20
162.692583
 30
0.0
 11
253.281851
 21
162.692583
 31
0.0
  0
LINE
  5
4FC
100
AcDbEntity
  8
0
  6
Continuous
 62
     8
100
AcDbLine
 10
254.281764
 20
162.692583
 30
0.0
 11
259.156842
 21
162.692583
 31
0.0
  0
ENDBLK
  5
4FD
100
AcDbEntity
  8
0
100
AcDbBlockEnd
  0
BLOCK
  5
500
100
AcDbEntity
  8
0
100
AcDbBlockBegin
  2
*B49
 70
     0
 10
0.0
 20
0.0
 30
0.0
  3
*B49
  1

  0
LINE
  5
501
100
AcDbEntity
  8
0
  6
Continuous
 62
     8
100
AcDbLine
 10
178.156919
 20
99.012581
 30
0.0
 11
178.156919
 21
103.012443
 31
0.0
  0
LINE
  5
502
100
AcDbEntity
  8
0
  6
Continuous
 62
     8
100
AcDbLine
 10
178.156919
 20
103.012443
 30
0.0
 11
178.156919
 21
108.603838
 31
0.0
  0
LINE
  5
503
100
AcDbEntity
  8
0
  6
Continuous
 62
     8
100
AcDbLine
 10
178.156919
 20
109.603751
 30
0.0
 11
178.156919
 21
110.603663
 31
0.0
  0
LINE
  5
504
100
AcDbEntity
  8
0
  6
Continuous
 62
     8
100
AcDbLine
 10
178.156919
 20
111.603576
 30
0.0
 11
178.156919
 21
117.195183
 31
0.0
  0
ENDBLK
  5
505
100
AcDbEntity
  8
0
100
AcDbBlockEnd
  0
BLOCK
  5
508
100
AcDbEntity
  8
0
100
AcDbBlockBegin
  2
*B50
 70
     0
 10
0.0
 20
0.0
 30
0.0
  3
*B50
  1

  0
LINE
  5
509
100
AcDbEntity
  8
0
  6
Continuous
 62
     8
100
AcDbLine
 10
167.156819
 20
48.148113
 30
0.0
 11
167.156819
 21
55.522654
 31
0.0
  0
LINE
  5
50A
100
AcDbEntity
  8
0
  6
Continuous
 62
     8
100
AcDbLine
 10
167.156819
 20
58.522604
 30
0.0
 11
167.156819
 21
65.897144
 31
0.0
  0
ENDBLK
  5
50B
100
AcDbEntity
  8
0
100
AcDbBlockEnd
  0
BLOCK
  5
50E
100
AcDbEntity
  8
0
100
AcDbBlockBegin
  2
*B51
 70
     0
 10
0.0
 20
0.0
 30
0.0
  3
*B51
  1

  0
LINE
  5
50F
100
AcDbEntity
  8
0
  6
Continuous
 62
     8
100
AcDbLine
 10
139.281842
 20
31.016406
 30
0.0
 11
139.281842
 21
56.022716
 31
0.0
  0
ENDBLK
  5
510
100
AcDbEntity
  8
0
100
AcDbBlockEnd
  0
BLOCK
  5
513
100
AcDbEntity
  8
0
100
AcDbBlockBegin
  2
*B52
 70
     0
 10
0.0
 20
0.0
 30
0.0
  3
*B52
  1

  0
LINE
  5
514
100
AcDbEntity
  8
0
  6
Continuous
 62
     8
100
AcDbLine
 10
53.157022
 20
162.692583
 30
0.0
 11
58.031888
 21
162.692583
 31
0.0
  0
LINE
  5
515
100
AcDbEntity
  8
0
  6
Continuous
 62
     8
100
AcDbLine
 10
59.032013
 20
162.692583
 30
0.0
 11
60.031925
 21
162.692583
 31
0.0
  0
LINE
  5
516
100
AcDbEntity
  8
0
  6
Continuous
 62
     8
100
AcDbLine
 10
61.031838
 20
162.692583
 30
0.0
 11
65.906916
 21
162.692583
 31
0.0
  0
LINE
  5
517
100
AcDbEntity
  8
0
  6
Continuous
 62
     8
100
AcDbLine
 10
66.906828
 20
162.692583
 30
0.0
 11
67.906953
 21
162.692583
 31
0.0
  0
LINE
  5
518
100
AcDbEntity
  8
0
  6
Continuous
 62
     8
100
AcDbLine
 10
68.906866
 20
162.692583
 30
0.0
 11
73.781944
 21
162.692583
 31
0.0
  0
LINE
  5
519
100
AcDbEntity
  8
0
  6
Continuous
 62
     8
100
AcDbLine
 10
74.781856
 20
162.692583
 30
0.0
 11
75.781981
 21
162.692583
 31
0.0
  0
LINE
  5
51A
100
AcDbEntity
  8
0
  6
Continuous
 62
     8
100
AcDbLine
 10
76.781894
 20
162.692583
 30
0.0
 11
81.656972
 21
162.692583
 31
0.0
  0
ENDBLK
  5
51B
100
AcDbEntity
  8
0
100
AcDbBlockEnd
  0
BLOCK
  5
51E
100
AcDbEntity
  8
0
100
AcDbBlockBegin
  2
*B53
 70
     0
 10
0.0
 20
0.0
 30
0.0
  3
*B53
  1

  0
LINE
  5
51F
100
AcDbEntity
  8
0
  6
Continuous
 62
     8
100
AcDbLine
 10
167.156819
 20
164.009017
 30
0.0
 11
167.156819
 21
168.008667
 31
0.0
  0
LINE
  5
520
100
AcDbEntity
  8
0
  6
Continuous
 62
     8
100
AcDbLine
 10
167.156819
 20
129.694408
 30
0.0
 11
167.156819
 21
136.023151
 31
0.0
  0
LINE
  5
521
100
AcDbEntity
  8
0
  6
Continuous
 62
     8
100
AcDbLine
 10
167.156819
 20
137.023064
 30
0.0
 11
167.156819
 21
138.022976
 31
0.0
  0
LINE
  5
522
100
AcDbEntity
  8
0
  6
Continuous
 62
     8
100
AcDbLine
 10
167.156819
 20
139.022889
 30
0.0
 11
167.156819
 21
145.351632
 31
0.0
  0
LINE
  5
523
100
AcDbEntity
  8
0
  6
Continuous
 62
     8
100
AcDbLine
 10
167.156819
 20
146.351757
 30
0.0
 11
167.156819
 21
147.351669
 31
0.0
  0
LINE
  5
524
100
AcDbEntity
  8
0
  6
Continuous
 62
     8
100
AcDbLine
 10
167.156819
 20
148.351582
 30
0.0
 11
167.156819
 21
154.680325
 31
0.0
  0
LINE
  5
525
100
AcDbEntity
  8
0
  6
Continuous
 62
     8
100
AcDbLine
 10
167.156819
 20
155.680237
 30
0.0
 11
167.156819
 21
156.68015
 31
0.0
  0
LINE
  5
526
100
AcDbEntity
  8
0
  6
Continuous
 62
     8
100
AcDbLine
 10
167.156819
 20
157.680274
 30
0.0
 11
167.156819
 21
164.009017
 31
0.0
  0
ENDBLK
  5
527
100
AcDbEntity
  8
0
100
AcDbBlockEnd
  0
BLOCK
  5
52A
100
AcDbEntity
  8
0
100
AcDbBlockBegin
  2
*B54
 70
     0
 10
0.0
 20
0.0
 30
0.0
  3
*B54
  1

  0
LINE
  5
52B
100
AcDbEntity
  8
0
  6
Continuous
 62
     8
100
AcDbLine
 10
90.156971
 20
50.622934
 30
0.0
 11
90.156971
 21
55.522654
 31
0.0
  0
LINE
  5
52C
100
AcDbEntity
  8
0
  6
Continuous
 62
     8
100
AcDbLine
 10
90.156971
 20
58.522604
 30
0.0
 11
90.156971
 21
63.422323
 31
0.0
  0
ENDBLK
  5
52D
100
AcDbEntity
  8
0
100
AcDbBlockEnd
  0
BLOCK
  5
530
100
AcDbEntity
  8
0
100
AcDbBlockBegin
  2
*B55
 70
     0
 10
0.0
 20
0.0
 30
0.0
  3
*B55
  1

  0
LINE
  5
531
100
AcDbEntity
  8
0
  6
Continuous
 62
     8
100
AcDbLine
 10
192.156756
 20
112.695258
 30
0.0
 11
269.018099
 21
112.695258
 31
0.0
  0
ENDBLK
  5
532
100
AcDbEntity
  8
0
100
AcDbBlockEnd
  0
BLOCK
  5
535
100
AcDbEntity
  8
0
100
AcDbBlockBegin
  2
*B56
 70
     0
 10
0.0
 20
0.0
 30
0.0
  3
*B56
  1

  0
LINE
  5
536
100
AcDbEntity
  8
0
  6
Continuous
 62
     8
100
AcDbLine
 10
256.464067
 20
171.691583
 30
0.0
 11
269.018099
 21
171.691583
 31
0.0
  0
ENDBLK
  5
537
100
AcDbEntity
  8
0
100
AcDbBlockEnd
  0
BLOCK
  5
53A
100
AcDbEntity
  8
0
100
AcDbBlockBegin
  2
*B57
 70
     0
 10
0.0
 20
0.0
 30
0.0
  3
*B57
  1

  0
LINE
  5
53B
100
AcDbEntity
  8
0
  6
Continuous
 62
     8
100
AcDbLine
 10
192.156756
 20
144.693521
 30
0.0
 11
258.017999
 21
144.693521
 31
0.0
  0
ENDBLK
  5
53C
100
AcDbEntity
  8
0
100
AcDbBlockEnd
  0
BLOCK
  5
53F
100
AcDbEntity
  8
0
100
AcDbBlockBegin
  2
*B58
 70
     0
 10
0.0
 20
0.0
 30
0.0
  3
*B58
  1

  0
LINE
  5
540
100
AcDbEntity
  8
0
  6
Continuous
 62
     8
100
AcDbLine
 10
128.156833
 20
76.013956
 30
0.0
 11
128.156833
 21
80.013606
 31
0.0
  0
LINE
  5
541
100
AcDbEntity
  8
0
  6
Continuous
 62
     8
100
AcDbLine
 10
128.156833
 20
58.972532
 30
0.0
 11
128.156833
 21
63.772197
 31
0.0
  0
LINE
  5
542
100
AcDbEntity
  8
0
  6
Continuous
 62
     8
100
AcDbLine
 10
128.156833
 20
66.772147
 30
0.0
 11
128.156833
 21
76.013956
 31
0.0
  0
ENDBLK
  5
543
100
AcDbEntity
  8
0
100
AcDbBlockEnd
  0
BLOCK
  5
546
100
AcDbEntity
  8
0
100
AcDbBlockBegin
  2
*B59
 70
     0
 10
0.0
 20
0.0
 30
0.0
  3
*B59
  1

  0
LINE
  5
547
100
AcDbEntity
  8
0
  6
Continuous
 62
     8
100
AcDbLine
 10
56.156972
 20
171.491261
 30
0.0
 11
56.156972
 21
183.00778
 31
0.0
  0
ENDBLK
  5
548
100
AcDbEntity
  8
0
100
AcDbBlockEnd
  0
BLOCK
  5
54B
100
AcDbEntity
  8
0
100
AcDbBlockBegin
  2
*B60
 70
     0
 10
0.0
 20
0.0
 30
0.0
  3
*B60
  1

  0
LINE
  5
54C
100
AcDbEntity
  8
0
  6
Continuous
 62
     8
100
AcDbLine
 10
116.156821
 20
51.022941
 30
0.0
 11
116.156821
 21
55.522654
 31
0.0
  0
LINE
  5
54D
100
AcDbEntity
  8
0
  6
Continuous
 62
     8
100
AcDbLine
 10
116.156821
 20
58.522604
 30
0.0
 11
116.156821
 21
63.022316
 31
0.0
  0
ENDBLK
  5
54E
100
AcDbEntity
  8
0
100
AcDbBlockEnd
  0
BLOCK
  5
551
100
AcDbEntity
  8
0
100
AcDbBlockBegin
  2
*B61
 70
     0
 10
0.0
 20
0.0
 30
0.0
  3
*B61
  1

  0
LINE
  5
552
100
AcDbEntity
  8
0
  6
Continuous
 62
     8
100
AcDbLine
 10
185.80677
 20
31.016406
 30
0.0
 11
185.80677
 21
47.773172
 31
0.0
  0
ENDBLK
  5
553
100
AcDbEntity
  8
0
100
AcDbBlockEnd
  0
BLOCK
  5
556
100
AcDbEntity
  8
0
100
AcDbBlockBegin
  2
*B62
 70
     0
 10
0.0
 20
0.0
 30
0.0
  3
*B62
  1

  0
LINE
  5
557
100
AcDbEntity
  8
0
  6
Continuous
 62
     8
100
AcDbLine
 10
156.018215
 20
48.773085
 30
0.0
 11
160.018077
 21
48.773085
 31
0.0
  0
LINE
  5
558
100
AcDbEntity
  8
0
  6
Continuous
 62
     8
100
AcDbLine
 10
160.018077
 20
48.773085
 30
0.0
 11
165.564437
 21
48.773085
 31
0.0
  0
LINE
  5
559
100
AcDbEntity
  8
0
  6
Continuous
 62
     8
100
AcDbLine
 10
166.564349
 20
48.773085
 30
0.0
 11
167.564262
 21
48.773085
 31
0.0
  0
LINE
  5
55A
100
AcDbEntity
  8
0
  6
Continuous
 62
     8
100
AcDbLine
 10
168.564387
 20
48.773085
 30
0.0
 11
174.110534
 21
48.773085
 31
0.0
  0
LINE
  5
55B
100
AcDbEntity
  8
0
  6
Continuous
 62
     8
100
AcDbLine
 10
175.110659
 20
48.773085
 30
0.0
 11
176.110572
 21
48.773085
 31
0.0
  0
LINE
  5
55C
100
AcDbEntity
  8
0
  6
Continuous
 62
     8
100
AcDbLine
 10
177.110697
 20
48.773085
 30
0.0
 11
182.656844
 21
48.773085
 31
0.0
  0
LINE
  5
55D
100
AcDbEntity
  8
0
  6
Continuous
 62
     8
100
AcDbLine
 10
185.656794
 20
48.773085
 30
0.0
 11
190.456884
 21
48.773085
 31
0.0
  0
ENDBLK
  5
55E
100
AcDbEntity
  8
0
100
AcDbBlockEnd
  0
BLOCK
  5
561
100
AcDbEntity
  8
0
100
AcDbBlockBegin
  2
*B63
 70
     0
 10
0.0
 20
0.0
 30
0.0
  3
*B63
  1

  0
LINE
  5
562
100
AcDbEntity
  8
0
  6
Continuous
 62
     6
100
AcDbLine
 10
184.156819
 20
48.273235
 30
0.0
 11
184.156819
 21
49.273147
 31
0.0
  0
LINE
  5
563
100
AcDbEntity
  8
0
  6
Continuous
 62
     6
100
AcDbLine
 10
183.656756
 20
48.773085
 30
0.0
 11
184.656881
 21
48.773085
 31
0.0
  0
ENDBLK
  5
564
100
AcDbEntity
  8
0
100
AcDbBlockEnd
  0
BLOCK
  5
567
100
AcDbEntity
  8
0
100
AcDbBlockBegin
  2
*B64
 70
     0
 10
0.0
 20
0.0
 30
0.0
  3
*B64
  1

  0
LINE
  5
568
100
AcDbEntity
  8
0
  6
Continuous
 62
     6
100
AcDbLine
 10
116.156821
 20
56.522566
 30
0.0
 11
116.156821
 21
57.522691
 31
0.0
  0
LINE
  5
569
100
AcDbEntity
  8
0
  6
Continuous
 62
     6
100
AcDbLine
 10
115.656971
 20
57.022629
 30
0.0
 11
116.656883
 21
57.022629
 31
0.0
  0
ENDBLK
  5
56A
100
AcDbEntity
  8
0
100
AcDbBlockEnd
  0
BLOCK
  5
56D
100
AcDbEntity
  8
0
100
AcDbBlockBegin
  2
*B65
 70
     0
 10
0.0
 20
0.0
 30
0.0
  3
*B65
  1

  0
LINE
  5
56E
100
AcDbEntity
  8
0
  6
Continuous
 62
     6
100
AcDbLine
 10
222.156893
 20
56.522566
 30
0.0
 11
222.156893
 21
57.522691
 31
0.0
  0
LINE
  5
56F
100
AcDbEntity
  8
0
  6
Continuous
 62
     6
100
AcDbLine
 10
221.65683
 20
57.022629
 30
0.0
 11
222.656955
 21
57.022629
 31
0.0
  0
ENDBLK
  5
570
100
AcDbEntity
  8
0
100
AcDbBlockEnd
  0
BLOCK
  5
573
100
AcDbEntity
  8
0
100
AcDbBlockBegin
  2
*B66
 70
     0
 10
0.0
 20
0.0
 30
0.0
  3
*B66
  1

  0
LINE
  5
574
100
AcDbEntity
  8
0
  6
Continuous
 62
     6
100
AcDbLine
 10
145.156832
 20
56.522566
 30
0.0
 11
145.156832
 21
57.522691
 31
0.0
  0
LINE
  5
575
100
AcDbEntity
  8
0
  6
Continuous
 62
     6
100
AcDbLine
 10
144.656982
 20
57.022629
 30
0.0
 11
145.656895
 21
57.022629
 31
0.0
  0
ENDBLK
  5
576
100
AcDbEntity
  8
0
100
AcDbBlockEnd
  0
BLOCK
  5
579
100
AcDbEntity
  8
0
100
AcDbBlockBegin
  2
*B67
 70
     0
 10
0.0
 20
0.0
 30
0.0
  3
*B67
  1

  0
LINE
  5
57A
100
AcDbEntity
  8
0
  6
Continuous
 62
     6
100
AcDbLine
 10
127.65677
 20
65.272172
 30
0.0
 11
128.656895
 21
65.272172
 31
0.0
  0
LINE
  5
57B
100
AcDbEntity
  8
0
  6
Continuous
 62
     6
100
AcDbLine
 10
128.156833
 20
64.77211
 30
0.0
 11
128.156833
 21
65.772235
 31
0.0
  0
ENDBLK
  5
57C
100
AcDbEntity
  8
0
100
AcDbBlockEnd
  0
BLOCK
  5
57F
100
AcDbEntity
  8
0
100
AcDbBlockBegin
  2
*B68
 70
     0
 10
0.0
 20
0.0
 30
0.0
  3
*B68
  1

  0
LINE
  5
580
100
AcDbEntity
  8
0
  6
Continuous
 62
     6
100
AcDbLine
 10
90.156971
 20
56.522566
 30
0.0
 11
90.156971
 21
57.522691
 31
0.0
  0
LINE
  5
581
100
AcDbEntity
  8
0
  6
Continuous
 62
     6
100
AcDbLine
 10
89.656909
 20
57.022629
 30
0.0
 11
90.656821
 21
57.022629
 31
0.0
  0
ENDBLK
  5
582
100
AcDbEntity
  8
0
100
AcDbBlockEnd
  0
BLOCK
  5
585
100
AcDbEntity
  8
0
100
AcDbBlockBegin
  2
*B69
 70
     0
 10
0.0
 20
0.0
 30
0.0
  3
*B69
  1

  0
LINE
  5
586
100
AcDbEntity
  8
0
  6
Continuous
 62
     6
100
AcDbLine
 10
196.156831
 20
56.522566
 30
0.0
 11
196.156831
 21
57.522691
 31
0.0
  0
LINE
  5
587
100
AcDbEntity
  8
0
  6
Continuous
 62
     6
100
AcDbLine
 10
195.656769
 20
57.022629
 30
0.0
 11
196.656893
 21
57.022629
 31
0.0
  0
ENDBLK
  5
588
100
AcDbEntity
  8
0
100
AcDbBlockEnd
  0
BLOCK
  5
58B
100
AcDbEntity
  8
0
100
AcDbBlockBegin
  2
*B70
 70
     0
 10
0.0
 20
0.0
 30
0.0
  3
*B70
  1

  0
LINE
  5
58C
100
AcDbEntity
  8
0
  6
Continuous
 62
     6
100
AcDbLine
 10
167.156819
 20
56.522566
 30
0.0
 11
167.156819
 21
57.522691
 31
0.0
  0
LINE
  5
58D
100
AcDbEntity
  8
0
  6
Continuous
 62
     6
100
AcDbLine
 10
166.656969
 20
57.022629
 30
0.0
 11
167.656882
 21
57.022629
 31
0.0
  0
ENDBLK
  5
58E
100
AcDbEntity
  8
0
100
AcDbBlockEnd
  0
BLOCK
  5
591
100
AcDbEntity
  8
0
100
AcDbBlockBegin
  2
*B71
 70
     0
 10
0.0
 20
0.0
 30
0.0
  3
*B71
  1

  0
TEXT
  5
592
100
AcDbEntity
  8
TEXT
  6
Continuous
 62
     0
100
AcDbText
 10
176.412175
 20
116.75
 30
0.0
 40
4.5
  1
3
100
AcDbText
  0
ENDBLK
  5
593
100
AcDbEntity
  8
0
100
AcDbBlockEnd
  0
BLOCK
  5
596
100
AcDbEntity
  8
0
100
AcDbBlockBegin
  2
*B72
 70
     0
 10
0.0
 20
0.0
 30
0.0
  3
*B72
  1

  0
TEXT
  5
597
100
AcDbEntity
  8
TEXT
  6
Continuous
 62
     0
100
AcDbText
 10
132.412175
 20
116.75
 30
0.0
 40
4.5
  1
5
100
AcDbText
  0
ENDBLK
  5
598
100
AcDbEntity
  8
0
100
AcDbBlockEnd
  0
BLOCK
  5
59B
100
AcDbEntity
  8
0
100
AcDbBlockBegin
  2
*B73
 70
     0
 10
0.0
 20
0.0
 30
0.0
  3
*B73
  1

  0
TEXT
  5
59C
100
AcDbEntity
  8
TEXT
  6
Continuous
 62
     0
100
AcDbText
 10
165.43575
 20
137.75
 30
0.0
 40
4.5
  1
2
100
AcDbText
  0
ENDBLK
  5
59D
100
AcDbEntity
  8
0
100
AcDbBlockEnd
  0
BLOCK
  5
5A0
100
AcDbEntity
  8
0
100
AcDbBlockBegin
  2
*B74
 70
     0
 10
0.0
 20
0.0
 30
0.0
  3
*B74
  1

  0
TEXT
  5
5A1
100
AcDbEntity
  8
TEXT
  6
Continuous
 62
     0
100
AcDbText
 10
154.412175
 20
116.75
 30
0.0
 40
4.5
  1
1
100
AcDbText
  0
ENDBLK
  5
5A2
100
AcDbEntity
  8
0
100
AcDbBlockEnd
  0
BLOCK
  5
5A5
100
AcDbEntity
  8
0
100
AcDbBlockBegin
  2
*B75
 70
     0
 10
0.0
 20
0.0
 30
0.0
  3
*B75
  1

  0
TEXT
  5
5A6
100
AcDbEntity
  8
TEXT
  6
Continuous
 62
     0
100
AcDbText
 10
143.23575
 20
138.15
 30
0.0
 40
4.5
  1
4
100
AcDbText
  0
ENDBLK
  5
5A7
100
AcDbEntity
  8
0
100
AcDbBlockEnd
  0
BLOCK
  5
5AA
100
AcDbEntity
  8
0
100
AcDbBlockBegin
  2
*B76
 70
     0
 10
0.0
 20
0.0
 30
0.0
  3
*B76
  1

  0
TEXT
  5
5AB
100
AcDbEntity
  8
TEXT
  6
Continuous
 62
     0
100
AcDbText
 10
123.324349
 20
123.25
 30
0.0
 40
4.5
  1
14
100
AcDbText
  0
ENDBLK
  5
5AC
100
AcDbEntity
  8
0
100
AcDbBlockEnd
  0
BLOCK
  5
5AF
100
AcDbEntity
  8
0
100
AcDbBlockBegin
  2
*B77
 70
     0
 10
0.0
 20
0.0
 30
0.0
  3
*B77
  1

  0
TEXT
  5
5B0
100
AcDbEntity
  8
TEXT
  6
Continuous
 62
     0
100
AcDbText
 10
182.824349
 20
123.25
 30
0.0
 40
4.5
  1
12
100
AcDbText
  0
ENDBLK
  5
5B1
100
AcDbEntity
  8
0
100
AcDbBlockEnd
  0
BLOCK
  5
5B4
100
AcDbEntity
  8
0
100
AcDbBlockBegin
  2
*B78
 70
     0
 10
0.0
 20
0.0
 30
0.0
  3
*B78
  1

  0
TEXT
  5
5B5
100
AcDbEntity
  8
TEXT
  6
Continuous
 62
     0
100
AcDbText
 10
111.5
 20
55.74145
 30
0.0
 40
3.0
  1
1
 50
90.0
100
AcDbText
  0
ENDBLK
  5
5B6
100
AcDbEntity
  8
0
100
AcDbBlockEnd
  0
BLOCK
  5
5B9
100
AcDbEntity
  8
0
100
AcDbBlockBegin
  2
*B79
 70
     0
 10
0.0
 20
0.0
 30
0.0
  3
*B79
  1

  0
TEXT
  5
5BA
100
AcDbEntity
  8
TEXT
  6
Continuous
 62
     0
100
AcDbText
 10
117.5
 20
49.94145
 30
0.0
 40
3.0
  1
0
 50
90.0
100
AcDbText
  0
ENDBLK
  5
5BB
100
AcDbEntity
  8
0
100
AcDbBlockEnd
  0
BLOCK
  5
5BE
100
AcDbEntity
  8
0
100
AcDbBlockBegin
  2
*B80
 70
     0
 10
0.0
 20
0.0
 30
0.0
  3
*B80
  1

  0
TEXT
  5
5BF
100
AcDbEntity
  8
TEXT
  6
Continuous
 62
     0
100
AcDbText
 10
201.0
 20
58.05855
 30
0.0
 40
3.0
  1
1
 50
-90.0
100
AcDbText
  0
ENDBLK
  5
5C0
100
AcDbEntity
  8
0
100
AcDbBlockEnd
  0
BLOCK
  5
5C3
100
AcDbEntity
  8
0
100
AcDbBlockBegin
  2
*B81
 70
     0
 10
0.0
 20
0.0
 30
0.0
  3
*B81
  1

  0
TEXT
  5
5C4
100
AcDbEntity
  8
TEXT
  6
Continuous
 62
     0
100
AcDbText
 10
194.5
 20
64.05855
 30
0.0
 40
3.0
  1
0
 50
-90.0
100
AcDbText
  0
ENDBLK
  5
5C5
100
AcDbEntity
  8
0
100
AcDbBlockEnd
  0
BLOCK
  5
5C8
100
AcDbEntity
  8
0
100
AcDbBlockBegin
  2
*B82
 70
     0
 10
0.0
 20
0.0
 30
0.0
  3
*B82
  1

  0
TEXT
  5
5C9
100
AcDbEntity
  8
TEXT
  6
Continuous
 62
     0
100
AcDbText
 10
164.281606
 20
102.5
 30
0.0
 40
3.0
  1
22
100
AcDbText
  0
ENDBLK
  5
5CA
100
AcDbEntity
  8
0
100
AcDbBlockEnd
  0
BLOCK
  5
5CD
100
AcDbEntity
  8
0
100
AcDbBlockBegin
  2
*B83
 70
     0
 10
0.0
 20
0.0
 30
0.0
  3
*B83
  1

  0
TEXT
  5
5CE
100
AcDbEntity
  8
TEXT
  6
Continuous
 62
     0
100
AcDbText
 10
142.281606
 20
102.5
 30
0.0
 40
3.0
  1
22
100
AcDbText
  0
ENDBLK
  5
5CF
100
AcDbEntity
  8
0
100
AcDbBlockEnd
  0
BLOCK
  5
5D2
100
AcDbEntity
  8
0
100
AcDbBlockBegin
  2
*B84
 70
     0
 10
0.0
 20
0.0
 30
0.0
  3
*B84
  1

  0
TEXT
  5
5D3
100
AcDbEntity
  8
TEXT
  6
Continuous
 62
     0
100
AcDbText
 10
124.781606
 20
102.5
 30
0.0
 40
3.0
  1
13
100
AcDbText
  0
ENDBLK
  5
5D4
100
AcDbEntity
  8
0
100
AcDbBlockEnd
  0
BLOCK
  5
5D7
100
AcDbEntity
  8
0
100
AcDbBlockBegin
  2
*B85
 70
     0
 10
0.0
 20
0.0
 30
0.0
  3
*B85
  1

  0
TEXT
  5
5D8
100
AcDbEntity
  8
TEXT
  6
Continuous
 62
     0
100
AcDbText
 10
119.928571
 20
34.5
 30
0.0
 40
3.0
  1
G1/4"
100
AcDbText
  0
ENDBLK
  5
5D9
100
AcDbEntity
  8
0
100
AcDbBlockEnd
  0
BLOCK
  5
5DC
100
AcDbEntity
  8
0
100
AcDbBlockBegin
  2
*B86
 70
     0
 10
0.0
 20
0.0
 30
0.0
  3
*B86
  1

  0
TEXT
  5
5DD
100
AcDbEntity
  8
TEXT
  6
Continuous
 62
     0
100
AcDbText
 10
156.5
 20
52.007657
 30
0.0
 40
3.0
  1
16,5
 50
90.0
100
AcDbText
  0
ENDBLK
  5
5DE
100
AcDbEntity
  8
0
100
AcDbBlockEnd
  0
BLOCK
  5
5E1
100
AcDbEntity
  8
0
100
AcDbBlockBegin
  2
*B87
 70
     0
 10
0.0
 20
0.0
 30
0.0
  3
*B87
  1

  0
TEXT
  5
5E2
100
AcDbEntity
  8
TEXT
  6
Continuous
 62
     0
100
AcDbText
 10
186.210177
 20
79.5
 30
0.0
 40
3.0
  1
7
100
AcDbText
  0
ENDBLK
  5
5E3
100
AcDbEntity
  8
0
100
AcDbBlockEnd
  0
BLOCK
  5
5E6
100
AcDbEntity
  8
0
100
AcDbBlockBegin
  2
*B88
 70
     0
 10
0.0
 20
0.0
 30
0.0
  3
*B88
  1

  0
TEXT
  5
5E7
100
AcDbEntity
  8
TEXT
  6
Continuous
 62
     0
100
AcDbText
 10
153.281606
 20
79.5
 30
0.0
 40
3.0
  1
56
100
AcDbText
  0
ENDBLK
  5
5E8
100
AcDbEntity
  8
0
100
AcDbBlockEnd
  0
BLOCK
  5
5EB
100
AcDbEntity
  8
0
100
AcDbBlockBegin
  2
*B89
 70
     0
 10
0.0
 20
0.0
 30
0.0
  3
*B89
  1

  0
TEXT
  5
5EC
100
AcDbEntity
  8
TEXT
  6
Continuous
 62
     0
100
AcDbText
 10
123.210177
 20
79.5
 30
0.0
 40
3.0
  1
7
100
AcDbText
  0
ENDBLK
  5
5ED
100
AcDbEntity
  8
0
100
AcDbBlockEnd
  0
BLOCK
  5
5F0
100
AcDbEntity
  8
0
100
AcDbBlockBegin
  2
*B90
 70
     0
 10
0.0
 20
0.0
 30
0.0
  3
*B90
  1

  0
TEXT
  5
5F1
100
AcDbEntity
  8
TEXT
  6
Continuous
 62
     0
100
AcDbText
 10
166.328571
 20
34.5
 30
0.0
 40
3.0
  1
%%c3,3
100
AcDbText
  0
ENDBLK
  5
5F2
100
AcDbEntity
  8
0
100
AcDbBlockEnd
  0
BLOCK
  5
5F5
100
AcDbEntity
  8
0
100
AcDbBlockBegin
  2
*B91
 70
     0
 10
0.0
 20
0.0
 30
0.0
  3
*B91
  1

  0
TEXT
  5
5F6
100
AcDbEntity
  8
TEXT
  6
Continuous
 62
     0
100
AcDbText
 10
228.781606
 20
183.5
 30
0.0
 40
3.0
  1
48
100
AcDbText
  0
ENDBLK
  5
5F7
100
AcDbEntity
  8
0
100
AcDbBlockEnd
  0
BLOCK
  5
5FA
100
AcDbEntity
  8
0
100
AcDbBlockBegin
  2
*B92
 70
     0
 10
0.0
 20
0.0
 30
0.0
  3
*B92
  1

  0
TEXT
  5
5FB
100
AcDbEntity
  8
TEXT
  6
Continuous
 62
     0
100
AcDbText
 10
77.781606
 20
182.5
 30
0.0
 40
3.0
  1
48
100
AcDbText
  0
ENDBLK
  5
5FC
100
AcDbEntity
  8
0
100
AcDbBlockEnd
  0
BLOCK
  5
5FF
100
AcDbEntity
  8
0
100
AcDbBlockBegin
  2
*B93
 70
     0
 10
0.0
 20
0.0
 30
0.0
  3
*B93
  1

  0
TEXT
  5
600
100
AcDbEntity
  8
TEXT
  6
Continuous
 62
     0
100
AcDbText
 10
265.5
 20
139.326153
 30
0.0
 40
3.0
  1
58
 50
90.0
100
AcDbText
  0
ENDBLK
  5
601
100
AcDbEntity
  8
0
100
AcDbBlockEnd
  0
BLOCK
  5
604
100
AcDbEntity
  8
0
100
AcDbBlockBegin
  2
*B94
 70
     0
 10
0.0
 20
0.0
 30
0.0
  3
*B94
  1

  0
TEXT
  5
605
100
AcDbEntity
  8
TEXT
  6
Continuous
 62
     0
100
AcDbText
 10
254.5
 20
125.826378
 30
0.0
 40
3.0
  1
32
 50
90.0
100
AcDbText
  0
ENDBLK
  5
606
100
AcDbEntity
  8
0
100
AcDbBlockEnd
  0
BLOCK
  5
609
100
AcDbEntity
  8
0
100
AcDbBlockBegin
  2
*B95
 70
     0
 10
0.0
 20
0.0
 30
0.0
  3
*B95
  1

  0
TEXT
  5
60A
100
AcDbEntity
  8
TEXT
  6
Continuous
 62
     0
100
AcDbText
 10
176.281606
 20
167.5
 30
0.0
 40
3.0
  1
24
100
AcDbText
  0
ENDBLK
  5
60B
100
AcDbEntity
  8
0
100
AcDbBlockEnd
  0
BLOCK
  5
60E
100
AcDbEntity
  8
0
100
AcDbBlockBegin
  2
*B96
 70
     0
 10
0.0
 20
0.0
 30
0.0
  3
*B96
  1

  0
TEXT
  5
60F
100
AcDbEntity
  8
TEXT
  6
Continuous
 62
     0
100
AcDbText
 10
265.5
 20
54.150514
 30
0.0
 40
3.0
  1
22
 50
90.0
100
AcDbText
  0
ENDBLK
  5
610
100
AcDbEntity
  8
0
100
AcDbBlockEnd
  0
BLOCK
  5
613
100
AcDbEntity
  8
0
100
AcDbBlockBegin
  2
*B97
 70
     0
 10
0.0
 20
0.0
 30
0.0
  3
*B97
  1

  0
TEXT
  5
614
100
AcDbEntity
  8
TEXT
  6
Continuous
 62
     0
100
AcDbText
 10
181.781606
 20
102.5
 30
0.0
 40
3.0
  1
13
100
AcDbText
  0
ENDBLK
  5
615
100
AcDbEntity
  8
0
100
AcDbBlockEnd
  0
BLOCK
  5
618
100
AcDbEntity
  8
0
100
AcDbBlockBegin
  2
*B98
 70
     0
 10
0.0
 20
0.0
 30
0.0
  3
*B98
  1

  0
TEXT
  5
619
100
AcDbEntity
  8
TEXT
  6
Continuous
 62
     0
100
AcDbText
 10
151.853035
 20
90.5
 30
0.0
 40
3.0
  1
102
100
AcDbText
  0
ENDBLK
  5
61A
100
AcDbEntity
  8
0
100
AcDbBlockEnd
  0
BLOCK
  5
61D
100
AcDbEntity
  8
0
100
AcDbBlockBegin
  2
*B99
 70
     0
 10
0.0
 20
0.0
 30
0.0
  3
*B99
  1

  0
TEXT
  5
61E
100
AcDbEntity
  8
TEXT
  6
Continuous
 62
     0
100
AcDbText
 10
141.033929
 20
157.5
 30
0.0
 40
3.0
  1
%%c7
100
AcDbText
  0
ENDBLK
  5
61F
100
AcDbEntity
  8
0
100
AcDbBlockEnd
  0
BLOCK
  5
622
100
AcDbEntity
  8
0
100
AcDbBlockBegin
  2
*B100
 70
     0
 10
0.0
 20
0.0
 30
0.0
  3
*B100
  1

  0
TEXT
  5
623
100
AcDbEntity
  8
TEXT
  6
Continuous
 62
     0
100
AcDbText
 10
153.281606
 20
167.5
 30
0.0
 40
3.0
  1
22
100
AcDbText
  0
ENDBLK
  5
624
100
AcDbEntity
  8
0
100
AcDbBlockEnd
  0
ENDSEC
  0
SECTION
  2
ENTITIES
  0
INSERT
  5
248
100
AcDbEntity
  8
0
  6
HIDDEN
 62
   174
100
AcDbBlockReference
  2
*B1
 10
0.0
 20
0.0
 30
0.0
  0
INSERT
  5
376
100
AcDbEntity
  8
0
  6
Continuous
 62
   174
100
AcDbBlockReference
  2
*B2
 10
0.0
 20
0.0
 30
0.0
  0
INSERT
  5
37C
100
AcDbEntity
  8
0
  6
Continuous
 62
   172
100
AcDbBlockReference
  2
*B3
 10
0.0
 20
0.0
 30
0.0
  0
INSERT
  5
387
100
AcDbEntity
  8
0
  6
Continuous
 62
   172
100
AcDbBlockReference
  2
*B4
 10
0.0
 20
0.0
 30
0.0
  0
INSERT
  5
391
100
AcDbEntity
  8
0
  6
Continuous
 62
     0
100
AcDbBlockReference
  2
*B6
 10
0.0
 20
0.0
 30
0.0
  0
INSERT
  5
398
100
AcDbEntity
  8
0
  6
Continuous
 62
     0
100
AcDbBlockReference
  2
*B7
 10
0.0
 20
0.0
 30
0.0
  0
INSERT
  5
39F
100
AcDbEntity
  8
0
  6
Continuous
 62
     0
100
AcDbBlockReference
  2
*B8
 10
0.0
 20
0.0
 30
0.0
  0
INSERT
  5
3A6
100
AcDbEntity
  8
0
  6
Continuous
 62
     0
100
AcDbBlockReference
  2
*B9
 10
0.0
 20
0.0
 30
0.0
  0
INSERT
  5
3AD
100
AcDbEntity
  8
0
  6
Continuous
 62
     0
100
AcDbBlockReference
  2
*B10
 10
0.0
 20
0.0
 30
0.0
  0
INSERT
  5
3B4
100
AcDbEntity
  8
0
  6
Continuous
 62
     0
100
AcDbBlockReference
  2
*B11
 10
0.0
 20
0.0
 30
0.0
  0
INSERT
  5
3BB
100
AcDbEntity
  8
0
  6
Continuous
 62
     0
100
AcDbBlockReference
  2
*B12
 10
0.0
 20
0.0
 30
0.0
  0
INSERT
  5
3C2
100
AcDbEntity
  8
0
  6
Continuous
 62
     0
100
AcDbBlockReference
  2
*B13
 10
0.0
 20
0.0
 30
0.0
  0
INSERT
  5
3C9
100
AcDbEntity
  8
0
  6
Continuous
 62
     0
100
AcDbBlockReference
  2
*B14
 10
0.0
 20
0.0
 30
0.0
  0
INSERT
  5
3D0
100
AcDbEntity
  8
0
  6
Continuous
 62
     0
100
AcDbBlockReference
  2
*B15
 10
0.0
 20
0.0
 30
0.0
  0
INSERT
  5
3D7
100
AcDbEntity
  8
0
  6
Continuous
 62
     0
100
AcDbBlockReference
  2
*B16
 10
0.0
 20
0.0
 30
0.0
  0
INSERT
  5
3DE
100
AcDbEntity
  8
0
  6
Continuous
 62
     0
100
AcDbBlockReference
  2
*B17
 10
0.0
 20
0.0
 30
0.0
  0
INSERT
  5
3E5
100
AcDbEntity
  8
0
  6
Continuous
 62
     0
100
AcDbBlockReference
  2
*B18
 10
0.0
 20
0.0
 30
0.0
  0
INSERT
  5
3EC
100
AcDbEntity
  8
0
  6
Continuous
 62
     0
100
AcDbBlockReference
  2
*B19
 10
0.0
 20
0.0
 30
0.0
  0
INSERT
  5
3F3
100
AcDbEntity
  8
0
  6
Continuous
 62
     0
100
AcDbBlockReference
  2
*B20
 10
0.0
 20
0.0
 30
0.0
  0
INSERT
  5
3FA
100
AcDbEntity
  8
0
  6
Continuous
 62
     0
100
AcDbBlockReference
  2
*B21
 10
0.0
 20
0.0
 30
0.0
  0
INSERT
  5
401
100
AcDbEntity
  8
0
  6
Continuous
 62
     0
100
AcDbBlockReference
  2
*B22
 10
0.0
 20
0.0
 30
0.0
  0
INSERT
  5
408
100
AcDbEntity
  8
0
  6
Continuous
 62
     0
100
AcDbBlockReference
  2
*B23
 10
0.0
 20
0.0
 30
0.0
  0
INSERT
  5
40F
100
AcDbEntity
  8
0
  6
Continuous
 62
     0
100
AcDbBlockReference
  2
*B24
 10
0.0
 20
0.0
 30
0.0
  0
INSERT
  5
415
100
AcDbEntity
  8
0
  6
Continuous
 62
     8
100
AcDbBlockReference
  2
*B25
 10
0.0
 20
0.0
 30
0.0
  0
INSERT
  5
421
100
AcDbEntity
  8
0
  6
Continuous
 62
     8
100
AcDbBlockReference
  2
*B26
 10
0.0
 20
0.0
 30
0.0
  0
INSERT
  5
426
100
AcDbEntity
  8
0
  6
Continuous
 62
     8
100
AcDbBlockReference
  2
*B27
 10
0.0
 20
0.0
 30
0.0
  0
INSERT
  5
431
100
AcDbEntity
  8
0
  6
Continuous
 62
     8
100
AcDbBlockReference
  2
*B28
 10
0.0
 20
0.0
 30
0.0
  0
INSERT
  5
439
100
AcDbEntity
  8
0
  6
Continuous
 62
     8
100
AcDbBlockReference
  2
*B29
 10
0.0
 20
0.0
 30
0.0
  0
INSERT
  5
444
100
AcDbEntity
  8
0
  6
Continuous
 62
     8
100
AcDbBlockReference
  2
*B30
 10
0.0
 20
0.0
 30
0.0
  0
INSERT
  5
449
100
AcDbEntity
  8
0
  6
Continuous
 62
     8
100
AcDbBlockReference
  2
*B31
 10
0.0
 20
0.0
 30
0.0
  0
INSERT
  5
44E
100
AcDbEntity
  8
0
  6
Continuous
 62
     8
100
AcDbBlockReference
  2
*B32
 10
0.0
 20
0.0
 30
0.0
  0
INSERT
  5
453
100
AcDbEntity
  8
0
  6
Continuous
 62
     8
100
AcDbBlockReference
  2
*B33
 10
0.0
 20
0.0
 30
0.0
  0
INSERT
  5
458
100
AcDbEntity
  8
0
  6
Continuous
 62
     8
100
AcDbBlockReference
  2
*B34
 10
0.0
 20
0.0
 30
0.0
  0
INSERT
  5
45D
100
AcDbEntity
  8
0
  6
Continuous
 62
     8
100
AcDbBlockReference
  2
*B35
 10
0.0
 20
0.0
 30
0.0
  0
INSERT
  5
463
100
AcDbEntity
  8
0
  6
Continuous
 62
     8
100
AcDbBlockReference
  2
*B36
 10
0.0
 20
0.0
 30
0.0
  0
INSERT
  5
48C
100
AcDbEntity
  8
0
  6
Continuous
 62
     8
100
AcDbBlockReference
  2
*B37
 10
0.0
 20
0.0
 30
0.0
  0
INSERT
  5
491
100
AcDbEntity
  8
0
  6
Continuous
 62
     8
100
AcDbBlockReference
  2
*B38
 10
0.0
 20
0.0
 30
0.0
  0
INSERT
  5
496
100
AcDbEntity
  8
0
  6
Continuous
 62
     8
100
AcDbBlockReference
  2
*B39
 10
0.0
 20
0.0
 30
0.0
  0
INSERT
  5
4A0
100
AcDbEntity
  8
0
  6
Continuous
 62
     8
100
AcDbBlockReference
  2
*B40
 10
0.0
 20
0.0
 30
0.0
  0
INSERT
  5
4A6
100
AcDbEntity
  8
0
  6
Continuous
 62
     8
100
AcDbBlockReference
  2
*B41
 10
0.0
 20
0.0
 30
0.0
  0
INSERT
  5
4AB
100
AcDbEntity
  8
0
  6
Continuous
 62
     8
100
AcDbBlockReference
  2
*B42
 10
0.0
 20
0.0
 30
0.0
  0
INSERT
  5
4B1
100
AcDbEntity
  8
0
  6
Continuous
 62
     8
100
AcDbBlockReference
  2
*B43
 10
0.0
 20
0.0
 30
0.0
  0
INSERT
  5
4B7
100
AcDbEntity
  8
0
  6
Continuous
 62
     8
100
AcDbBlockReference
  2
*B44
 10
0.0
 20
0.0
 30
0.0
  0
INSERT
  5
4BD
100
AcDbEntity
  8
0
  6
Continuous
 62
     8
100
AcDbBlockReference
  2
*B45
 10
0.0
 20
0.0
 30
0.0
  0
INSERT
  5
4EE
100
AcDbEntity
  8
0
  6
Continuous
 62
     8
100
AcDbBlockReference
  2
*B46
 10
0.0
 20
0.0
 30
0.0
  0
INSERT
  5
4F3
100
AcDbEntity
  8
0
  6
Continuous
 62
     8
100
AcDbBlockReference
  2
*B47
 10
0.0
 20
0.0
 30
0.0
  0
INSERT
  5
4FE
100
AcDbEntity
  8
0
  6
Continuous
 62
     8
100
AcDbBlockReference
  2
*B48
 10
0.0
 20
0.0
 30
0.0
  0
INSERT
  5
506
100
AcDbEntity
  8
0
  6
Continuous
 62
     8
100
AcDbBlockReference
  2
*B49
 10
0.0
 20
0.0
 30
0.0
  0
INSERT
  5
50C
100
AcDbEntity
  8
0
  6
Continuous
 62
     8
100
AcDbBlockReference
  2
*B50
 10
0.0
 20
0.0
 30
0.0
  0
INSERT
  5
511
100
AcDbEntity
  8
0
  6
Continuous
 62
     8
100
AcDbBlockReference
  2
*B51
 10
0.0
 20
0.0
 30
0.0
  0
INSERT
  5
51C
100
AcDbEntity
  8
0
  6
Continuous
 62
     8
100
AcDbBlockReference
  2
*B52
 10
0.0
 20
0.0
 30
0.0
  0
INSERT
  5
528
100
AcDbEntity
  8
0
  6
Continuous
 62
     8
100
AcDbBlockReference
  2
*B53
 10
0.0
 20
0.0
 30
0.0
  0
INSERT
  5
52E
100
AcDbEntity
  8
0
  6
Continuous
 62
     8
100
AcDbBlockReference
  2
*B54
 10
0.0
 20
0.0
 30
0.0
  0
INSERT
  5
533
100
AcDbEntity
  8
0
  6
Continuous
 62
     8
100
AcDbBlockReference
  2
*B55
 10
0.0
 20
0.0
 30
0.0
  0
INSERT
  5
538
100
AcDbEntity
  8
0
  6
Continuous
 62
     8
100
AcDbBlockReference
  2
*B56
 10
0.0
 20
0.0
 30
0.0
  0
INSERT
  5
53D
100
AcDbEntity
  8
0
  6
Continuous
 62
     8
100
AcDbBlockReference
  2
*B57
 10
0.0
 20
0.0
 30
0.0
  0
INSERT
  5
544
100
AcDbEntity
  8
0
  6
Continuous
 62
     8
100
AcDbBlockReference
  2
*B58
 10
0.0
 20
0.0
 30
0.0
  0
INSERT
  5
549
100
AcDbEntity
  8
0
  6
Continuous
 62
     8
100
AcDbBlockReference
  2
*B59
 10
0.0
 20
0.0
 30
0.0
  0
INSERT
  5
54F
100
AcDbEntity
  8
0
  6
Continuous
 62
     8
100
AcDbBlockReference
  2
*B60
 10
0.0
 20
0.0
 30
0.0
  0
INSERT
  5
554
100
AcDbEntity
  8
0
  6
Continuous
 62
     8
100
AcDbBlockReference
  2
*B61
 10
0.0
 20
0.0
 30
0.0
  0
INSERT
  5
55F
100
AcDbEntity
  8
0
  6
Continuous
 62
     8
100
AcDbBlockReference
  2
*B62
 10
0.0
 20
0.0
 30
0.0
  0
INSERT
  5
565
100
AcDbEntity
  8
0
  6
Continuous
 62
     6
100
AcDbBlockReference
  2
*B63
 10
0.0
 20
0.0
 30
0.0
  0
INSERT
  5
56B
100
AcDbEntity
  8
0
  6
Continuous
 62
     6
100
AcDbBlockReference
  2
*B64
 10
0.0
 20
0.0
 30
0.0
  0
INSERT
  5
571
100
AcDbEntity
  8
0
  6
Continuous
 62
     6
100
AcDbBlockReference
  2
*B65
 10
0.0
 20
0.0
 30
0.0
  0
INSERT
  5
577
100
AcDbEntity
  8
0
  6
Continuous
 62
     6
100
AcDbBlockReference
  2
*B66
 10
0.0
 20
0.0
 30
0.0
  0
INSERT
  5
57D
100
AcDbEntity
  8
0
  6
Continuous
 62
     6
100
AcDbBlockReference
  2
*B67
 10
0.0
 20
0.0
 30
0.0
  0
INSERT
  5
583
100
AcDbEntity
  8
0
  6
Continuous
 62
     6
100
AcDbBlockReference
  2
*B68
 10
0.0
 20
0.0
 30
0.0
  0
INSERT
  5
589
100
AcDbEntity
  8
0
  6
Continuous
 62
     6
100
AcDbBlockReference
  2
*B69
 10
0.0
 20
0.0
 30
0.0
  0
INSERT
  5
58F
100
AcDbEntity
  8
0
  6
Continuous
 62
     6
100
AcDbBlockReference
  2
*B70
 10
0.0
 20
0.0
 30
0.0
  0
INSERT
  5
594
100
AcDbEntity
  8
TEXT
  6
Continuous
 62
     0
100
AcDbBlockReference
  2
*B71
 10
0.0
 20
0.0
 30
0.0
  0
INSERT
  5
599
100
AcDbEntity
  8
TEXT
  6
Continuous
 62
     0
100
AcDbBlockReference
  2
*B72
 10
0.0
 20
0.0
 30
0.0
  0
INSERT
  5
59E
100
AcDbEntity
  8
TEXT
  6
Continuous
 62
     0
100
AcDbBlockReference
  2
*B73
 10
0.0
 20
0.0
 30
0.0
  0
INSERT
  5
5A3
100
AcDbEntity
  8
TEXT
  6
Continuous
 62
     0
100
AcDbBlockReference
  2
*B74
 10
0.0
 20
0.0
 30
0.0
  0
INSERT
  5
5A8
100
AcDbEntity
  8
TEXT
  6
Continuous
 62
     0
100
AcDbBlockReference
  2
*B75
 10
0.0
 20
0.0
 30
0.0
  0
INSERT
  5
5AD
100
AcDbEntity
  8
TEXT
  6
Continuous
 62
     0
100
AcDbBlockReference
  2
*B76
 10
0.0
 20
0.0
 30
0.0
  0
INSERT
  5
5B2
100
AcDbEntity
  8
TEXT
  6
Continuous
 62
     0
100
AcDbBlockReference
  2
*B77
 10
0.0
 20
0.0
 30
0.0
  0
INSERT
  5
5B7
100
AcDbEntity
  8
TEXT
  6
Continuous
 62
     0
100
AcDbBlockReference
  2
*B78
 10
0.0
 20
0.0
 30
0.0
  0
INSERT
  5
5BC
100
AcDbEntity
  8
TEXT
  6
Continuous
 62
     0
100
AcDbBlockReference
  2
*B79
 10
0.0
 20
0.0
 30
0.0
  0
INSERT
  5
5C1
100
AcDbEntity
  8
TEXT
  6
Continuous
 62
     0
100
AcDbBlockReference
  2
*B80
 10
0.0
 20
0.0
 30
0.0
  0
INSERT
  5
5C6
100
AcDbEntity
  8
TEXT
  6
Continuous
 62
     0
100
AcDbBlockReference
  2
*B81
 10
0.0
 20
0.0
 30
0.0
  0
INSERT
  5
5CB
100
AcDbEntity
  8
TEXT
  6
Continuous
 62
     0
100
AcDbBlockReference
  2
*B82
 10
0.0
 20
0.0
 30
0.0
  0
INSERT
  5
5D0
100
AcDbEntity
  8
TEXT
  6
Continuous
 62
     0
100
AcDbBlockReference
  2
*B83
 10
0.0
 20
0.0
 30
0.0
  0
INSERT
  5
5D5
100
AcDbEntity
  8
TEXT
  6
Continuous
 62
     0
100
AcDbBlockReference
  2
*B84
 10
0.0
 20
0.0
 30
0.0
  0
INSERT
  5
5DA
100
AcDbEntity
  8
TEXT
  6
Continuous
 62
     0
100
AcDbBlockReference
  2
*B85
 10
0.0
 20
0.0
 30
0.0
  0
INSERT
  5
5DF
100
AcDbEntity
  8
TEXT
  6
Continuous
 62
     0
100
AcDbBlockReference
  2
*B86
 10
0.0
 20
0.0
 30
0.0
  0
INSERT
  5
5E4
100
AcDbEntity
  8
TEXT
  6
Continuous
 62
     0
100
AcDbBlockReference
  2
*B87
 10
0.0
 20
0.0
 30
0.0
  0
INSERT
  5
5E9
100
AcDbEntity
  8
TEXT
  6
Continuous
 62
     0
100
AcDbBlockReference
  2
*B88
 10
0.0
 20
0.0
 30
0.0
  0
INSERT
  5
5EE
100
AcDbEntity
  8
TEXT
  6
Continuous
 62
     0
100
AcDbBlockReference
  2
*B89
 10
0.0
 20
0.0
 30
0.0
  0
INSERT
  5
5F3
100
AcDbEntity
  8
TEXT
  6
Continuous
 62
     0
100
AcDbBlockReference
  2
*B90
 10
0.0
 20
0.0
 30
0.0
  0
INSERT
  5
5F8
100
AcDbEntity
  8
TEXT
  6
Continuous
 62
     0
100
AcDbBlockReference
  2
*B91
 10
0.0
 20
0.0
 30
0.0
  0
INSERT
  5
5FD
100
AcDbEntity
  8
TEXT
  6
Continuous
 62
     0
100
AcDbBlockReference
  2
*B92
 10
0.0
 20
0.0
 30
0.0
  0
INSERT
  5
602
100
AcDbEntity
  8
TEXT
  6
Continuous
 62
     0
100
AcDbBlockReference
  2
*B93
 10
0.0
 20
0.0
 30
0.0
  0
INSERT
  5
607
100
AcDbEntity
  8
TEXT
  6
Continuous
 62
     0
100
AcDbBlockReference
  2
*B94
 10
0.0
 20
0.0
 30
0.0
  0
INSERT
  5
60C
100
AcDbEntity
  8
TEXT
  6
Continuous
 62
     0
100
AcDbBlockReference
  2
*B95
 10
0.0
 20
0.0
 30
0.0
  0
INSERT
  5
611
100
AcDbEntity
  8
TEXT
  6
Continuous
 62
     0
100
AcDbBlockReference
  2
*B96
 10
0.0
 20
0.0
 30
0.0
  0
INSERT
  5
616
100
AcDbEntity
  8
TEXT
  6
Continuous
 62
     0
100
AcDbBlockReference
  2
*B97
 10
0.0
 20
0.0
 30
0.0
  0
INSERT
  5
61B
100
AcDbEntity
  8
TEXT
  6
Continuous
 62
     0
100
AcDbBlockReference
  2
*B98
 10
0.0
 20
0.0
 30
0.0
  0
INSERT
  5
620
100
AcDbEntity
  8
TEXT
  6
Continuous
 62
     0
100
AcDbBlockReference
  2
*B99
 10
0.0
 20
0.0
 30
0.0
  0
INSERT
  5
625
100
AcDbEntity
  8
TEXT
  6
Continuous
 62
     0
100
AcDbBlockReference
  2
*B100
 10
0.0
 20
0.0
 30
0.0
  0
ENDSEC
  0
SECTION
  2
OBJECTS
  0
DICTIONARY
  5
19
100
AcDbDictionary
280
     0
281
     1
  3
ACAD_GROUP
350
1A
  3
ACAD_MLINESTYLE
350
1B
  3
ACAD_LAYOUT
350
1E
  3
ACAD_PLOTSETTINGS
350
22
  3
ACAD_PLOTSTYLENAME
350
1F
  3
ACAD_WIPEOUT_VARS
350
23
  0
DICTIONARY
  5
1A
102
{ACAD_REACTORS
330
19
102
}
100
AcDbDictionary
280
     0
281
     1
  0
DICTIONARY
  5
1B
102
{ACAD_REACTORS
330
19
102
}
100
AcDbDictionary
280
     0
281
     1
  3
Standard
350
1C
  0
MLINESTYLE
  5
1C
102
{ACAD_REACTORS
330
1B
102
}
100
AcDbMlineStyle
  2
Standard
 70
     0
  3

 62
     0
 51
90.0
 52
90.0
 71
     2
 49
0.5
 62
   256
  6
BYLAYER
 49
-0.5
 62
   256
  6
BYLAYER
  0
ACDBDICTIONARYWDFLT
  5
1F
102
{ACAD_REACTORS
330
19
102
}
100
AcDbDictionary
281
     1
  3
Normal
350
1D
100
AcDbDictionaryWithDefault
340
1D
  0
ACDBPLACEHOLDER
  5
1D
102
{ACAD_REACTORS
330
1F
102
}
  0
LAYOUT
  5
20
102
{ACAD_REACTORS
330
1E
102
}
100
AcDbPlotSettings
  1

  2

  4

  6

 40
0.0
 41
0.0
 42
0.0
 43
0.0
 44
0.0
 45
0.0
 46
0.0
 47
0.0
 48
0.0
 49
0.0
140
0.0
141
0.0
142
1.0
143
1.0
 70
     0
 72
     0
 73
     0
 74
     0
  7

 75
     0
147
1.0
148
0.0
149
0.0
100
AcDbLayout
  1
Model
 70
     0
 71
     0
 10
0.0
 20
0.0
 11
0.0
 21
0.0
 12
0.0
 22
0.0
 32
0.0
 14
0.0
 24
0.0
 34
0.0
 15
0.0
 25
0.0
 35
0.0
146
0.0
 13
0.0
 23
0.0
 33
0.0
 16
0.0
 26
0.0
 36
0.0
 17
0.0
 27
0.0
 37
0.0
 76
     0
330
A
331
0
345
0
346
0
  0
LAYOUT
  5
21
102
{ACAD_REACTORS
330
1E
102
}
100
AcDbPlotSettings
  1

  2

  4

  6

 40
0.0
 41
0.0
 42
0.0
 43
0.0
 44
0.0
 45
0.0
 46
0.0
 47
0.0
 48
0.0
 49
0.0
140
0.0
141
0.0
142
1.0
143
1.0
 70
     0
 72
     0
 73
     0
 74
     0
  7

 75
     0
147
1.0
148
0.0
149
0.0
100
AcDbLayout
  1
Layout1
 70
     0
 71
     0
 10
0.0
 20
0.0
 11
0.0
 21
0.0
 12
0.0
 22
0.0
 32
0.0
 14
0.0
 24
0.0
 34
0.0
 15
0.0
 25
0.0
 35
0.0
146
0.0
 13
0.0
 23
0.0
 33
0.0
 16
0.0
 26
0.0
 36
0.0
 17
0.0
 27
0.0
 37
0.0
 76
     0
330
B
331
0
345
0
346
0
  0
DICTIONARY
  5
1E
102
{ACAD_REACTORS
330
19
102
}
100
AcDbDictionary
280
     0
281
     1
  3
Layout1
350
21
  3
Model
350
20
  0
DICTIONARY
  5
22
102
{ACAD_REACTORS
330
19
102
}
100
AcDbDictionary
280
     0
281
     1
  0
WIPEOUTVARIABLES
  5
23
100
AcDbWipeoutVariables
 70
     1
  0
ENDSEC
  0
EOF
