  0
SECTION
  2
HEADER
  9
$ACADVER
  1
AC1015
  9
$ACADMAINTVER
 70
     6
  9
$DWGCODEPAGE
  3
DOS850
  9
$INSBASE
 10
0.0
 20
0.0
 30
0.0
  9
$EXTMIN
 10
0.0
 20
0.0
 30
0.0
  9
$EXTMAX
 10
420.0
 20
297.0
 30
0.0
  9
$LIMMIN
 10
0.0
 20
0.0
  9
$LIMMAX
 10
420.0
 20
297.0
  9
$ORTHOMODE
 70
     0
  9
$REGENMODE
 70
     1
  9
$FILLMODE
 70
     1
  9
$QTEXTMODE
 70
     0
  9
$MIRRTEXT
 70
     1
  9
$LTSCALE
 40
25.4
  9
$ATTMODE
 70
     1
  9
$TEXTSIZE
 40
3.5
  9
$TRACEWID
 40
0.05
  9
$TEXTSTYLE
  7
Standard
  9
$CLAYER
  8
0
  9
$CELTYPE
  6
Continuous
  9
$CECOLOR
 62
   256
  9
$CELTSCALE
 40
1.0
  9
$DISPSILH
 70
     0
  9
$DIMSCALE
 40
1.0
  9
$DIMASZ
 40
5.0
  9
$DIMEXO
 40
3.0
  9
$DIMDLI
 40
0.38
  9
$DIMRND
 40
0.0
  9
$DIMDLE
 40
0.0
  9
$DIMEXE
 40
2.0
  9
$DIMTP
 40
0.0
  9
$DIMTM
 40
0.0
  9
$DIMTXT
 40
3.5
  9
$DIMCEN
 40
4.0
  9
$DIMTSZ
 40
0.0
  9
$DIMTOL
 70
     0
  9
$DIMLIM
 70
     0
  9
$DIMTIH
 70
     1
  9
$DIMTOH
 70
     1
  9
$DIMSE1
 70
     0
  9
$DIMSE2
 70
     0
  9
$DIMTAD
 70
     0
  9
$DIMZIN
 70
     0
  9
$DIMBLK
  1

  9
$DIMASO
 70
     1
  9
$DIMSHO
 70
     1
  9
$DIMPOST
  1

  9
$DIMAPOST
  1

  9
$DIMALT
 70
     0
  9
$DIMALTD
 70
     2
  9
$DIMALTF
 40
25.4
  9
$DIMLFAC
 40
1.0
  9
$DIMTOFL
 70
     0
  9
$DIMTVP
 40
0.0
  9
$DIMTIX
 70
     0
  9
$DIMSOXD
 70
     0
  9
$DIMSAH
 70
     0
  9
$DIMBLK1
  1

  9
$DIMBLK2
  1

  9
$DIMSTYLE
  2
Standard
  9
$DIMCLRD
 70
     0
  9
$DIMCLRE
 70
     0
  9
$DIMCLRT
 70
     0
  9
$DIMTFAC
 40
1.0
  9
$DIMGAP
 40
1.0
  9
$DIMJUST
 70
     0
  9
$DIMSD1
 70
     0
  9
$DIMSD2
 70
     0
  9
$DIMTOLJ
 70
     1
  9
$DIMTZIN
 70
     0
  9
$DIMALTZ
 70
     0
  9
$DIMALTTZ
 70
     0
  9
$DIMUPT
 70
     0
  9
$DIMDEC
 70
     4
  9
$DIMTDEC
 70
     4
  9
$DIMALTU
 70
     2
  9
$DIMALTTD
 70
     2
  9
$DIMTXSTY
  7
Standard
  9
$DIMAUNIT
 70
     0
  9
$DIMADEC
 70
     0
  9
$DIMALTRND
 40
0.0
  9
$DIMAZIN
 70
     0
  9
$DIMDSEP
 70
     0
  9
$DIMATFIT
 70
     3
  9
$DIMFRAC
 70
     0
  9
$DIMLDRBLK
  1

  9
$DIMLUNIT
 70
     2
  9
$DIMLWD
 70
     0
  9
$DIMLWE
 70
     0
  9
$DIMTMOVE
 70
     0
  9
$LUNITS
 70
     2
  9
$LUPREC
 70
     4
  9
$SKETCHINC
 40
0.1
  9
$FILLETRAD
 40
0.0
  9
$AUNITS
 70
     0
  9
$AUPREC
 70
     0
  9
$MENU
  1
acad
  9
$ELEVATION
 40
0.0
  9
$PELEVATION
 40
0.0
  9
$THICKNESS
 40
0.0
  9
$LIMCHECK
 70
     0
  9
$CHAMFERA
 40
0.0
  9
$CHAMFERB
 40
0.0
  9
$CHAMFERC
 40
0.0
  9
$CHAMFERD
 40
0.0
  9
$SKPOLY
 70
     0
  9
$TDCREATE
 40
0.000000000
  9
$TDUCREATE
 40
0.000000000
  9
$TDUPDATE
 40
0.000000000
  9
$TDUUPDATE
 40
0.000000000
  9
$TDINDWG
 40
0.0000000000
  9
$TDUSRTIMER
 40
0.0000000000
  9
$USRTIMER
 70
     1
  9
$ANGBASE
 50
0.0
  9
$ANGDIR
 70
     0
  9
$PDMODE
 70
     0
  9
$PDSIZE
 40
0.0
  9
$PLINEWID
 40
0.0
  9
$SPLFRAME
 70
     0
  9
$SPLINETYPE
 70
     6
  9
$SPLINESEGS
 70
     8
  9
$HANDSEED
  5
4C3
  9
$SURFTAB1
 70
     6
  9
$SURFTAB2
 70
     6
  9
$SURFTYPE
 70
     6
  9
$SURFU
 70
     6
  9
$SURFV
 70
     6
  9
$UCSBASE
  2

  9
$UCSNAME
  2

  9
$UCSORG
 10
0.0
 20
0.0
 30
0.0
  9
$UCSXDIR
 10
1.0
 20
0.0
 30
0.0
  9
$UCSYDIR
 10
0.0
 20
1.0
 30
0.0
  9
$UCSORTHOREF
  2

  9
$UCSORTHOVIEW
 70
     0
  9
$UCSORGTOP
 10
0.0
 20
0.0
 30
0.0
  9
$UCSORGBOTTOM
 10
0.0
 20
0.0
 30
0.0
  9
$UCSORGLEFT
 10
0.0
 20
0.0
 30
0.0
  9
$UCSORGRIGHT
 10
0.0
 20
0.0
 30
0.0
  9
$UCSORGFRONT
 10
0.0
 20
0.0
 30
0.0
  9
$UCSORGBACK
 10
0.0
 20
0.0
 30
0.0
  9
$PUCSBASE
  2

  9
$PUCSNAME
  2

  9
$PUCSORG
 10
0.0
 20
0.0
 30
0.0
  9
$PUCSXDIR
 10
1.0
 20
0.0
 30
0.0
  9
$PUCSYDIR
 10
0.0
 20
1.0
 30
0.0
  9
$PUCSORTHOREF
  2

  9
$PUCSORTHOVIEW
 70
     0
  9
$PUCSORGTOP
 10
0.0
 20
0.0
 30
0.0
  9
$PUCSORGBOTTOM
 10
0.0
 20
0.0
 30
0.0
  9
$PUCSORGLEFT
 10
0.0
 20
0.0
 30
0.0
  9
$PUCSORGRIGHT
 10
0.0
 20
0.0
 30
0.0
  9
$PUCSORGFRONT
 10
0.0
 20
0.0
 30
0.0
  9
$PUCSORGBACK
 10
0.0
 20
0.0
 30
0.0
  9
$USERI1
 70
     0
  9
$USERI2
 70
     0
  9
$USERI3
 70
     0
  9
$USERI4
 70
     0
  9
$USERI5
 70
     0
  9
$USERR1
 40
0.0
  9
$USERR2
 40
0.0
  9
$USERR3
 40
0.0
  9
$USERR4
 40
0.0
  9
$USERR5
 40
0.0
  9
$WORLDVIEW
 70
     1
  9
$SHADEDGE
 70
     3
  9
$SHADEDIF
 70
    70
  9
$TILEMODE
 70
     1
  9
$MAXACTVP
 70
    16
  9
$PINSBASE
 10
0.0
 20
0.0
 30
0.0
  9
$PLIMCHECK
 70
     0
  9
$PEXTMIN
 10
1.000000E+20
 20
1.000000E+20
 30
1.000000E+20
  9
$PEXTMAX
 10
-1.000000E+20
 20
-1.000000E+20
 30
-1.000000E+20
  9
$PLIMMIN
 10
0.0
 20
0.0
  9
$PLIMMAX
 10
420.0
 20
297.0
  9
$UNITMODE
 70
     0
  9
$VISRETAIN
 70
     0
  9
$PLINEGEN
 70
     1
  9
$PSLTSCALE
 70
     0
  9
$TREEDEPTH
 70
  3020
  9
$CMLSTYLE
  2
Standard
  9
$CMLJUST
 70
     0
  9
$CMLSCALE
 40
1.0
  9
$PROXYGRAPHICS
 70
     0
  9
$MEASUREMENT
 70
     0
  9
$CELWEIGHT
370
     0
  9
$ENDCAPS
280
     0
  9
$JOINSTYLE
280
     0
  9
$LWDISPLAY
290
     0
  9
$INSUNITS
 70
     0
  9
$HYPERLINKBASE
  1

  9
$XEDIT
290
     1
  9
$CEPSNTYPE
380
     0
  9
$PSTYLEMODE
290
     0
  9
$FINGERPRINTGUID
  2

  9
$VERSIONGUID
  2

  9
$EXTNAMES
290
     1
  9
$PSVPSCALE
 40
0.0
  0
ENDSEC
  0
SECTION
  2
CLASSES
  0
CLASS
  1
LWPOLYLINE
  2
AcDbPolyline
  3
"AutoCAD"
 90
        0
280
     0
281
     1
  0
CLASS
  1
IMAGE
  2
AcDbRasterImage
  3
ISM
 90
      127
280
     0
281
     1
  0
CLASS
  1
OLE2FRAME
  2
AcDbOle2Frame
  3
""
 90
        0
280
     0
281
     1
  0
CLASS
  1
HATCH
  2
AcDbHatch
  3
"ACAD_SEDONA"
 90
        0
280
     0
281
     1
  0
CLASS
  1
DICTIONARYVAR
  2
AcDbDictionaryVar
  3
"AutoCAD"
 90
        0
280
     0
281
     0
  0
CLASS
  1
RASTERVARIABLES
  2
AcDbRasterVariables
  3
ISM
 90
        0
280
     0
281
     0
  0
CLASS
  1
IMAGEDEF
  2
AcDbRasterImageDef
  3
ISM
 90
        0
280
     0
281
     0
  0
CLASS
  1
IMAGEDEF_REACTOR
  2
AcDbRasterImageDefReactor
  3
ISM
 90
        1
280
     0
281
     0
  0
CLASS
  1
IDBUFFER
  2
AcDbIdBuffer
  3
"Acad"
 90
        0
280
     0
281
     0
  0
CLASS
  1
SPATIAL_FILTER
  2
AcDbSpatialFilter
  3
"Acad"
 90
        0
280
     0
281
     0
  0
CLASS
  1
XRECORD
  2
AcDbXrecord
  3
"<Built In>"
 90
        0
280
     0
281
     0
  0
CLASS
  1
SORTENTSTABLE
  2
AcDbSortentsTable
  3
"AutoCAD"
 90
        0
280
     0
281
     0
  0
CLASS
  1
LAYER_INDEX
  2
AcDbLayerIndex
  3
"Acad"
 90
        0
280
     0
281
     0
  0
CLASS
  1
SPATIAL_INDEX
  2
AcDbSpatialIndex
  3
"Acad"
 90
        0
280
     0
281
     0
  0
CLASS
  1
OBJECT_PTR
  2
CAseDLPNTableRecord
  3
"ASE-LPNTableRecord"
 90
        1
280
     0
281
     0
  0
CLASS
  1
LAYOUT
  2
AcDbLayout
  3
"AutoCAD 2000"
 90
        1
280
     0
281
     0
  0
CLASS
  1
PLOTSETTINGS
  2
AcDbPlotSettings
  3
"AutoCAD 2000"
 90
        1
280
     0
281
     0
  0
CLASS
  1
ACDBDICTIONARYWDFLT
  2
AcDbDictionaryWithDefault
  3
"AutoCAD 2000"
 90
        1
280
     0
281
     0
  0
CLASS
  1
ACDBPLACEHOLDER
  2
AcDbPlaceHolder
  3
"AutoCAD 2000"
 90
        1
280
     0
281
     0
  0
CLASS
  1
VBA_PROJECT
  2
AcDbVbaProject
  3
"acadvba"
 90
        1
280
     0
281
     0
  0
CLASS
  1
WIPEOUT
  2
AcDbWipeout
  3
WipeOut|AutoCAD Express Tool|expresstools@autodesk.com
 90
      127
280
     0
281
     1
  0
CLASS
  1
WIPEOUTVARIABLES
  2
AcDbWipeoutVariables
  3
WipeOut|AutoCAD Express Tool|expresstools@autodesk.com
 90
        0
280
     0
281
     0
  0
CLASS
  1
RTEXT
  2
RText
  3
RText|AutoCAD Express Tool|expresstools@autodesk.com
 90
        0
280
     0
281
     1
  0
CLASS
  1
ARCALIGNEDTEXT
  2
AcDbArcAlignedText
  3
ATEXT|AutoCAD Express Tool|expresstools@autodesk.com
 90
        0
280
     0
281
     1
  0
ENDSEC
  0
SECTION
  2
TABLES
  0
TABLE
  2
VPORT
  5
7
100
AcDbSymbolTable
 70
     1
  0
VPORT
  5
15
100
AcDbSymbolTableRecord
100
AcDbViewportTableRecord
  2
*ACTIVE
 70
     0
 10
0.0
 20
0.0
 11
1.0
 21
1.0
 12
6.591288
 22
4.579184
 13
0.0
 23
0.0
 14
1.0
 24
1.0
 15
0.0
 25
0.0
 16
0.0
 26
0.0
 36
1.0
 17
0.0
 27
0.0
 37
0.0
 40
9.158369
 41
0.688564
 42
50.0
 43
0.0
 44
0.0
 50
0.0
 51
0.0
 71
     0
 72
   100
 73
     1
 74
     1
 75
     0
 76
     0
 77
     0
 78
     0
281
     0
 65
     0
110
0.0
120
0.0
130
0.0
111
1.0
121
0.0
131
0.0
112
0.0
122
1.0
132
0.0
345
0
346
0
 79
     0
146
0.0
  0
ENDTAB
  0
TABLE
  2
LTYPE
  5
4
100
AcDbSymbolTable
 70
     7
  0
LTYPE
  5
11
100
AcDbSymbolTableRecord
100
AcDbLinetypeTableRecord
  2
ByBlock
 70
    64
  3

 72
    65
 73
     0
 40
0.0
  0
LTYPE
  5
12
100
AcDbSymbolTableRecord
100
AcDbLinetypeTableRecord
  2
ByLayer
 70
    64
  3

 72
    65
 73
     0
 40
0.0
  0
LTYPE
  5
13
100
AcDbSymbolTableRecord
100
AcDbLinetypeTableRecord
  2
Continuous
 70
    64
  3
Solid line
 72
    65
 73
     0
 40
0.0
  0
LTYPE
  5
24
100
AcDbSymbolTableRecord
100
AcDbLinetypeTableRecord
  2
HIDDEN
 70
    64
  3
_ _ _ _ _ _ _ _ _ _ _ _ _ _ _ _ _ _ _ _ _ _ _ _
 72
    65
 73
     2
 40
0.1875
 49
0.125
 74
     0
 49
-0.0625
 74
     0
  0
LTYPE
  5
25
100
AcDbSymbolTableRecord
100
AcDbLinetypeTableRecord
  2
DOTTED
 70
    64
  3
...............................................
 72
    65
 73
     2
 40
0.125
 49
0.0
 74
     0
 49
-0.125
 74
     0
  0
LTYPE
  5
26
100
AcDbSymbolTableRecord
100
AcDbLinetypeTableRecord
  2
CENTER
 70
    64
  3
____ _ ____ _ ____ _ ____ _ ____ _ ____ _ ____ 
 72
    65
 73
     4
 40
1.125
 49
0.75
 74
     0
 49
-0.125
 74
     0
 49
0.125
 74
     0
 49
-0.125
 74
     0
  0
LTYPE
  5
27
100
AcDbSymbolTableRecord
100
AcDbLinetypeTableRecord
  2
PHANTOM
 70
    64
  3
______  __  __  ______  __  __  ______  __  __ 
 72
    65
 73
     6
 40
1.25
 49
0.625
 74
     0
 49
-0.125
 74
     0
 49
0.125
 74
     0
 49
-0.125
 74
     0
 49
0.125
 74
     0
 49
-0.125
 74
     0
  0
ENDTAB
  0
TABLE
  2
LAYER
  5
2
100
AcDbSymbolTable
 70
     2
  0
LAYER
  5
14
100
AcDbSymbolTableRecord
100
AcDbLayerTableRecord
  2
0
 70
     0
 62
     7
  6
Continuous
290
     1
370
    -3
390
1D
  0
LAYER
  5
28
100
AcDbSymbolTableRecord
100
AcDbLayerTableRecord
  2
TEXT
 70
     0
 62
     8
  6
Continuous
290
     1
370
    -3
390
1F
  0
ENDTAB
  0
TABLE
  2
STYLE
  5
3
100
AcDbSymbolTable
 70
     1
  0
STYLE
  5
17
100
AcDbSymbolTableRecord
100
AcDbTextStyleTableRecord
  2
Standard
 70
     0
 40
0.0
 41
1.0
 50
0.0
 71
     0
 42
0.0
  3
txt
  4

  0
ENDTAB
  0
TABLE
  2
VIEW
  5
5
100
AcDbSymbolTable
 70
     0
  0
ENDTAB
  0
TABLE
  2
UCS
  5
6
100
AcDbSymbolTable
 70
     0
  0
ENDTAB
  0
TABLE
  2
APPID
  5
8
100
AcDbSymbolTable
 70
     1
  0
APPID
  5
16
100
AcDbSymbolTableRecord
100
AcDbRegAppTableRecord
  2
ACAD
 70
     0
  0
ENDTAB
  0
TABLE
  2
DIMSTYLE
  5
9
100
AcDbSymbolTable
 70
     1
100
AcDbDimStyleTable
 71
     0
  0
DIMSTYLE
105
18
100
AcDbSymbolTableRecord
100
AcDbDimStyleTableRecord
  2
Standard
 70
     0
  3

  4

 40
1.0
 41
0.18
 42
0.0625
 43
0.38
 44
0.18
 45
0.0
 46
0.0
 47
0.0
 48
0.0
 71
     0
 72
     0
 73
     1
 74
     1
 75
     0
 76
     0
 77
     0
 78
     0
 79
     0
140
0.18
141
0.09
142
0.0
143
25.4
144
1.0
145
0.0
146
1.0
147
0.09
148
0.0
170
     0
171
     2
172
     0
173
     0
174
     0
175
     0
176
     0
177
     0
178
     0
179
     0
271
     4
272
     4
273
     2
274
     2
275
     0
276
     0
277
     2
278
    46
279
     0
280
     0
281
     0
282
     0
283
     1
284
     0
285
     0
286
     0
288
     0
340
17
341
0
342
0
343
0
344
0
371
    -2
372
    -2
  0
ENDTAB
  0
TABLE
  2
BLOCK_RECORD
  5
1
100
AcDbSymbolTable
 70
    87
  0
BLOCK_RECORD
  5
A
100
AcDbSymbolTableRecord
100
AcDbBlockTableRecord
  2
*MODEL_SPACE
340
20
  0
BLOCK_RECORD
  5
B
100
AcDbSymbolTableRecord
100
AcDbBlockTableRecord
  2
*PAPER_SPACE
340
21
  0
BLOCK_RECORD
  5
29
100
AcDbSymbolTableRecord
100
AcDbBlockTableRecord
  2
*B0
340
0
  0
BLOCK_RECORD
  5
2C
100
AcDbSymbolTableRecord
100
AcDbBlockTableRecord
  2
*B1
340
0
  0
BLOCK_RECORD
  5
1C8
100
AcDbSymbolTableRecord
100
AcDbBlockTableRecord
  2
*B2
340
0
  0
BLOCK_RECORD
  5
276
100
AcDbSymbolTableRecord
100
AcDbBlockTableRecord
  2
*B3
340
0
  0
BLOCK_RECORD
  5
27C
100
AcDbSymbolTableRecord
100
AcDbBlockTableRecord
  2
*B4
340
0
  0
BLOCK_RECORD
  5
287
100
AcDbSymbolTableRecord
100
AcDbBlockTableRecord
  2
*B5
340
0
  0
BLOCK_RECORD
  5
28A
100
AcDbSymbolTableRecord
100
AcDbBlockTableRecord
  2
*B6
340
0
  0
BLOCK_RECORD
  5
290
100
AcDbSymbolTableRecord
100
AcDbBlockTableRecord
  2
*B7
340
0
  0
BLOCK_RECORD
  5
29B
100
AcDbSymbolTableRecord
100
AcDbBlockTableRecord
  2
*B8
340
0
  0
BLOCK_RECORD
  5
29E
100
AcDbSymbolTableRecord
100
AcDbBlockTableRecord
  2
*B9
340
0
  0
BLOCK_RECORD
  5
2A5
100
AcDbSymbolTableRecord
100
AcDbBlockTableRecord
  2
*B10
340
0
  0
BLOCK_RECORD
  5
2AC
100
AcDbSymbolTableRecord
100
AcDbBlockTableRecord
  2
*B11
340
0
  0
BLOCK_RECORD
  5
2B3
100
AcDbSymbolTableRecord
100
AcDbBlockTableRecord
  2
*B12
340
0
  0
BLOCK_RECORD
  5
2BA
100
AcDbSymbolTableRecord
100
AcDbBlockTableRecord
  2
*B13
340
0
  0
BLOCK_RECORD
  5
2C1
100
AcDbSymbolTableRecord
100
AcDbBlockTableRecord
  2
*B14
340
0
  0
BLOCK_RECORD
  5
2C8
100
AcDbSymbolTableRecord
100
AcDbBlockTableRecord
  2
*B15
340
0
  0
BLOCK_RECORD
  5
2CF
100
AcDbSymbolTableRecord
100
AcDbBlockTableRecord
  2
*B16
340
0
  0
BLOCK_RECORD
  5
2D6
100
AcDbSymbolTableRecord
100
AcDbBlockTableRecord
  2
*B17
340
0
  0
BLOCK_RECORD
  5
2DD
100
AcDbSymbolTableRecord
100
AcDbBlockTableRecord
  2
*B18
340
0
  0
BLOCK_RECORD
  5
2E4
100
AcDbSymbolTableRecord
100
AcDbBlockTableRecord
  2
*B19
340
0
  0
BLOCK_RECORD
  5
2EB
100
AcDbSymbolTableRecord
100
AcDbBlockTableRecord
  2
*B20
340
0
  0
BLOCK_RECORD
  5
2F2
100
AcDbSymbolTableRecord
100
AcDbBlockTableRecord
  2
*B21
340
0
  0
BLOCK_RECORD
  5
2F9
100
AcDbSymbolTableRecord
100
AcDbBlockTableRecord
  2
*B22
340
0
  0
BLOCK_RECORD
  5
300
100
AcDbSymbolTableRecord
100
AcDbBlockTableRecord
  2
*B23
340
0
  0
BLOCK_RECORD
  5
307
100
AcDbSymbolTableRecord
100
AcDbBlockTableRecord
  2
*B24
340
0
  0
BLOCK_RECORD
  5
30E
100
AcDbSymbolTableRecord
100
AcDbBlockTableRecord
  2
*B25
340
0
  0
BLOCK_RECORD
  5
315
100
AcDbSymbolTableRecord
100
AcDbBlockTableRecord
  2
*B26
340
0
  0
BLOCK_RECORD
  5
31E
100
AcDbSymbolTableRecord
100
AcDbBlockTableRecord
  2
*B27
340
0
  0
BLOCK_RECORD
  5
327
100
AcDbSymbolTableRecord
100
AcDbBlockTableRecord
  2
*B28
340
0
  0
BLOCK_RECORD
  5
32C
100
AcDbSymbolTableRecord
100
AcDbBlockTableRecord
  2
*B29
340
0
  0
BLOCK_RECORD
  5
331
100
AcDbSymbolTableRecord
100
AcDbBlockTableRecord
  2
*B30
340
0
  0
BLOCK_RECORD
  5
336
100
AcDbSymbolTableRecord
100
AcDbBlockTableRecord
  2
*B31
340
0
  0
BLOCK_RECORD
  5
33D
100
AcDbSymbolTableRecord
100
AcDbBlockTableRecord
  2
*B32
340
0
  0
BLOCK_RECORD
  5
344
100
AcDbSymbolTableRecord
100
AcDbBlockTableRecord
  2
*B33
340
0
  0
BLOCK_RECORD
  5
34D
100
AcDbSymbolTableRecord
100
AcDbBlockTableRecord
  2
*B34
340
0
  0
BLOCK_RECORD
  5
357
100
AcDbSymbolTableRecord
100
AcDbBlockTableRecord
  2
*B35
340
0
  0
BLOCK_RECORD
  5
35C
100
AcDbSymbolTableRecord
100
AcDbBlockTableRecord
  2
*B36
340
0
  0
BLOCK_RECORD
  5
363
100
AcDbSymbolTableRecord
100
AcDbBlockTableRecord
  2
*B37
340
0
  0
BLOCK_RECORD
  5
36E
100
AcDbSymbolTableRecord
100
AcDbBlockTableRecord
  2
*B38
340
0
  0
BLOCK_RECORD
  5
373
100
AcDbSymbolTableRecord
100
AcDbBlockTableRecord
  2
*B39
340
0
  0
BLOCK_RECORD
  5
37A
100
AcDbSymbolTableRecord
100
AcDbBlockTableRecord
  2
*B40
340
0
  0
BLOCK_RECORD
  5
37F
100
AcDbSymbolTableRecord
100
AcDbBlockTableRecord
  2
*B41
340
0
  0
BLOCK_RECORD
  5
384
100
AcDbSymbolTableRecord
100
AcDbBlockTableRecord
  2
*B42
340
0
  0
BLOCK_RECORD
  5
389
100
AcDbSymbolTableRecord
100
AcDbBlockTableRecord
  2
*B43
340
0
  0
BLOCK_RECORD
  5
390
100
AcDbSymbolTableRecord
100
AcDbBlockTableRecord
  2
*B44
340
0
  0
BLOCK_RECORD
  5
396
100
AcDbSymbolTableRecord
100
AcDbBlockTableRecord
  2
*B45
340
0
  0
BLOCK_RECORD
  5
3B8
100
AcDbSymbolTableRecord
100
AcDbBlockTableRecord
  2
*B46
340
0
  0
BLOCK_RECORD
  5
3BF
100
AcDbSymbolTableRecord
100
AcDbBlockTableRecord
  2
*B47
340
0
  0
BLOCK_RECORD
  5
3C4
100
AcDbSymbolTableRecord
100
AcDbBlockTableRecord
  2
*B48
340
0
  0
BLOCK_RECORD
  5
3CB
100
AcDbSymbolTableRecord
100
AcDbBlockTableRecord
  2
*B49
340
0
  0
BLOCK_RECORD
  5
3D0
100
AcDbSymbolTableRecord
100
AcDbBlockTableRecord
  2
*B50
340
0
  0
BLOCK_RECORD
  5
3D5
100
AcDbSymbolTableRecord
100
AcDbBlockTableRecord
  2
*B51
340
0
  0
BLOCK_RECORD
  5
3DA
100
AcDbSymbolTableRecord
100
AcDbBlockTableRecord
  2
*B52
340
0
  0
BLOCK_RECORD
  5
3DF
100
AcDbSymbolTableRecord
100
AcDbBlockTableRecord
  2
*B53
340
0
  0
BLOCK_RECORD
  5
3EE
100
AcDbSymbolTableRecord
100
AcDbBlockTableRecord
  2
*B54
340
0
  0
BLOCK_RECORD
  5
3FA
100
AcDbSymbolTableRecord
100
AcDbBlockTableRecord
  2
*B55
340
0
  0
BLOCK_RECORD
  5
3FF
100
AcDbSymbolTableRecord
100
AcDbBlockTableRecord
  2
*B56
340
0
  0
BLOCK_RECORD
  5
404
100
AcDbSymbolTableRecord
100
AcDbBlockTableRecord
  2
*B57
340
0
  0
BLOCK_RECORD
  5
425
100
AcDbSymbolTableRecord
100
AcDbBlockTableRecord
  2
*B58
340
0
  0
BLOCK_RECORD
  5
42E
100
AcDbSymbolTableRecord
100
AcDbBlockTableRecord
  2
*B59
340
0
  0
BLOCK_RECORD
  5
434
100
AcDbSymbolTableRecord
100
AcDbBlockTableRecord
  2
*B60
340
0
  0
BLOCK_RECORD
  5
43A
100
AcDbSymbolTableRecord
100
AcDbBlockTableRecord
  2
*B61
340
0
  0
BLOCK_RECORD
  5
440
100
AcDbSymbolTableRecord
100
AcDbBlockTableRecord
  2
*B62
340
0
  0
BLOCK_RECORD
  5
446
100
AcDbSymbolTableRecord
100
AcDbBlockTableRecord
  2
*B63
340
0
  0
BLOCK_RECORD
  5
44C
100
AcDbSymbolTableRecord
100
AcDbBlockTableRecord
  2
*B64
340
0
  0
BLOCK_RECORD
  5
452
100
AcDbSymbolTableRecord
100
AcDbBlockTableRecord
  2
*B65
340
0
  0
BLOCK_RECORD
  5
458
100
AcDbSymbolTableRecord
100
AcDbBlockTableRecord
  2
*B66
340
0
  0
BLOCK_RECORD
  5
45E
100
AcDbSymbolTableRecord
100
AcDbBlockTableRecord
  2
*B67
340
0
  0
BLOCK_RECORD
  5
464
100
AcDbSymbolTableRecord
100
AcDbBlockTableRecord
  2
*B68
340
0
  0
BLOCK_RECORD
  5
469
100
AcDbSymbolTableRecord
100
AcDbBlockTableRecord
  2
*B69
340
0
  0
BLOCK_RECORD
  5
46E
100
AcDbSymbolTableRecord
100
AcDbBlockTableRecord
  2
*B70
340
0
  0
BLOCK_RECORD
  5
473
100
AcDbSymbolTableRecord
100
AcDbBlockTableRecord
  2
*B71
340
0
  0
BLOCK_RECORD
  5
478
100
AcDbSymbolTableRecord
100
AcDbBlockTableRecord
  2
*B72
340
0
  0
BLOCK_RECORD
  5
47D
100
AcDbSymbolTableRecord
100
AcDbBlockTableRecord
  2
*B73
340
0
  0
BLOCK_RECORD
  5
482
100
AcDbSymbolTableRecord
100
AcDbBlockTableRecord
  2
*B74
340
0
  0
BLOCK_RECORD
  5
487
100
AcDbSymbolTableRecord
100
AcDbBlockTableRecord
  2
*B75
340
0
  0
BLOCK_RECORD
  5
48C
100
AcDbSymbolTableRecord
100
AcDbBlockTableRecord
  2
*B76
340
0
  0
BLOCK_RECORD
  5
491
100
AcDbSymbolTableRecord
100
AcDbBlockTableRecord
  2
*B77
340
0
  0
BLOCK_RECORD
  5
496
100
AcDbSymbolTableRecord
100
AcDbBlockTableRecord
  2
*B78
340
0
  0
BLOCK_RECORD
  5
49B
100
AcDbSymbolTableRecord
100
AcDbBlockTableRecord
  2
*B79
340
0
  0
BLOCK_RECORD
  5
4A0
100
AcDbSymbolTableRecord
100
AcDbBlockTableRecord
  2
*B80
340
0
  0
BLOCK_RECORD
  5
4A5
100
AcDbSymbolTableRecord
100
AcDbBlockTableRecord
  2
*B81
340
0
  0
BLOCK_RECORD
  5
4AA
100
AcDbSymbolTableRecord
100
AcDbBlockTableRecord
  2
*B82
340
0
  0
BLOCK_RECORD
  5
4AF
100
AcDbSymbolTableRecord
100
AcDbBlockTableRecord
  2
*B83
340
0
  0
BLOCK_RECORD
  5
4B4
100
AcDbSymbolTableRecord
100
AcDbBlockTableRecord
  2
*B84
340
0
  0
BLOCK_RECORD
  5
4B9
100
AcDbSymbolTableRecord
100
AcDbBlockTableRecord
  2
*B85
340
0
  0
BLOCK_RECORD
  5
4BE
100
AcDbSymbolTableRecord
100
AcDbBlockTableRecord
  2
*B86
340
0
  0
ENDTAB
  0
ENDSEC
  0
SECTION
  2
BLOCKS
  0
BLOCK
  5
D
100
AcDbEntity
  8
0
100
AcDbBlockBegin
  2
*MODEL_SPACE
 70
     0
 10
0.0
 20
0.0
 30
0.0
  3
*MODEL_SPACE
  1

  0
ENDBLK
  5
E
100
AcDbEntity
  8
0
100
AcDbBlockEnd
  0
BLOCK
  5
F
100
AcDbEntity
 67
     1
  8
0
100
AcDbBlockBegin
  2
*PAPER_SPACE
 70
     0
 10
0.0
 20
0.0
 30
0.0
  3
*PAPER_SPACE
  1

  0
ENDBLK
  5
10
100
AcDbEntity
 67
     1
  8
0
100
AcDbBlockEnd
  0
BLOCK
  5
2A
100
AcDbEntity
  8
0
100
AcDbBlockBegin
  2
*B0
 70
     0
 10
0.0
 20
0.0
 30
0.0
  3
*B0
  1

  0
ENDBLK
  5
2B
100
AcDbEntity
  8
0
100
AcDbBlockEnd
  0
BLOCK
  5
2D
100
AcDbEntity
  8
0
100
AcDbBlockBegin
  2
*B1
 70
     0
 10
0.0
 20
0.0
 30
0.0
  3
*B1
  1

  0
LINE
  5
2E
100
AcDbEntity
  8
0
  6
HIDDEN
 62
   174
100
AcDbLine
 10
109.762876
 20
102.070225
 30
0.0
 11
109.762876
 21
102.132725
 31
0.0
  0
LINE
  5
2F
100
AcDbEntity
  8
0
  6
HIDDEN
 62
   174
100
AcDbLine
 10
101.262876
 20
102.070225
 30
0.0
 11
101.262876
 21
102.132725
 31
0.0
  0
LINE
  5
30
100
AcDbEntity
  8
0
  6
HIDDEN
 62
   174
100
AcDbLine
 10
267.154937
 20
102.070225
 30
0.0
 11
267.154937
 21
102.132725
 31
0.0
  0
LINE
  5
31
100
AcDbEntity
  8
0
  6
HIDDEN
 62
   174
100
AcDbLine
 10
275.654937
 20
102.070225
 30
0.0
 11
275.654937
 21
102.132725
 31
0.0
  0
LINE
  5
32
100
AcDbEntity
  8
0
  6
HIDDEN
 62
   174
100
AcDbLine
 10
275.154937
 20
102.070225
 30
0.0
 11
275.154937
 21
102.132725
 31
0.0
  0
LINE
  5
33
100
AcDbEntity
  8
0
  6
HIDDEN
 62
   174
100
AcDbLine
 10
101.762876
 20
102.070225
 30
0.0
 11
101.762876
 21
102.132725
 31
0.0
  0
LINE
  5
34
100
AcDbEntity
  8
0
  6
HIDDEN
 62
   174
100
AcDbLine
 10
267.654937
 20
102.070225
 30
0.0
 11
267.654937
 21
102.132725
 31
0.0
  0
LINE
  5
35
100
AcDbEntity
  8
0
  6
HIDDEN
 62
   174
100
AcDbLine
 10
109.262876
 20
102.070225
 30
0.0
 11
109.262876
 21
102.132725
 31
0.0
  0
LINE
  5
36
100
AcDbEntity
  8
0
  6
HIDDEN
 62
   174
100
AcDbLine
 10
273.876416
 20
102.132725
 30
0.0
 11
273.876416
 21
102.070225
 31
0.0
  0
LINE
  5
37
100
AcDbEntity
  8
0
  6
HIDDEN
 62
   174
100
AcDbLine
 10
103.041397
 20
102.132725
 30
0.0
 11
103.041397
 21
102.070225
 31
0.0
  0
LINE
  5
38
100
AcDbEntity
  8
0
  6
HIDDEN
 62
   174
100
AcDbLine
 10
268.584601
 20
102.132725
 30
0.0
 11
268.584601
 21
102.070225
 31
0.0
  0
LINE
  5
39
100
AcDbEntity
  8
0
  6
HIDDEN
 62
   174
100
AcDbLine
 10
108.333211
 20
102.132725
 30
0.0
 11
108.333211
 21
102.070225
 31
0.0
  0
LINE
  5
3A
100
AcDbEntity
  8
0
  6
HIDDEN
 62
   174
100
AcDbLine
 10
102.529317
 20
102.132725
 30
0.0
 11
102.529317
 21
102.070225
 31
0.0
  0
LINE
  5
3B
100
AcDbEntity
  8
0
  6
HIDDEN
 62
   174
100
AcDbLine
 10
274.388496
 20
102.132725
 30
0.0
 11
274.388496
 21
102.070225
 31
0.0
  0
LINE
  5
3C
100
AcDbEntity
  8
0
  6
HIDDEN
 62
   174
100
AcDbLine
 10
269.133181
 20
102.132725
 30
0.0
 11
269.133181
 21
102.070225
 31
0.0
  0
LINE
  5
3D
100
AcDbEntity
  8
0
  6
HIDDEN
 62
   174
100
AcDbLine
 10
271.430411
 20
102.132725
 30
0.0
 11
269.30563
 21
102.132725
 31
0.0
  0
LINE
  5
3E
100
AcDbEntity
  8
0
  6
HIDDEN
 62
   174
100
AcDbLine
 10
101.771121
 20
102.132725
 30
0.0
 11
101.288667
 21
102.132725
 31
0.0
  0
LINE
  5
3F
100
AcDbEntity
  8
0
  6
HIDDEN
 62
   174
100
AcDbLine
 10
271.307244
 20
102.132725
 30
0.0
 11
269.140706
 21
102.132725
 31
0.0
  0
LINE
  5
40
100
AcDbEntity
  8
0
  6
HIDDEN
 62
   174
100
AcDbLine
 10
107.784632
 20
102.132725
 30
0.0
 11
105.512876
 21
102.132725
 31
0.0
  0
LINE
  5
41
100
AcDbEntity
  8
0
  6
HIDDEN
 62
   174
100
AcDbLine
 10
105.512876
 20
102.132725
 30
0.0
 11
103.041397
 21
102.132725
 31
0.0
  0
LINE
  5
42
100
AcDbEntity
  8
0
  6
Continuous
 62
   174
100
AcDbLine
 10
304.083906
 20
100.257725
 30
0.0
 11
307.833906
 21
100.257725
 31
0.0
  0
LINE
  5
43
100
AcDbEntity
  8
0
  6
Continuous
 62
   174
100
AcDbLine
 10
72.833906
 20
84.007725
 30
0.0
 11
69.083906
 21
84.007725
 31
0.0
  0
LINE
  5
44
100
AcDbEntity
  8
0
  6
Continuous
 62
   174
100
AcDbLine
 10
69.083906
 20
103.382725
 30
0.0
 11
68.208906
 21
103.382725
 31
0.0
  0
LINE
  5
45
100
AcDbEntity
  8
0
  6
HIDDEN
 62
   174
100
AcDbLine
 10
275.198421
 20
102.132725
 30
0.0
 11
275.111003
 21
102.132725
 31
0.0
  0
LINE
  5
46
100
AcDbEntity
  8
0
  6
HIDDEN
 62
   174
100
AcDbLine
 10
273.922591
 20
102.132725
 30
0.0
 11
271.430411
 21
102.132725
 31
0.0
  0
LINE
  5
47
100
AcDbEntity
  8
0
  6
HIDDEN
 62
   174
100
AcDbLine
 10
109.219122
 20
102.132725
 30
0.0
 11
108.543806
 21
102.132725
 31
0.0
  0
LINE
  5
48
100
AcDbEntity
  8
0
  6
Continuous
 62
   174
100
AcDbLine
 10
307.833906
 20
80.882725
 30
0.0
 11
308.708906
 21
80.882725
 31
0.0
  0
LINE
  5
49
100
AcDbEntity
  8
0
  6
Continuous
 62
   174
100
AcDbLine
 10
69.083906
 20
80.882725
 30
0.0
 11
68.208906
 21
80.882725
 31
0.0
  0
LINE
  5
4A
100
AcDbEntity
  8
0
  6
Continuous
 62
   174
100
AcDbLine
 10
63.458906
 20
82.382725
 30
0.0
 11
64.292974
 21
80.938077
 31
0.0
  0
LINE
  5
4B
100
AcDbEntity
  8
0
  6
HIDDEN
 62
   174
100
AcDbLine
 10
207.23455
 20
56.882725
 30
0.0
 11
205.171952
 21
56.882725
 31
0.0
  0
LINE
  5
4C
100
AcDbEntity
  8
0
  6
Continuous
 62
   174
100
AcDbLine
 10
313.458906
 20
101.882725
 30
0.0
 11
312.624811
 21
103.32742
 31
0.0
  0
LINE
  5
4D
100
AcDbEntity
  8
0
  6
Continuous
 62
   174
100
AcDbLine
 10
72.833906
 20
82.132725
 30
0.0
 11
87.833906
 21
82.132725
 31
0.0
  0
LINE
  5
4E
100
AcDbEntity
  8
0
  6
HIDDEN
 62
   174
100
AcDbLine
 10
167.840323
 20
30.882725
 30
0.0
 11
169.734693
 21
30.882725
 31
0.0
  0
LINE
  5
4F
100
AcDbEntity
  8
0
  6
HIDDEN
 62
   174
100
AcDbLine
 10
169.734693
 20
30.882725
 30
0.0
 11
171.796989
 21
30.882725
 31
0.0
  0
LINE
  5
50
100
AcDbEntity
  8
0
  6
Continuous
 62
   174
100
AcDbLine
 10
209.708125
 20
58.382725
 30
0.0
 11
209.708125
 21
56.882725
 31
0.0
  0
LINE
  5
51
100
AcDbEntity
  8
0
  6
HIDDEN
 62
   174
100
AcDbLine
 10
204.62431
 20
58.382725
 30
0.0
 11
204.726748
 21
58.382725
 31
0.0
  0
LINE
  5
52
100
AcDbEntity
  8
0
  6
HIDDEN
 62
   174
100
AcDbLine
 10
209.742351
 20
58.382725
 30
0.0
 11
209.84479
 21
58.382725
 31
0.0
  0
LINE
  5
53
100
AcDbEntity
  8
0
  6
HIDDEN
 62
   174
100
AcDbLine
 10
275.111003
 20
102.132725
 30
0.0
 11
274.435687
 21
102.132725
 31
0.0
  0
LINE
  5
54
100
AcDbEntity
  8
0
  6
HIDDEN
 62
   174
100
AcDbLine
 10
267.74982
 20
102.132725
 30
0.0
 11
267.662702
 21
102.132725
 31
0.0
  0
LINE
  5
55
100
AcDbEntity
  8
0
  6
HIDDEN
 62
   174
100
AcDbLine
 10
267.662702
 20
102.132725
 30
0.0
 11
267.180548
 21
102.132725
 31
0.0
  0
LINE
  5
56
100
AcDbEntity
  8
0
  6
HIDDEN
 62
   174
100
AcDbLine
 10
109.788694
 20
102.132725
 30
0.0
 11
109.30654
 21
102.132725
 31
0.0
  0
LINE
  5
57
100
AcDbEntity
  8
0
  6
HIDDEN
 62
   174
100
AcDbLine
 10
275.180697
 20
102.132725
 30
0.0
 11
274.414058
 21
102.132725
 31
0.0
  0
LINE
  5
58
100
AcDbEntity
  8
0
  6
HIDDEN
 62
   174
100
AcDbLine
 10
274.388496
 20
102.132725
 30
0.0
 11
273.876416
 21
102.132725
 31
0.0
  0
LINE
  5
59
100
AcDbEntity
  8
0
  6
HIDDEN
 62
   174
100
AcDbLine
 10
109.288516
 20
102.132725
 30
0.0
 11
108.358755
 21
102.132725
 31
0.0
  0
LINE
  5
5A
100
AcDbEntity
  8
0
  6
Continuous
 62
   174
100
AcDbLine
 10
313.458906
 20
82.382725
 30
0.0
 11
312.624839
 21
80.938077
 31
0.0
  0
LINE
  5
5B
100
AcDbEntity
  8
0
  6
HIDDEN
 62
   174
100
AcDbLine
 10
209.271406
 20
56.882725
 30
0.0
 11
209.271406
 21
30.882725
 31
0.0
  0
LINE
  5
5C
100
AcDbEntity
  8
0
  6
HIDDEN
 62
   174
100
AcDbLine
 10
202.958906
 20
58.382725
 30
0.0
 11
202.958906
 21
56.882725
 31
0.0
  0
LINE
  5
5D
100
AcDbEntity
  8
0
  6
HIDDEN
 62
   174
100
AcDbLine
 10
173.958906
 20
58.382725
 30
0.0
 11
173.958906
 21
56.882725
 31
0.0
  0
LINE
  5
5E
100
AcDbEntity
  8
0
  6
Continuous
 62
   174
100
AcDbLine
 10
304.083906
 20
102.132725
 30
0.0
 11
285.333906
 21
102.132725
 31
0.0
  0
LINE
  5
5F
100
AcDbEntity
  8
0
  6
Continuous
 62
   174
100
AcDbLine
 10
72.833906
 20
102.132725
 30
0.0
 11
91.583906
 21
102.132725
 31
0.0
  0
LINE
  5
60
100
AcDbEntity
  8
0
  6
HIDDEN
 62
   174
100
AcDbLine
 10
171.771406
 20
56.882725
 30
0.0
 11
171.771406
 21
30.882725
 31
0.0
  0
LINE
  5
61
100
AcDbEntity
  8
0
  6
HIDDEN
 62
   174
100
AcDbLine
 10
167.646406
 20
56.882725
 30
0.0
 11
167.646406
 21
30.882725
 31
0.0
  0
LINE
  5
62
100
AcDbEntity
  8
0
  6
Continuous
 62
   174
100
AcDbLine
 10
209.708125
 20
58.382725
 30
0.0
 11
232.208906
 21
58.382725
 31
0.0
  0
LINE
  5
63
100
AcDbEntity
  8
0
  6
Continuous
 62
   174
100
AcDbLine
 10
144.708906
 20
58.382725
 30
0.0
 11
204.709688
 21
58.382725
 31
0.0
  0
LINE
  5
64
100
AcDbEntity
  8
0
  6
Continuous
 62
   174
100
AcDbLine
 10
289.083906
 20
88.652872
 30
0.0
 11
289.083906
 21
65.882725
 31
0.0
  0
LINE
  5
65
100
AcDbEntity
  8
0
  6
HIDDEN
 62
   174
100
AcDbLine
 10
103.049955
 20
102.132725
 30
0.0
 11
101.788545
 21
102.132725
 31
0.0
  0
LINE
  5
66
100
AcDbEntity
  8
0
  6
HIDDEN
 62
   174
100
AcDbLine
 10
103.254833
 20
102.132725
 30
0.0
 11
103.049955
 21
102.132725
 31
0.0
  0
LINE
  5
67
100
AcDbEntity
  8
0
  6
HIDDEN
 62
   174
100
AcDbLine
 10
105.53853
 20
102.132725
 30
0.0
 11
103.254833
 21
102.132725
 31
0.0
  0
LINE
  5
68
100
AcDbEntity
  8
0
  6
HIDDEN
 62
   174
100
AcDbLine
 10
269.140706
 20
102.132725
 30
0.0
 11
267.680426
 21
102.132725
 31
0.0
  0
LINE
  5
69
100
AcDbEntity
  8
0
  6
Continuous
 62
   174
100
AcDbLine
 10
307.833906
 20
103.382725
 30
0.0
 11
308.708906
 21
103.382725
 31
0.0
  0
LINE
  5
6A
100
AcDbEntity
  8
0
  6
HIDDEN
 62
   174
100
AcDbLine
 10
169.734693
 20
56.882725
 30
0.0
 11
167.672095
 21
56.882725
 31
0.0
  0
LINE
  5
6B
100
AcDbEntity
  8
0
  6
HIDDEN
 62
   174
100
AcDbLine
 10
165.458906
 20
58.382725
 30
0.0
 11
165.458906
 21
56.882725
 31
0.0
  0
LINE
  5
6C
100
AcDbEntity
  8
0
  6
HIDDEN
 62
   174
100
AcDbLine
 10
167.672095
 20
30.882725
 30
0.0
 11
167.840323
 21
30.882725
 31
0.0
  0
LINE
  5
6D
100
AcDbEntity
  8
0
  6
HIDDEN
 62
   174
100
AcDbLine
 10
87.833906
 20
88.652872
 30
0.0
 11
87.833906
 21
82.132725
 31
0.0
  0
LINE
  5
6E
100
AcDbEntity
  8
0
  6
HIDDEN
 62
   174
100
AcDbLine
 10
87.833906
 20
82.132725
 30
0.0
 11
87.833906
 21
65.882725
 31
0.0
  0
LINE
  5
6F
100
AcDbEntity
  8
0
  6
HIDDEN
 62
   174
100
AcDbLine
 10
172.208125
 20
58.382725
 30
0.0
 11
172.208125
 21
56.882725
 31
0.0
  0
LINE
  5
70
100
AcDbEntity
  8
0
  6
HIDDEN
 62
   174
100
AcDbLine
 10
172.233782
 20
58.382725
 30
0.0
 11
173.984556
 21
58.382725
 31
0.0
  0
LINE
  5
71
100
AcDbEntity
  8
0
  6
HIDDEN
 62
   174
100
AcDbLine
 10
205.171952
 20
30.882725
 30
0.0
 11
207.23455
 21
30.882725
 31
0.0
  0
LINE
  5
72
100
AcDbEntity
  8
0
  6
HIDDEN
 62
   174
100
AcDbLine
 10
207.23455
 20
30.882725
 30
0.0
 11
209.297147
 21
30.882725
 31
0.0
  0
LINE
  5
73
100
AcDbEntity
  8
0
  6
HIDDEN
 62
   174
100
AcDbLine
 10
202.984686
 20
58.382725
 30
0.0
 11
204.62431
 21
58.382725
 31
0.0
  0
LINE
  5
74
100
AcDbEntity
  8
0
  6
HIDDEN
 62
   174
100
AcDbLine
 10
209.84479
 20
58.382725
 30
0.0
 11
211.484413
 21
58.382725
 31
0.0
  0
LINE
  5
75
100
AcDbEntity
  8
0
  6
Continuous
 62
   174
100
AcDbLine
 10
204.726748
 20
58.382725
 30
0.0
 11
209.742351
 21
58.382725
 31
0.0
  0
LINE
  5
76
100
AcDbEntity
  8
0
  6
Continuous
 62
   174
100
AcDbLine
 10
144.708906
 20
30.882725
 30
0.0
 11
144.708906
 21
58.382725
 31
0.0
  0
LINE
  5
77
100
AcDbEntity
  8
0
  6
HIDDEN
 62
   174
100
AcDbLine
 10
252.833906
 20
98.382725
 30
0.0
 11
252.833906
 21
65.882725
 31
0.0
  0
LINE
  5
78
100
AcDbEntity
  8
0
  6
HIDDEN
 62
   174
100
AcDbLine
 10
171.796989
 20
56.882725
 30
0.0
 11
169.734693
 21
56.882725
 31
0.0
  0
LINE
  5
79
100
AcDbEntity
  8
0
  6
HIDDEN
 62
   174
100
AcDbLine
 10
209.297147
 20
56.882725
 30
0.0
 11
207.23455
 21
56.882725
 31
0.0
  0
LINE
  5
7A
100
AcDbEntity
  8
0
  6
HIDDEN
 62
   174
100
AcDbLine
 10
167.209688
 20
58.382725
 30
0.0
 11
167.209688
 21
56.882725
 31
0.0
  0
LINE
  5
7B
100
AcDbEntity
  8
0
  6
Continuous
 62
   174
100
AcDbLine
 10
204.709688
 20
58.382725
 30
0.0
 11
204.709688
 21
56.882725
 31
0.0
  0
LINE
  5
7C
100
AcDbEntity
  8
0
  6
HIDDEN
 62
   174
100
AcDbLine
 10
275.680575
 20
102.132725
 30
0.0
 11
275.198421
 21
102.132725
 31
0.0
  0
LINE
  5
7D
100
AcDbEntity
  8
0
  6
HIDDEN
 62
   174
100
AcDbLine
 10
269.30563
 20
102.132725
 30
0.0
 11
269.147315
 21
102.132725
 31
0.0
  0
LINE
  5
7E
100
AcDbEntity
  8
0
  6
HIDDEN
 62
   174
100
AcDbLine
 10
105.53853
 20
102.132725
 30
0.0
 11
103.04635
 21
102.132725
 31
0.0
  0
LINE
  5
7F
100
AcDbEntity
  8
0
  6
HIDDEN
 62
   174
100
AcDbLine
 10
103.04635
 20
102.132725
 30
0.0
 11
101.857939
 21
102.132725
 31
0.0
  0
LINE
  5
80
100
AcDbEntity
  8
0
  6
HIDDEN
 62
   174
100
AcDbLine
 10
101.857939
 20
102.132725
 30
0.0
 11
101.771121
 21
102.132725
 31
0.0
  0
LINE
  5
81
100
AcDbEntity
  8
0
  6
HIDDEN
 62
   174
100
AcDbLine
 10
271.431012
 20
102.132725
 30
0.0
 11
271.307244
 21
102.132725
 31
0.0
  0
LINE
  5
82
100
AcDbEntity
  8
0
  6
HIDDEN
 62
   174
100
AcDbLine
 10
107.784632
 20
102.132725
 30
0.0
 11
107.784632
 21
102.070225
 31
0.0
  0
LINE
  5
83
100
AcDbEntity
  8
0
  6
HIDDEN
 62
   174
100
AcDbLine
 10
274.435687
 20
102.132725
 30
0.0
 11
274.416461
 21
102.132725
 31
0.0
  0
LINE
  5
84
100
AcDbEntity
  8
0
  6
HIDDEN
 62
   174
100
AcDbLine
 10
269.147315
 20
102.132725
 30
0.0
 11
267.74982
 21
102.132725
 31
0.0
  0
LINE
  5
85
100
AcDbEntity
  8
0
  6
HIDDEN
 62
   174
100
AcDbLine
 10
107.821627
 20
102.132725
 30
0.0
 11
107.663612
 21
102.132725
 31
0.0
  0
LINE
  5
86
100
AcDbEntity
  8
0
  6
HIDDEN
 62
   174
100
AcDbLine
 10
273.902164
 20
102.132725
 30
0.0
 11
271.431012
 21
102.132725
 31
0.0
  0
LINE
  5
87
100
AcDbEntity
  8
0
  6
Continuous
 62
   174
100
AcDbLine
 10
63.458906
 20
101.882725
 30
0.0
 11
64.293002
 21
103.32742
 31
0.0
  0
LINE
  5
88
100
AcDbEntity
  8
0
  6
HIDDEN
 62
   174
100
AcDbLine
 10
211.458906
 20
58.382725
 30
0.0
 11
211.458906
 21
56.882725
 31
0.0
  0
LINE
  5
89
100
AcDbEntity
  8
0
  6
HIDDEN
 62
   174
100
AcDbLine
 10
173.984556
 20
56.882725
 30
0.0
 11
165.484529
 21
56.882725
 31
0.0
  0
LINE
  5
8A
100
AcDbEntity
  8
0
  6
HIDDEN
 62
   174
100
AcDbLine
 10
165.484529
 20
58.382725
 30
0.0
 11
167.235303
 21
58.382725
 31
0.0
  0
LINE
  5
8B
100
AcDbEntity
  8
0
  6
HIDDEN
 62
   174
100
AcDbLine
 10
204.73546
 20
56.882725
 30
0.0
 11
202.984686
 21
56.882725
 31
0.0
  0
LINE
  5
8C
100
AcDbEntity
  8
0
  6
HIDDEN
 62
   174
100
AcDbLine
 10
211.484413
 20
56.882725
 30
0.0
 11
209.733639
 21
56.882725
 31
0.0
  0
LINE
  5
8D
100
AcDbEntity
  8
0
  6
Continuous
 62
   174
100
AcDbLine
 10
232.208906
 20
58.382725
 30
0.0
 11
232.208906
 21
30.882725
 31
0.0
  0
LINE
  5
8E
100
AcDbEntity
  8
0
  6
HIDDEN
 62
   174
100
AcDbLine
 10
274.416461
 20
102.132725
 30
0.0
 11
273.922591
 21
102.132725
 31
0.0
  0
LINE
  5
8F
100
AcDbEntity
  8
0
  6
HIDDEN
 62
   174
100
AcDbLine
 10
109.30654
 20
102.132725
 30
0.0
 11
109.219122
 21
102.132725
 31
0.0
  0
LINE
  5
90
100
AcDbEntity
  8
0
  6
HIDDEN
 62
   174
100
AcDbLine
 10
108.543806
 20
102.132725
 30
0.0
 11
108.374376
 21
102.132725
 31
0.0
  0
LINE
  5
91
100
AcDbEntity
  8
0
  6
HIDDEN
 62
   174
100
AcDbLine
 10
108.374376
 20
102.132725
 30
0.0
 11
107.821627
 21
102.132725
 31
0.0
  0
LINE
  5
92
100
AcDbEntity
  8
0
  6
HIDDEN
 62
   174
100
AcDbLine
 10
107.663612
 20
102.132725
 30
0.0
 11
105.53853
 21
102.132725
 31
0.0
  0
LINE
  5
93
100
AcDbEntity
  8
0
  6
HIDDEN
 62
   174
100
AcDbLine
 10
107.810211
 20
102.132725
 30
0.0
 11
105.53853
 21
102.132725
 31
0.0
  0
LINE
  5
94
100
AcDbEntity
  8
0
  6
HIDDEN
 62
   174
100
AcDbLine
 10
273.876416
 20
102.132725
 30
0.0
 11
271.404937
 21
102.132725
 31
0.0
  0
LINE
  5
95
100
AcDbEntity
  8
0
  6
HIDDEN
 62
   174
100
AcDbLine
 10
271.404937
 20
102.132725
 30
0.0
 11
269.133181
 21
102.132725
 31
0.0
  0
LINE
  5
96
100
AcDbEntity
  8
0
  6
HIDDEN
 62
   174
100
AcDbLine
 10
108.333211
 20
102.132725
 30
0.0
 11
107.784632
 21
102.132725
 31
0.0
  0
LINE
  5
97
100
AcDbEntity
  8
0
  6
Continuous
 62
   174
100
AcDbLine
 10
304.083906
 20
84.007725
 30
0.0
 11
307.833906
 21
84.007725
 31
0.0
  0
LINE
  5
98
100
AcDbEntity
  8
0
  6
Continuous
 62
   174
100
AcDbLine
 10
72.833906
 20
100.257725
 30
0.0
 11
69.083906
 21
100.257725
 31
0.0
  0
LINE
  5
99
100
AcDbEntity
  8
0
  6
HIDDEN
 62
   174
100
AcDbLine
 10
205.146406
 20
56.882725
 30
0.0
 11
205.146406
 21
30.882725
 31
0.0
  0
LINE
  5
9A
100
AcDbEntity
  8
0
  6
Continuous
 62
   174
100
AcDbLine
 10
304.083906
 20
82.132725
 30
0.0
 11
289.083906
 21
82.132725
 31
0.0
  0
LINE
  5
9B
100
AcDbEntity
  8
0
  6
Continuous
 62
   174
100
AcDbLine
 10
204.709688
 20
56.882725
 30
0.0
 11
209.708125
 21
56.882725
 31
0.0
  0
LINE
  5
9C
100
AcDbEntity
  8
0
  6
Continuous
 62
   174
100
AcDbLine
 10
68.208906
 20
92.17731
 30
0.0
 11
68.208906
 21
86.45575
 31
0.0
  0
LWPOLYLINE
  5
9D
100
AcDbEntity
  8
0
  6
Continuous
 62
   174
100
AcDbPolyline
 90
        4
 70
   128
 10
87.886357
 20
92.132725
 10
87.875113
 20
93.318953
 10
87.849606
 20
94.491661
 10
87.833906
 20
95.612577
  0
LINE
  5
9E
100
AcDbEntity
  8
0
  6
Continuous
 62
   174
100
AcDbLine
 10
304.083906
 20
92.17731
 30
0.0
 11
304.083906
 21
100.43551
 31
0.0
  0
LWPOLYLINE
  5
9F
100
AcDbEntity
  8
0
  6
HIDDEN
 62
   174
100
AcDbPolyline
 90
        4
 70
   128
 10
312.592881
 20
86.41065
 10
313.002757
 20
87.976668
 10
313.293699
 20
89.505195
 10
313.458906
 20
91.01821
  0
LINE
  5
A0
100
AcDbEntity
  8
0
  6
Continuous
 62
   174
100
AcDbLine
 10
299.333906
 20
55.4498
 30
0.0
 11
299.333906
 21
56.783609
 31
0.0
  0
LINE
  5
A1
100
AcDbEntity
  8
0
  6
HIDDEN
 62
   174
100
AcDbLine
 10
299.333906
 20
33.864326
 30
0.0
 11
291.583906
 21
33.864326
 31
0.0
  0
LINE
  5
A2
100
AcDbEntity
  8
0
  6
HIDDEN
 62
   174
100
AcDbLine
 10
207.262788
 20
30.882725
 30
0.0
 11
205.217614
 21
30.882725
 31
0.0
  0
LINE
  5
A3
100
AcDbEntity
  8
0
  6
Continuous
 62
   174
100
AcDbLine
 10
308.708906
 20
97.660088
 30
0.0
 11
312.592881
 21
97.660088
 31
0.0
  0
LINE
  5
A4
100
AcDbEntity
  8
0
  6
Continuous
 62
   174
100
AcDbLine
 10
291.583906
 20
55.4498
 30
0.0
 11
291.583906
 21
51.03231
 31
0.0
  0
LINE
  5
A5
100
AcDbEntity
  8
0
  6
HIDDEN
 62
   174
100
AcDbLine
 10
105.53853
 20
102.070225
 30
0.0
 11
109.788694
 21
102.070225
 31
0.0
  0
LINE
  5
A6
100
AcDbEntity
  8
0
  6
HIDDEN
 62
   174
100
AcDbLine
 10
289.708906
 20
44.680796
 30
0.0
 11
289.708906
 21
32.181745
 31
0.0
  0
LINE
  5
A7
100
AcDbEntity
  8
0
  6
Continuous
 62
   174
100
AcDbLine
 10
308.708906
 20
92.17731
 30
0.0
 11
308.708906
 21
97.704506
 31
0.0
  0
LWPOLYLINE
  5
A8
100
AcDbEntity
  8
0
  6
Continuous
 62
   174
100
AcDbPolyline
 90
        4
 70
   128
 10
289.083906
 20
88.652872
 10
289.068207
 20
89.773748
 10
289.042701
 20
90.946441
 10
289.031456
 20
92.132725
  0
LINE
  5
A9
100
AcDbEntity
  8
0
  6
Continuous
 62
   174
100
AcDbLine
 10
124.083906
 20
98.382725
 30
0.0
 11
124.083906
 21
65.882725
 31
0.0
  0
LINE
  5
AA
100
AcDbEntity
  8
0
  6
Continuous
 62
   174
100
AcDbLine
 10
69.083906
 20
100.570092
 30
0.0
 11
69.083906
 21
103.426666
 31
0.0
  0
LINE
  5
AB
100
AcDbEntity
  8
0
  6
Continuous
 62
   174
100
AcDbLine
 10
144.708906
 20
30.882725
 30
0.0
 11
144.708906
 21
58.382725
 31
0.0
  0
LINE
  5
AC
100
AcDbEntity
  8
0
  6
Continuous
 62
   174
100
AcDbLine
 10
63.458906
 20
101.926732
 30
0.0
 11
63.458906
 21
93.291821
 31
0.0
  0
LINE
  5
AD
100
AcDbEntity
  8
0
  6
HIDDEN
 62
   174
100
AcDbLine
 10
267.655009
 20
102.132725
 30
0.0
 11
269.133181
 21
102.132725
 31
0.0
  0
LINE
  5
AE
100
AcDbEntity
  8
0
  6
Continuous
 62
   174
100
AcDbLine
 10
232.208906
 20
30.882725
 30
0.0
 11
232.208906
 21
58.382725
 31
0.0
  0
LINE
  5
AF
100
AcDbEntity
  8
0
  6
Continuous
 62
   174
100
AcDbLine
 10
87.208906
 20
30.882725
 30
0.0
 11
87.208906
 21
65.882725
 31
0.0
  0
LWPOLYLINE
  5
B0
100
AcDbEntity
  8
0
  6
Continuous
 62
   174
100
AcDbPolyline
 90
        4
 70
   128
 10
313.458906
 20
99.963868
 10
313.292506
 20
99.20342
 10
313.001153
 20
98.439576
 10
312.592881
 20
97.660088
  0
LINE
  5
B1
100
AcDbEntity
  8
0
  6
HIDDEN
 62
   174
100
AcDbLine
 10
267.154937
 20
102.132725
 30
0.0
 11
267.655009
 21
102.132725
 31
0.0
  0
LINE
  5
B2
100
AcDbEntity
  8
0
  6
Continuous
 62
   174
100
AcDbLine
 10
69.083906
 20
92.17731
 30
0.0
 11
69.083906
 21
100.570092
 31
0.0
  0
LWPOLYLINE
  5
B3
100
AcDbEntity
  8
0
  6
Continuous
 62
   174
100
AcDbPolyline
 90
        4
 70
   128
 10
313.458906
 20
83.187067
 10
313.292506
 20
82.426618
 10
313.001153
 20
81.662775
 10
312.628782
 20
80.944913
  0
LINE
  5
B4
100
AcDbEntity
  8
0
  6
HIDDEN
 62
   174
100
AcDbLine
 10
68.208906
 20
86.605361
 30
0.0
 11
68.208906
 21
80.883286
 31
0.0
  0
LWPOLYLINE
  5
B5
100
AcDbEntity
  8
0
  6
HIDDEN
 62
   174
100
AcDbPolyline
 90
        4
 70
   128
 10
64.28898
 20
103.32045
 10
63.915056
 20
102.599154
 10
63.624113
 20
101.834888
 10
63.458906
 20
101.078383
  0
LINE
  5
B6
100
AcDbEntity
  8
0
  6
HIDDEN
 62
   174
100
AcDbLine
 10
268.610187
 20
102.070225
 30
0.0
 11
267.680426
 21
102.070225
 31
0.0
  0
LINE
  5
B7
100
AcDbEntity
  8
0
  6
Continuous
 62
   174
100
AcDbLine
 10
124.708906
 20
30.882725
 30
0.0
 11
124.708906
 21
58.382725
 31
0.0
  0
LINE
  5
B8
100
AcDbEntity
  8
0
  6
Continuous
 62
   174
100
AcDbLine
 10
68.208906
 20
103.426065
 30
0.0
 11
68.208906
 21
97.89917
 31
0.0
  0
LINE
  5
B9
100
AcDbEntity
  8
0
  6
HIDDEN
 62
   174
100
AcDbLine
 10
308.708906
 20
86.41065
 30
0.0
 11
308.708906
 21
97.8548
 31
0.0
  0
LINE
  5
BA
100
AcDbEntity
  8
0
  6
HIDDEN
 62
   174
100
AcDbLine
 10
68.208906
 20
86.605361
 30
0.0
 11
64.324932
 21
86.605361
 31
0.0
  0
LINE
  5
BB
100
AcDbEntity
  8
0
  6
HIDDEN
 62
   174
100
AcDbLine
 10
64.324932
 20
103.382163
 30
0.0
 11
64.288867
 21
103.320258
 31
0.0
  0
LINE
  5
BC
100
AcDbEntity
  8
0
  6
Continuous
 62
   174
100
AcDbLine
 10
85.333906
 20
51.028705
 30
0.0
 11
85.333906
 21
55.447397
 31
0.0
  0
LINE
  5
BD
100
AcDbEntity
  8
0
  6
Continuous
 62
   174
100
AcDbLine
 10
120.333906
 20
98.382725
 30
0.0
 11
120.333906
 21
65.882725
 31
0.0
  0
LINE
  5
BE
100
AcDbEntity
  8
0
  6
Continuous
 62
   174
100
AcDbLine
 10
285.333906
 20
102.176671
 30
0.0
 11
285.333906
 21
98.426986
 31
0.0
  0
LINE
  5
BF
100
AcDbEntity
  8
0
  6
HIDDEN
 62
   174
100
AcDbLine
 10
209.083906
 20
30.882725
 30
0.0
 11
209.083906
 21
33.007725
 31
0.0
  0
LINE
  5
C0
100
AcDbEntity
  8
0
  6
Continuous
 62
   174
100
AcDbLine
 10
289.083906
 20
95.612577
 30
0.0
 11
289.083906
 21
98.382725
 31
0.0
  0
LINE
  5
C1
100
AcDbEntity
  8
0
  6
HIDDEN
 62
   174
100
AcDbLine
 10
101.288667
 20
102.070225
 30
0.0
 11
105.53853
 21
102.070225
 31
0.0
  0
LINE
  5
C2
100
AcDbEntity
  8
0
  6
HIDDEN
 62
   174
100
AcDbLine
 10
256.609511
 20
98.382725
 30
0.0
 11
252.859526
 21
98.382725
 31
0.0
  0
LINE
  5
C3
100
AcDbEntity
  8
0
  6
Continuous
 62
   174
100
AcDbLine
 10
299.333906
 20
38.287807
 30
0.0
 11
291.583906
 21
38.287807
 31
0.0
  0
LWPOLYLINE
  5
C4
100
AcDbEntity
  8
0
  6
HIDDEN
 62
   174
100
AcDbPolyline
 90
        4
 70
   128
 10
87.833906
 20
95.612577
 10
87.849607
 20
94.491658
 10
87.875113
 20
93.318966
 10
87.886357
 20
92.132725
  0
LINE
  5
C5
100
AcDbEntity
  8
0
  6
Continuous
 62
   174
100
AcDbLine
 10
252.208906
 20
58.382725
 30
0.0
 11
252.208906
 21
30.882725
 31
0.0
  0
LINE
  5
C6
100
AcDbEntity
  8
0
  6
HIDDEN
 62
   174
100
AcDbLine
 10
69.083906
 20
92.17731
 30
0.0
 11
69.083906
 21
84.053092
 31
0.0
  0
LINE
  5
C7
100
AcDbEntity
  8
0
  6
Continuous
 62
   174
100
AcDbLine
 10
72.833906
 20
83.919411
 30
0.0
 11
72.833906
 21
82.178249
 31
0.0
  0
LINE
  5
C8
100
AcDbEntity
  8
0
  6
Continuous
 62
   174
100
AcDbLine
 10
69.083906
 20
80.928254
 30
0.0
 11
69.083906
 21
83.785129
 31
0.0
  0
LINE
  5
C9
100
AcDbEntity
  8
0
  6
HIDDEN
 62
   174
100
AcDbLine
 10
299.333906
 20
41.507725
 30
0.0
 11
291.583906
 21
41.507725
 31
0.0
  0
LINE
  5
CA
100
AcDbEntity
  8
0
  6
Continuous
 62
   174
100
AcDbLine
 10
313.458906
 20
101.122541
 30
0.0
 11
313.458906
 21
101.926732
 31
0.0
  0
LINE
  5
CB
100
AcDbEntity
  8
0
  6
HIDDEN
 62
   174
100
AcDbLine
 10
202.234569
 20
30.882725
 30
0.0
 11
195.359445
 21
30.882725
 31
0.0
  0
LINE
  5
CC
100
AcDbEntity
  8
0
  6
HIDDEN
 62
   174
100
AcDbLine
 10
109.262876
 20
102.132725
 30
0.0
 11
109.762876
 21
102.132725
 31
0.0
  0
LWPOLYLINE
  5
CD
100
AcDbEntity
  8
0
  6
HIDDEN
 62
   174
100
AcDbPolyline
 90
        9
 70
   128
 10
192.836635
 20
37.131143
 10
192.810329
 20
37.146454
 10
192.611325
 20
37.260347
 10
192.227647
 20
37.469431
 10
191.699741
 20
37.732552
 10
191.044037
 20
38.015151
 10
190.267432
 20
38.278188
 10
189.390867
 20
38.470101
 10
188.458906
 20
38.540978
  0
LINE
  5
CE
100
AcDbEntity
  8
0
  6
HIDDEN
 62
   174
100
AcDbLine
 10
109.288516
 20
102.070225
 30
0.0
 11
103.067079
 21
102.070225
 31
0.0
  0
LINE
  5
CF
100
AcDbEntity
  8
0
  6
Continuous
 62
   174
100
AcDbLine
 10
313.458906
 20
82.428188
 30
0.0
 11
313.458906
 21
83.232379
 31
0.0
  0
LINE
  5
D0
100
AcDbEntity
  8
0
  6
Continuous
 62
   174
100
AcDbLine
 10
64.324932
 20
80.883286
 30
0.0
 11
64.29059
 21
80.944332
 31
0.0
  0
LINE
  5
D1
100
AcDbEntity
  8
0
  6
Continuous
 62
   174
100
AcDbLine
 10
91.60954
 20
98.382725
 30
0.0
 11
87.859554
 21
98.382725
 31
0.0
  0
LINE
  5
D2
100
AcDbEntity
  8
0
  6
Continuous
 62
   174
100
AcDbLine
 10
291.583906
 20
32.579484
 30
0.0
 11
291.583906
 21
32.181745
 31
0.0
  0
LINE
  5
D3
100
AcDbEntity
  8
0
  6
Continuous
 62
   174
100
AcDbLine
 10
256.609511
 20
98.382725
 30
0.0
 11
252.859526
 21
98.382725
 31
0.0
  0
ARC
  5
D4
100
AcDbEntity
  8
0
  6
Continuous
 62
   174
100
AcDbCircle
 10
256.583906
 20
98.382725
 30
0.0
 40
3.75
100
AcDbArc
 50
90.0
 51
180.0
  0
LINE
  5
D5
100
AcDbEntity
  8
0
  6
HIDDEN
 62
   174
100
AcDbLine
 10
285.333906
 20
98.382725
 30
0.0
 11
256.583906
 21
98.382725
 31
0.0
  0
LINE
  5
D6
100
AcDbEntity
  8
0
  6
HIDDEN
 62
   174
100
AcDbLine
 10
307.833906
 20
92.17731
 30
0.0
 11
307.833906
 21
100.301828
 31
0.0
  0
LINE
  5
D7
100
AcDbEntity
  8
0
  6
HIDDEN
 62
   174
100
AcDbLine
 10
85.333906
 20
41.511934
 30
0.0
 11
85.333906
 21
47.761933
 31
0.0
  0
LINE
  5
D8
100
AcDbEntity
  8
0
  6
HIDDEN
 62
   174
100
AcDbLine
 10
68.208906
 20
86.605361
 30
0.0
 11
68.208906
 21
97.660088
 31
0.0
  0
LINE
  5
D9
100
AcDbEntity
  8
0
  6
Continuous
 62
   174
100
AcDbLine
 10
291.583906
 20
47.809839
 30
0.0
 11
291.583906
 21
46.550531
 31
0.0
  0
LINE
  5
DA
100
AcDbEntity
  8
0
  6
Continuous
 62
   174
100
AcDbLine
 10
124.708906
 20
58.382725
 30
0.0
 11
124.708906
 21
30.882725
 31
0.0
  0
LWPOLYLINE
  5
DB
100
AcDbEntity
  8
0
  6
HIDDEN
 62
   174
100
AcDbPolyline
 90
        4
 70
   128
 10
313.458906
 20
93.247239
 10
313.292506
 20
94.768133
 10
313.001149
 20
96.295838
 10
312.592881
 20
97.8548
  0
LINE
  5
DC
100
AcDbEntity
  8
0
  6
HIDDEN
 62
   174
100
AcDbLine
 10
195.333906
 20
30.882725
 30
0.0
 11
195.333906
 21
33.007725
 31
0.0
  0
LWPOLYLINE
  5
DD
100
AcDbEntity
  8
0
  6
HIDDEN
 62
   174
100
AcDbPolyline
 90
        4
 70
   128
 10
63.458906
 20
99.963868
 10
63.625307
 20
99.20342
 10
63.91666
 20
98.439576
 10
64.324932
 20
97.660088
  0
LINE
  5
DE
100
AcDbEntity
  8
0
  6
Continuous
 62
   174
100
AcDbLine
 10
64.290631
 20
103.321171
 30
0.0
 11
64.324932
 21
103.382163
 31
0.0
  0
LWPOLYLINE
  5
DF
100
AcDbEntity
  8
0
  6
HIDDEN
 62
   174
100
AcDbPolyline
 90
        4
 70
   128
 10
87.833906
 20
88.652872
 10
87.849606
 20
89.773748
 10
87.875112
 20
90.946441
 10
87.886357
 20
92.132725
  0
LINE
  5
E0
100
AcDbEntity
  8
0
  6
Continuous
 62
   174
100
AcDbLine
 10
85.333906
 20
56.782708
 30
0.0
 11
85.333906
 21
57.179847
 31
0.0
  0
LINE
  5
E1
100
AcDbEntity
  8
0
  6
HIDDEN
 62
   174
100
AcDbLine
 10
91.583906
 20
98.426986
 30
0.0
 11
91.583906
 21
102.176671
 31
0.0
  0
LINE
  5
E2
100
AcDbEntity
  8
0
  6
HIDDEN
 62
   174
100
AcDbLine
 10
87.833906
 20
98.426986
 30
0.0
 11
87.833906
 21
95.656929
 31
0.0
  0
LINE
  5
E3
100
AcDbEntity
  8
0
  6
HIDDEN
 62
   174
100
AcDbLine
 10
109.762876
 20
102.132725
 30
0.0
 11
120.333906
 21
102.132725
 31
0.0
  0
LINE
  5
E4
100
AcDbEntity
  8
0
  6
HIDDEN
 62
   174
100
AcDbLine
 10
275.180697
 20
102.070225
 30
0.0
 11
269.158731
 21
102.070225
 31
0.0
  0
LINE
  5
E5
100
AcDbEntity
  8
0
  6
HIDDEN
 62
   174
100
AcDbLine
 10
87.208906
 20
32.181745
 30
0.0
 11
87.208906
 21
44.680796
 31
0.0
  0
LINE
  5
E6
100
AcDbEntity
  8
0
  6
HIDDEN
 62
   174
100
AcDbLine
 10
72.833906
 20
100.301828
 30
0.0
 11
72.833906
 21
92.17731
 31
0.0
  0
LINE
  5
E7
100
AcDbEntity
  8
0
  6
Continuous
 62
   174
100
AcDbLine
 10
77.583906
 20
56.782708
 30
0.0
 11
77.583906
 21
55.447397
 31
0.0
  0
LINE
  5
E8
100
AcDbEntity
  8
0
  6
HIDDEN
 62
   174
100
AcDbLine
 10
195.333906
 20
30.882725
 30
0.0
 11
195.333906
 21
33.007725
 31
0.0
  0
LINE
  5
E9
100
AcDbEntity
  8
0
  6
HIDDEN
 62
   174
100
AcDbLine
 10
77.583906
 20
41.511934
 30
0.0
 11
85.333906
 21
41.511934
 31
0.0
  0
LINE
  5
EA
100
AcDbEntity
  8
0
  6
HIDDEN
 62
   174
100
AcDbLine
 10
285.359402
 20
65.882725
 30
0.0
 11
289.109387
 21
65.882725
 31
0.0
  0
LINE
  5
EB
100
AcDbEntity
  8
0
  6
HIDDEN
 62
   174
100
AcDbLine
 10
273.876416
 20
102.132725
 30
0.0
 11
274.388496
 21
102.132725
 31
0.0
  0
LWPOLYLINE
  5
EC
100
AcDbEntity
  8
0
  6
HIDDEN
 62
   174
100
AcDbPolyline
 90
        9
 70
   128
 10
188.458906
 20
38.540978
 10
189.385479
 20
38.470914
 10
190.26141
 20
38.279899
 10
191.040572
 20
38.016504
 10
191.701652
 20
37.731654
 10
192.235594
 20
37.465246
 10
192.620626
 20
37.255104
 10
192.81396
 20
37.144342
 10
192.836635
 20
37.131143
  0
LINE
  5
ED
100
AcDbEntity
  8
0
  6
HIDDEN
 62
   174
100
AcDbLine
 10
69.083906
 20
100.301828
 30
0.0
 11
69.083906
 21
92.17731
 31
0.0
  0
LINE
  5
EE
100
AcDbEntity
  8
0
  6
Continuous
 62
   174
100
AcDbLine
 10
72.833906
 20
102.176671
 30
0.0
 11
72.833906
 21
100.435209
 31
0.0
  0
LINE
  5
EF
100
AcDbEntity
  8
0
  6
HIDDEN
 62
   174
100
AcDbLine
 10
205.174055
 20
30.882725
 30
0.0
 11
202.234569
 21
30.882725
 31
0.0
  0
LINE
  5
F0
100
AcDbEntity
  8
0
  6
Continuous
 62
   174
100
AcDbLine
 10
285.333906
 20
102.132725
 30
0.0
 11
256.583906
 21
102.132725
 31
0.0
  0
LINE
  5
F1
100
AcDbEntity
  8
0
  6
HIDDEN
 62
   174
100
AcDbLine
 10
120.333906
 20
65.882725
 30
0.0
 11
91.583906
 21
65.882725
 31
0.0
  0
LWPOLYLINE
  5
F2
100
AcDbEntity
  8
0
  6
HIDDEN
 62
   174
100
AcDbPolyline
 90
        7
 70
   128
 10
64.324932
 20
97.660088
 10
63.867304
 20
95.781
 10
63.582179
 20
93.938512
 10
63.486015
 20
92.133021
 10
63.582124
 20
90.327463
 10
63.86724
 20
88.484774
 10
64.324932
 20
86.605361
  0
LINE
  5
F3
100
AcDbEntity
  8
0
  6
Continuous
 62
   174
100
AcDbLine
 10
77.583906
 20
55.400073
 30
0.0
 11
85.333906
 21
55.400073
 31
0.0
  0
LINE
  5
F4
100
AcDbEntity
  8
0
  6
HIDDEN
 62
   174
100
AcDbLine
 10
87.859554
 20
65.882725
 30
0.0
 11
91.60954
 21
65.882725
 31
0.0
  0
LINE
  5
F5
100
AcDbEntity
  8
0
  6
HIDDEN
 62
   174
100
AcDbLine
 10
91.583906
 20
65.882725
 30
0.0
 11
91.583906
 21
98.382725
 31
0.0
  0
LINE
  5
F6
100
AcDbEntity
  8
0
  6
Continuous
 62
   174
100
AcDbLine
 10
256.583906
 20
102.176671
 30
0.0
 11
256.583906
 21
98.426986
 31
0.0
  0
LINE
  5
F7
100
AcDbEntity
  8
0
  6
Continuous
 62
   174
100
AcDbLine
 10
64.324932
 20
97.8548
 30
0.0
 11
68.208906
 21
97.8548
 31
0.0
  0
LINE
  5
F8
100
AcDbEntity
  8
0
  6
Continuous
 62
   174
100
AcDbLine
 10
313.458906
 20
84.34689
 30
0.0
 11
313.458906
 21
100.00803
 31
0.0
  0
LWPOLYLINE
  5
F9
100
AcDbEntity
  8
0
  6
Continuous
 62
   174
100
AcDbPolyline
 90
        4
 70
   128
 10
312.628833
 20
103.32045
 10
313.002757
 20
102.599154
 10
313.293699
 20
101.834888
 10
313.458906
 20
101.078383
  0
LINE
  5
FA
100
AcDbEntity
  8
0
  6
Continuous
 62
   174
100
AcDbLine
 10
85.333906
 20
41.555958
 30
0.0
 11
85.333906
 21
46.550832
 31
0.0
  0
LINE
  5
FB
100
AcDbEntity
  8
0
  6
Continuous
 62
   174
100
AcDbLine
 10
299.333906
 20
32.579484
 30
0.0
 11
299.333906
 21
33.915396
 31
0.0
  0
LINE
  5
FC
100
AcDbEntity
  8
0
  6
HIDDEN
 62
   174
100
AcDbLine
 10
289.109387
 20
98.382725
 30
0.0
 11
285.359402
 21
98.382725
 31
0.0
  0
LINE
  5
FD
100
AcDbEntity
  8
0
  6
HIDDEN
 62
   174
100
AcDbLine
 10
274.388496
 20
102.132725
 30
0.0
 11
275.154937
 21
102.132725
 31
0.0
  0
LINE
  5
FE
100
AcDbEntity
  8
0
  6
Continuous
 62
   174
100
AcDbLine
 10
289.109387
 20
98.382725
 30
0.0
 11
285.359402
 21
98.382725
 31
0.0
  0
LINE
  5
FF
100
AcDbEntity
  8
0
  6
HIDDEN
 62
   174
100
AcDbLine
 10
124.109716
 20
98.382725
 30
0.0
 11
120.359731
 21
98.382725
 31
0.0
  0
ARC
  5
100
100
AcDbEntity
  8
0
  6
HIDDEN
 62
   174
100
AcDbCircle
 10
120.333906
 20
98.382725
 30
0.0
 40
3.75
100
AcDbArc
 50
-342.0
 51
-324.0
  0
ARC
  5
101
100
AcDbEntity
  8
0
  6
Continuous
 62
   174
100
AcDbCircle
 10
120.333906
 20
98.382725
 30
0.0
 40
3.75
100
AcDbArc
 50
-288.0
 51
-270.0
  0
LINE
  5
102
100
AcDbEntity
  8
0
  6
HIDDEN
 62
   174
100
AcDbLine
 10
307.833906
 20
84.053092
 30
0.0
 11
307.833906
 21
92.17731
 31
0.0
  0
LINE
  5
103
100
AcDbEntity
  8
0
  6
HIDDEN
 62
   174
100
AcDbLine
 10
184.083906
 20
33.007725
 30
0.0
 11
184.083906
 21
37.145429
 31
0.0
  0
LINE
  5
104
100
AcDbEntity
  8
0
  6
Continuous
 62
   174
100
AcDbLine
 10
299.333906
 20
55.40228
 30
0.0
 11
291.583906
 21
55.40228
 31
0.0
  0
LINE
  5
105
100
AcDbEntity
  8
0
  6
Continuous
 62
   174
100
AcDbLine
 10
291.583906
 20
46.550531
 30
0.0
 11
291.583906
 21
41.560163
 31
0.0
  0
LINE
  5
106
100
AcDbEntity
  8
0
  6
Continuous
 62
   174
100
AcDbLine
 10
299.333906
 20
38.336492
 30
0.0
 11
299.333906
 21
41.560163
 31
0.0
  0
LINE
  5
107
100
AcDbEntity
  8
0
  6
Continuous
 62
   174
100
AcDbLine
 10
308.708906
 20
86.605361
 30
0.0
 11
312.592881
 21
86.605361
 31
0.0
  0
LINE
  5
108
100
AcDbEntity
  8
0
  6
HIDDEN
 62
   174
100
AcDbLine
 10
285.333906
 20
98.382725
 30
0.0
 11
285.333906
 21
65.882725
 31
0.0
  0
LINE
  5
109
100
AcDbEntity
  8
0
  6
Continuous
 62
   174
100
AcDbLine
 10
291.583906
 20
32.132725
 30
0.0
 11
289.708906
 21
32.132725
 31
0.0
  0
LINE
  5
10A
100
AcDbEntity
  8
0
  6
Continuous
 62
   174
100
AcDbLine
 10
289.708906
 20
65.882725
 30
0.0
 11
252.208906
 21
65.882725
 31
0.0
  0
LWPOLYLINE
  5
10B
100
AcDbEntity
  8
0
  6
HIDDEN
 62
   174
100
AcDbPolyline
 90
        9
 70
   128
 10
184.081168
 20
37.131138
 10
184.106516
 20
37.145891
 10
184.304484
 20
37.259218
 10
184.688282
 20
37.46844
 10
185.216983
 20
37.73204
 10
185.873813
 20
38.015166
 10
186.651476
 20
38.278499
 10
187.528324
 20
38.47031
 10
188.458906
 20
38.540978
  0
LINE
  5
10C
100
AcDbEntity
  8
0
  6
HIDDEN
 62
   174
100
AcDbLine
 10
256.583906
 20
98.382725
 30
0.0
 11
256.583906
 21
65.882725
 31
0.0
  0
LINE
  5
10D
100
AcDbEntity
  8
0
  6
HIDDEN
 62
   174
100
AcDbLine
 10
291.583906
 20
47.757725
 30
0.0
 11
291.583906
 21
41.507725
 31
0.0
  0
LWPOLYLINE
  5
10E
100
AcDbEntity
  8
0
  6
HIDDEN
 62
   174
100
AcDbPolyline
 90
        4
 70
   128
 10
64.324932
 20
86.605361
 10
63.915056
 20
85.822352
 10
63.624113
 20
85.058086
 10
63.458906
 20
84.301581
  0
LINE
  5
10F
100
AcDbEntity
  8
0
  6
HIDDEN
 62
   174
100
AcDbLine
 10
289.083906
 20
95.656929
 30
0.0
 11
289.083906
 21
98.426986
 31
0.0
  0
LINE
  5
110
100
AcDbEntity
  8
0
  6
Continuous
 62
   174
100
AcDbLine
 10
285.333906
 20
65.882725
 30
0.0
 11
285.333906
 21
98.382725
 31
0.0
  0
LINE
  5
111
100
AcDbEntity
  8
0
  6
HIDDEN
 62
   174
100
AcDbLine
 10
102.554884
 20
102.070225
 30
0.0
 11
101.788545
 21
102.070225
 31
0.0
  0
LINE
  5
112
100
AcDbEntity
  8
0
  6
HIDDEN
 62
   174
100
AcDbLine
 10
87.208906
 20
44.680796
 30
0.0
 11
87.208906
 21
57.179847
 31
0.0
  0
LINE
  5
113
100
AcDbEntity
  8
0
  6
HIDDEN
 62
   174
100
AcDbLine
 10
72.833906
 20
84.053092
 30
0.0
 11
72.833906
 21
92.17731
 31
0.0
  0
LINE
  5
114
100
AcDbEntity
  8
0
  6
HIDDEN
 62
   174
100
AcDbLine
 10
308.708906
 20
103.426065
 30
0.0
 11
308.708906
 21
103.426666
 31
0.0
  0
LINE
  5
115
100
AcDbEntity
  8
0
  6
Continuous
 62
   174
100
AcDbLine
 10
77.583906
 20
51.028705
 30
0.0
 11
77.583906
 21
47.805634
 31
0.0
  0
ARC
  5
116
100
AcDbEntity
  8
0
  6
Continuous
 62
   174
100
AcDbCircle
 10
91.583906
 20
98.382725
 30
0.0
 40
3.75
100
AcDbArc
 50
-270.0
 51
-180.0
  0
LINE
  5
117
100
AcDbEntity
  8
0
  6
Continuous
 62
   174
100
AcDbLine
 10
289.083906
 20
65.882725
 30
0.0
 11
289.083906
 21
88.652872
 31
0.0
  0
ARC
  5
118
100
AcDbEntity
  8
0
  6
Continuous
 62
   174
100
AcDbCircle
 10
120.333906
 20
98.382725
 30
0.0
 40
3.75
100
AcDbArc
 50
0.0
 51
18.0
  0
LWPOLYLINE
  5
119
100
AcDbEntity
  8
0
  6
HIDDEN
 62
   174
100
AcDbPolyline
 90
        7
 70
   128
 10
312.592881
 20
80.883286
 10
313.050539
 20
81.8229
 10
313.335662
 20
82.744208
 10
313.431791
 20
83.647018
 10
313.335643
 20
84.549817
 10
313.050518
 20
85.471091
 10
312.592881
 20
86.41065
  0
LINE
  5
11A
100
AcDbEntity
  8
0
  6
HIDDEN
 62
   174
100
AcDbLine
 10
188.484621
 20
30.882725
 30
0.0
 11
181.609497
 21
30.882725
 31
0.0
  0
LINE
  5
11B
100
AcDbEntity
  8
0
  6
HIDDEN
 62
   174
100
AcDbLine
 10
275.154937
 20
102.132725
 30
0.0
 11
275.654937
 21
102.132725
 31
0.0
  0
LINE
  5
11C
100
AcDbEntity
  8
0
  6
HIDDEN
 62
   174
100
AcDbLine
 10
77.583906
 20
47.761933
 30
0.0
 11
85.333906
 21
47.761933
 31
0.0
  0
LINE
  5
11D
100
AcDbEntity
  8
0
  6
Continuous
 62
   174
100
AcDbLine
 10
291.583906
 20
57.132725
 30
0.0
 11
289.708906
 21
57.132725
 31
0.0
  0
LINE
  5
11E
100
AcDbEntity
  8
0
  6
Continuous
 62
   174
100
AcDbLine
 10
85.333906
 20
32.181745
 30
0.0
 11
85.333906
 21
32.578282
 31
0.0
  0
LINE
  5
11F
100
AcDbEntity
  8
0
  6
Continuous
 62
   174
100
AcDbLine
 10
252.208906
 20
30.882725
 30
0.0
 11
289.708906
 21
30.882725
 31
0.0
  0
LINE
  5
120
100
AcDbEntity
  8
0
  6
HIDDEN
 62
   174
100
AcDbLine
 10
120.333906
 20
98.426986
 30
0.0
 11
120.333906
 21
102.176671
 31
0.0
  0
LINE
  5
121
100
AcDbEntity
  8
0
  6
Continuous
 62
   174
100
AcDbLine
 10
144.708906
 20
30.882725
 30
0.0
 11
232.208906
 21
30.882725
 31
0.0
  0
LINE
  5
122
100
AcDbEntity
  8
0
  6
HIDDEN
 62
   174
100
AcDbLine
 10
299.333906
 20
55.400073
 30
0.0
 11
291.583906
 21
55.400073
 31
0.0
  0
LINE
  5
123
100
AcDbEntity
  8
0
  6
HIDDEN
 62
   174
100
AcDbLine
 10
77.583906
 20
50.984718
 30
0.0
 11
85.333906
 21
50.984718
 31
0.0
  0
LINE
  5
124
100
AcDbEntity
  8
0
  6
Continuous
 62
   174
100
AcDbLine
 10
87.833906
 20
98.382725
 30
0.0
 11
87.833906
 21
95.612577
 31
0.0
  0
LINE
  5
125
100
AcDbEntity
  8
0
  6
Continuous
 62
   174
100
AcDbLine
 10
299.333906
 20
50.984718
 30
0.0
 11
299.333906
 21
55.40228
 31
0.0
  0
LINE
  5
126
100
AcDbEntity
  8
0
  6
HIDDEN
 62
   174
100
AcDbLine
 10
107.784632
 20
102.070225
 30
0.0
 11
102.529317
 21
102.070225
 31
0.0
  0
LINE
  5
127
100
AcDbEntity
  8
0
  6
HIDDEN
 62
   174
100
AcDbLine
 10
195.359445
 20
33.007725
 30
0.0
 11
188.484621
 21
33.007725
 31
0.0
  0
LINE
  5
128
100
AcDbEntity
  8
0
  6
Continuous
 62
   174
100
AcDbLine
 10
313.458906
 20
101.078383
 30
0.0
 11
313.458906
 21
99.963868
 31
0.0
  0
LINE
  5
129
100
AcDbEntity
  8
0
  6
HIDDEN
 62
   174
100
AcDbLine
 10
299.333906
 20
47.757725
 30
0.0
 11
291.583906
 21
47.757725
 31
0.0
  0
LINE
  5
12A
100
AcDbEntity
  8
0
  6
Continuous
 62
   174
100
AcDbLine
 10
77.583906
 20
50.980974
 30
0.0
 11
85.333906
 21
50.980974
 31
0.0
  0
LWPOLYLINE
  5
12B
100
AcDbEntity
  8
0
  6
HIDDEN
 62
   174
100
AcDbPolyline
 90
        9
 70
   128
 10
188.458906
 20
38.540978
 10
187.534296
 20
38.471209
 10
186.660092
 20
38.280945
 10
185.882099
 20
38.018399
 10
185.221379
 20
37.734104
 10
184.687065
 20
37.467799
 10
184.300682
 20
37.257075
 10
184.104954
 20
37.144983
 10
184.081168
 20
37.131138
  0
LINE
  5
12C
100
AcDbEntity
  8
0
  6
Continuous
 62
   174
100
AcDbLine
 10
256.583906
 20
65.882725
 30
0.0
 11
256.583906
 21
98.382725
 31
0.0
  0
ARC
  5
12D
100
AcDbEntity
  8
0
  6
Continuous
 62
   174
100
AcDbCircle
 10
120.333906
 20
98.382725
 30
0.0
 40
3.75
100
AcDbArc
 50
-324.0
 51
-306.0
  0
LINE
  5
12E
100
AcDbEntity
  8
0
  6
HIDDEN
 62
   174
100
AcDbLine
 10
275.654937
 20
102.132725
 30
0.0
 11
285.333906
 21
102.132725
 31
0.0
  0
LINE
  5
12F
100
AcDbEntity
  8
0
  6
HIDDEN
 62
   174
100
AcDbLine
 10
273.872759
 20
102.070225
 30
0.0
 11
268.588258
 21
102.070225
 31
0.0
  0
LINE
  5
130
100
AcDbEntity
  8
0
  6
Continuous
 62
   174
100
AcDbLine
 10
144.708906
 20
30.882725
 30
0.0
 11
124.708906
 21
30.882725
 31
0.0
  0
LINE
  5
131
100
AcDbEntity
  8
0
  6
HIDDEN
 62
   174
100
AcDbLine
 10
308.708906
 20
80.928254
 30
0.0
 11
308.708906
 21
80.928855
 31
0.0
  0
LINE
  5
132
100
AcDbEntity
  8
0
  6
Continuous
 62
   174
100
AcDbLine
 10
312.62889
 20
80.945099
 30
0.0
 11
312.592881
 21
80.883286
 31
0.0
  0
LWPOLYLINE
  5
133
100
AcDbEntity
  8
0
  6
HIDDEN
 62
   174
100
AcDbPolyline
 90
        6
 70
   128
 10
289.083906
 20
98.382725
 10
288.868478
 20
99.635442
 10
288.303728
 20
100.67241
 10
287.47489
 20
101.461473
 10
286.464227
 20
101.958319
 10
285.333906
 20
102.132725
  0
LINE
  5
134
100
AcDbEntity
  8
0
  6
Continuous
 62
   174
100
AcDbLine
 10
299.333906
 20
47.761933
 30
0.0
 11
291.583906
 21
47.761933
 31
0.0
  0
LINE
  5
135
100
AcDbEntity
  8
0
  6
HIDDEN
 62
   174
100
AcDbLine
 10
289.083906
 20
88.697691
 30
0.0
 11
289.083906
 21
82.178249
 31
0.0
  0
ARC
  5
136
100
AcDbEntity
  8
0
  6
HIDDEN
 62
   174
100
AcDbCircle
 10
285.333906
 20
98.382725
 30
0.0
 40
3.75
100
AcDbArc
 50
54.0
 51
72.0
  0
LINE
  5
137
100
AcDbEntity
  8
0
  6
Continuous
 62
   174
100
AcDbLine
 10
291.583906
 20
38.336492
 30
0.0
 11
291.583906
 21
33.915396
 31
0.0
  0
LINE
  5
138
100
AcDbEntity
  8
0
  6
Continuous
 62
   174
100
AcDbLine
 10
68.208906
 20
86.41065
 30
0.0
 11
64.324932
 21
86.41065
 31
0.0
  0
LINE
  5
139
100
AcDbEntity
  8
0
  6
Continuous
 62
   174
100
AcDbLine
 10
77.583906
 20
47.757725
 30
0.0
 11
77.583906
 21
41.507725
 31
0.0
  0
LINE
  5
13A
100
AcDbEntity
  8
0
  6
Continuous
 62
   174
100
AcDbLine
 10
85.333906
 20
32.132725
 30
0.0
 11
87.208906
 21
32.132725
 31
0.0
  0
LINE
  5
13B
100
AcDbEntity
  8
0
  6
Continuous
 62
   174
100
AcDbLine
 10
308.708906
 20
97.704506
 30
0.0
 11
308.708906
 21
103.426666
 31
0.0
  0
LWPOLYLINE
  5
13C
100
AcDbEntity
  8
0
  6
HIDDEN
 62
   174
100
AcDbPolyline
 90
        7
 70
   128
 10
312.592881
 20
97.8548
 10
313.050539
 20
98.794413
 10
313.335662
 20
99.715721
 10
313.431791
 20
100.618531
 10
313.335643
 20
101.52133
 10
313.050518
 20
102.442604
 10
312.592881
 20
103.382163
  0
ARC
  5
13D
100
AcDbEntity
  8
0
  6
HIDDEN
 62
   174
100
AcDbCircle
 10
120.333906
 20
98.382725
 30
0.0
 40
3.75
100
AcDbArc
 50
-306.0
 51
-288.0
  0
LINE
  5
13E
100
AcDbEntity
  8
0
  6
Continuous
 62
   174
100
AcDbLine
 10
232.208906
 20
30.882725
 30
0.0
 11
252.208906
 21
30.882725
 31
0.0
  0
LINE
  5
13F
100
AcDbEntity
  8
0
  6
Continuous
 62
   174
100
AcDbLine
 10
307.833906
 20
83.784828
 30
0.0
 11
307.833906
 21
80.928254
 31
0.0
  0
LWPOLYLINE
  5
140
100
AcDbEntity
  8
0
  6
Continuous
 62
   174
100
AcDbPolyline
 90
        4
 70
   128
 10
63.458906
 20
93.247239
 10
63.625307
 20
94.768133
 10
63.916664
 20
96.295838
 10
64.324932
 20
97.8548
  0
LINE
  5
141
100
AcDbEntity
  8
0
  6
HIDDEN
 62
   174
100
AcDbLine
 10
312.592881
 20
97.8548
 30
0.0
 11
308.708906
 21
97.8548
 31
0.0
  0
LINE
  5
142
100
AcDbEntity
  8
0
  6
HIDDEN
 62
   174
100
AcDbLine
 10
308.708906
 20
97.8548
 30
0.0
 11
308.708906
 21
103.382163
 31
0.0
  0
LINE
  5
143
100
AcDbEntity
  8
0
  6
Continuous
 62
   174
100
AcDbLine
 10
299.333906
 20
50.984718
 30
0.0
 11
291.583906
 21
50.984718
 31
0.0
  0
LWPOLYLINE
  5
144
100
AcDbEntity
  8
0
  6
HIDDEN
 62
   174
100
AcDbPolyline
 90
        4
 70
   128
 10
289.031456
 20
92.132725
 10
289.0427
 20
90.946466
 10
289.068207
 20
89.773758
 10
289.083906
 20
88.652872
  0
LINE
  5
145
100
AcDbEntity
  8
0
  6
HIDDEN
 62
   174
100
AcDbLine
 10
291.583906
 20
55.400073
 30
0.0
 11
291.583906
 21
50.980974
 31
0.0
  0
LINE
  5
146
100
AcDbEntity
  8
0
  6
HIDDEN
 62
   174
100
AcDbLine
 10
209.109392
 20
30.882725
 30
0.0
 11
207.262788
 21
30.882725
 31
0.0
  0
LINE
  5
147
100
AcDbEntity
  8
0
  6
Continuous
 62
   174
100
AcDbLine
 10
91.583906
 20
98.382725
 30
0.0
 11
91.583906
 21
65.882725
 31
0.0
  0
ARC
  5
148
100
AcDbEntity
  8
0
  6
HIDDEN
 62
   174
100
AcDbCircle
 10
285.333906
 20
98.382725
 30
0.0
 40
3.75
100
AcDbArc
 50
72.0
 51
90.0
  0
LINE
  5
149
100
AcDbEntity
  8
0
  6
HIDDEN
 62
   174
100
AcDbLine
 10
105.512876
 20
102.132725
 30
0.0
 11
107.784632
 21
102.132725
 31
0.0
  0
LINE
  5
14A
100
AcDbEntity
  8
0
  6
Continuous
 62
   174
100
AcDbLine
 10
85.333906
 20
33.913293
 30
0.0
 11
85.333906
 21
38.332586
 31
0.0
  0
LINE
  5
14B
100
AcDbEntity
  8
0
  6
Continuous
 62
   174
100
AcDbLine
 10
124.708906
 20
65.882725
 30
0.0
 11
87.208906
 21
65.882725
 31
0.0
  0
LINE
  5
14C
100
AcDbEntity
  8
0
  6
Continuous
 62
   174
100
AcDbLine
 10
68.208906
 20
97.89917
 30
0.0
 11
68.208906
 21
92.17731
 31
0.0
  0
LINE
  5
14D
100
AcDbEntity
  8
0
  6
Continuous
 62
   174
100
AcDbLine
 10
299.333906
 20
41.511934
 30
0.0
 11
299.333906
 21
47.761933
 31
0.0
  0
LINE
  5
14E
100
AcDbEntity
  8
0
  6
Continuous
 62
   174
100
AcDbLine
 10
77.583906
 20
55.400073
 30
0.0
 11
77.583906
 21
50.980974
 31
0.0
  0
LINE
  5
14F
100
AcDbEntity
  8
0
  6
HIDDEN
 62
   174
100
AcDbLine
 10
271.404937
 20
102.132725
 30
0.0
 11
273.876416
 21
102.132725
 31
0.0
  0
ARC
  5
150
100
AcDbEntity
  8
0
  6
Continuous
 62
   174
100
AcDbCircle
 10
120.333906
 20
98.382725
 30
0.0
 40
3.75
100
AcDbArc
 50
0.0
 51
90.0
  0
LINE
  5
151
100
AcDbEntity
  8
0
  6
Continuous
 62
   174
100
AcDbLine
 10
308.708906
 20
80.928254
 30
0.0
 11
308.708906
 21
86.650414
 31
0.0
  0
LINE
  5
152
100
AcDbEntity
  8
0
  6
Continuous
 62
   174
100
AcDbLine
 10
63.458906
 20
91.01821
 30
0.0
 11
63.458906
 21
93.247239
 31
0.0
  0
LINE
  5
153
100
AcDbEntity
  8
0
  6
HIDDEN
 62
   174
100
AcDbLine
 10
87.833906
 20
82.178249
 30
0.0
 11
87.833906
 21
88.697691
 31
0.0
  0
LINE
  5
154
100
AcDbEntity
  8
0
  6
HIDDEN
 62
   174
100
AcDbLine
 10
87.833906
 20
95.612577
 30
0.0
 11
87.833906
 21
98.382725
 31
0.0
  0
LINE
  5
155
100
AcDbEntity
  8
0
  6
Continuous
 62
   174
100
AcDbLine
 10
85.333906
 20
46.550832
 30
0.0
 11
85.333906
 21
47.805634
 31
0.0
  0
LINE
  5
156
100
AcDbEntity
  8
0
  6
HIDDEN
 62
   174
100
AcDbLine
 10
91.60954
 20
98.382725
 30
0.0
 11
87.859554
 21
98.382725
 31
0.0
  0
LINE
  5
157
100
AcDbEntity
  8
0
  6
Continuous
 62
   174
100
AcDbLine
 10
77.583906
 20
32.529249
 30
0.0
 11
85.333906
 21
32.529249
 31
0.0
  0
LINE
  5
158
100
AcDbEntity
  8
0
  6
Continuous
 62
   174
100
AcDbLine
 10
77.583906
 20
56.735395
 30
0.0
 11
85.333906
 21
56.735395
 31
0.0
  0
LINE
  5
159
100
AcDbEntity
  8
0
  6
HIDDEN
 62
   174
100
AcDbLine
 10
271.430411
 20
102.070225
 30
0.0
 11
275.680575
 21
102.070225
 31
0.0
  0
LINE
  5
15A
100
AcDbEntity
  8
0
  6
Continuous
 62
   174
100
AcDbLine
 10
120.333906
 20
98.426986
 30
0.0
 11
120.333906
 21
102.176671
 31
0.0
  0
LINE
  5
15B
100
AcDbEntity
  8
0
  6
Continuous
 62
   174
100
AcDbLine
 10
72.833906
 20
100.435209
 30
0.0
 11
72.833906
 21
92.17731
 31
0.0
  0
LINE
  5
15C
100
AcDbEntity
  8
0
  6
Continuous
 62
   174
100
AcDbLine
 10
68.208906
 20
80.883286
 30
0.0
 11
64.324932
 21
80.883286
 31
0.0
  0
LWPOLYLINE
  5
15D
100
AcDbEntity
  8
0
  6
HIDDEN
 62
   174
100
AcDbPolyline
 90
        4
 70
   128
 10
289.031456
 20
92.132725
 10
289.0427
 20
93.318953
 10
289.068206
 20
94.491661
 10
289.083906
 20
95.612577
  0
ARC
  5
15E
100
AcDbEntity
  8
0
  6
HIDDEN
 62
   174
100
AcDbCircle
 10
285.333906
 20
98.382725
 30
0.0
 40
3.75
100
AcDbArc
 50
18.0
 51
36.0
  0
ARC
  5
15F
100
AcDbEntity
  8
0
  6
Continuous
 62
   174
100
AcDbCircle
 10
285.333906
 20
98.382725
 30
0.0
 40
3.75
100
AcDbArc
 50
0.0
 51
90.0
  0
LINE
  5
160
100
AcDbEntity
  8
0
  6
Continuous
 62
   174
100
AcDbLine
 10
144.708906
 20
58.382725
 30
0.0
 11
124.708906
 21
58.382725
 31
0.0
  0
LINE
  5
161
100
AcDbEntity
  8
0
  6
Continuous
 62
   174
100
AcDbLine
 10
307.833906
 20
100.569792
 30
0.0
 11
307.833906
 21
92.17731
 31
0.0
  0
LINE
  5
162
100
AcDbEntity
  8
0
  6
Continuous
 62
   174
100
AcDbLine
 10
307.833906
 20
103.426666
 30
0.0
 11
307.833906
 21
100.569792
 31
0.0
  0
LINE
  5
163
100
AcDbEntity
  8
0
  6
Continuous
 62
   174
100
AcDbLine
 10
299.333906
 20
33.866534
 30
0.0
 11
299.333906
 21
38.287807
 31
0.0
  0
LINE
  5
164
100
AcDbEntity
  8
0
  6
HIDDEN
 62
   174
100
AcDbLine
 10
308.708906
 20
80.883286
 30
0.0
 11
308.708906
 21
86.41065
 31
0.0
  0
LINE
  5
165
100
AcDbEntity
  8
0
  6
Continuous
 62
   174
100
AcDbLine
 10
252.208906
 20
30.882725
 30
0.0
 11
252.208906
 21
58.382725
 31
0.0
  0
LINE
  5
166
100
AcDbEntity
  8
0
  6
Continuous
 62
   174
100
AcDbLine
 10
289.708906
 20
65.882725
 30
0.0
 11
289.708906
 21
30.882725
 31
0.0
  0
LINE
  5
167
100
AcDbEntity
  8
0
  6
HIDDEN
 62
   174
100
AcDbLine
 10
68.208906
 20
97.660088
 30
0.0
 11
64.324932
 21
97.660088
 31
0.0
  0
LINE
  5
168
100
AcDbEntity
  8
0
  6
Continuous
 62
   174
100
AcDbLine
 10
308.708906
 20
103.382163
 30
0.0
 11
312.592881
 21
103.382163
 31
0.0
  0
LINE
  5
169
100
AcDbEntity
  8
0
  6
HIDDEN
 62
   174
100
AcDbLine
 10
77.583906
 20
55.40228
 30
0.0
 11
85.333906
 21
55.40228
 31
0.0
  0
ARC
  5
16A
100
AcDbEntity
  8
0
  6
HIDDEN
 62
   174
100
AcDbCircle
 10
285.333906
 20
98.382725
 30
0.0
 40
3.75
100
AcDbArc
 50
0.0
 51
18.0
  0
LINE
  5
16B
100
AcDbEntity
  8
0
  6
HIDDEN
 62
   174
100
AcDbLine
 10
256.609511
 20
65.882725
 30
0.0
 11
252.859526
 21
65.882725
 31
0.0
  0
LINE
  5
16C
100
AcDbEntity
  8
0
  6
HIDDEN
 62
   174
100
AcDbLine
 10
124.083906
 20
98.382725
 30
0.0
 11
124.083906
 21
65.882725
 31
0.0
  0
LINE
  5
16D
100
AcDbEntity
  8
0
  6
Continuous
 62
   174
100
AcDbLine
 10
299.333906
 20
47.809839
 30
0.0
 11
299.333906
 21
51.03231
 31
0.0
  0
LWPOLYLINE
  5
16E
100
AcDbEntity
  8
0
  6
Continuous
 62
   174
100
AcDbPolyline
 90
        4
 70
   128
 10
312.592881
 20
86.605361
 10
313.002757
 20
85.822352
 10
313.293699
 20
85.058086
 10
313.458906
 20
84.301581
  0
LINE
  5
16F
100
AcDbEntity
  8
0
  6
Continuous
 62
   174
100
AcDbLine
 10
77.583906
 20
41.507725
 30
0.0
 11
85.333906
 21
41.507725
 31
0.0
  0
LINE
  5
170
100
AcDbEntity
  8
0
  6
Continuous
 62
   174
100
AcDbLine
 10
299.333906
 20
56.736481
 30
0.0
 11
291.583906
 21
56.736481
 31
0.0
  0
LINE
  5
171
100
AcDbEntity
  8
0
  6
HIDDEN
 62
   174
100
AcDbLine
 10
256.583906
 20
102.132725
 30
0.0
 11
267.154937
 21
102.132725
 31
0.0
  0
LINE
  5
172
100
AcDbEntity
  8
0
  6
HIDDEN
 62
   174
100
AcDbLine
 10
124.109716
 20
65.882725
 30
0.0
 11
120.359731
 21
65.882725
 31
0.0
  0
LWPOLYLINE
  5
173
100
AcDbEntity
  8
0
  6
HIDDEN
 62
   174
100
AcDbPolyline
 90
        6
 70
   128
 10
91.583906
 20
102.132725
 10
90.452261
 20
101.9579
 10
89.44188
 20
101.460747
 10
88.61457
 20
100.67304
 10
88.049788
 20
99.636722
 10
87.833906
 20
98.382725
  0
ARC
  5
174
100
AcDbEntity
  8
0
  6
Continuous
 62
   174
100
AcDbCircle
 10
256.583906
 20
98.382725
 30
0.0
 40
3.75
100
AcDbArc
 50
-270.0
 51
-180.0
  0
LINE
  5
175
100
AcDbEntity
  8
0
  6
Continuous
 62
   174
100
AcDbLine
 10
91.583906
 20
98.382725
 30
0.0
 11
120.333906
 21
98.382725
 31
0.0
  0
LINE
  5
176
100
AcDbEntity
  8
0
  6
HIDDEN
 62
   174
100
AcDbLine
 10
85.333906
 20
33.866534
 30
0.0
 11
85.333906
 21
38.287807
 31
0.0
  0
LINE
  5
177
100
AcDbEntity
  8
0
  6
Continuous
 62
   174
100
AcDbLine
 10
77.583906
 20
38.284062
 30
0.0
 11
85.333906
 21
38.284062
 31
0.0
  0
LINE
  5
178
100
AcDbEntity
  8
0
  6
HIDDEN
 62
   174
100
AcDbLine
 10
289.083906
 20
98.382725
 30
0.0
 11
289.083906
 21
95.612577
 31
0.0
  0
LINE
  5
179
100
AcDbEntity
  8
0
  6
Continuous
 62
   174
100
AcDbLine
 10
252.833906
 20
98.382725
 30
0.0
 11
252.833906
 21
65.882725
 31
0.0
  0
LINE
  5
17A
100
AcDbEntity
  8
0
  6
Continuous
 62
   174
100
AcDbLine
 10
304.083906
 20
100.43551
 30
0.0
 11
304.083906
 21
102.176671
 31
0.0
  0
LINE
  5
17B
100
AcDbEntity
  8
0
  6
HIDDEN
 62
   174
100
AcDbLine
 10
184.109488
 20
33.007725
 30
0.0
 11
188.484621
 21
33.007725
 31
0.0
  0
LINE
  5
17C
100
AcDbEntity
  8
0
  6
HIDDEN
 62
   174
100
AcDbLine
 10
299.333906
 20
38.284062
 30
0.0
 11
291.583906
 21
38.284062
 31
0.0
  0
LINE
  5
17D
100
AcDbEntity
  8
0
  6
HIDDEN
 62
   174
100
AcDbLine
 10
285.333906
 20
65.882725
 30
0.0
 11
256.583906
 21
65.882725
 31
0.0
  0
LINE
  5
17E
100
AcDbEntity
  8
0
  6
Continuous
 62
   174
100
AcDbLine
 10
87.208906
 20
30.882725
 30
0.0
 11
124.708906
 21
30.882725
 31
0.0
  0
LINE
  5
17F
100
AcDbEntity
  8
0
  6
HIDDEN
 62
   174
100
AcDbLine
 10
267.180548
 20
102.070225
 30
0.0
 11
271.430411
 21
102.070225
 31
0.0
  0
LINE
  5
180
100
AcDbEntity
  8
0
  6
HIDDEN
 62
   174
100
AcDbLine
 10
256.583906
 20
102.176671
 30
0.0
 11
256.583906
 21
98.426986
 31
0.0
  0
LINE
  5
181
100
AcDbEntity
  8
0
  6
Continuous
 62
   174
100
AcDbLine
 10
72.833906
 20
92.17731
 30
0.0
 11
72.833906
 21
83.919411
 31
0.0
  0
LINE
  5
182
100
AcDbEntity
  8
0
  6
HIDDEN
 62
   174
100
AcDbLine
 10
85.333906
 20
50.984718
 30
0.0
 11
85.333906
 21
55.40228
 31
0.0
  0
LINE
  5
183
100
AcDbEntity
  8
0
  6
Continuous
 62
   174
100
AcDbLine
 10
77.583906
 20
41.555958
 30
0.0
 11
77.583906
 21
38.332586
 31
0.0
  0
LINE
  5
184
100
AcDbEntity
  8
0
  6
HIDDEN
 62
   174
100
AcDbLine
 10
195.359445
 20
30.882725
 30
0.0
 11
188.484621
 21
30.882725
 31
0.0
  0
LINE
  5
185
100
AcDbEntity
  8
0
  6
HIDDEN
 62
   174
100
AcDbLine
 10
77.583906
 20
33.866534
 30
0.0
 11
85.333906
 21
33.866534
 31
0.0
  0
LINE
  5
186
100
AcDbEntity
  8
0
  6
Continuous
 62
   174
100
AcDbLine
 10
299.333906
 20
33.866534
 30
0.0
 11
291.583906
 21
33.866534
 31
0.0
  0
LINE
  5
187
100
AcDbEntity
  8
0
  6
HIDDEN
 62
   174
100
AcDbLine
 10
299.333906
 20
50.980974
 30
0.0
 11
291.583906
 21
50.980974
 31
0.0
  0
ARC
  5
188
100
AcDbEntity
  8
0
  6
HIDDEN
 62
   174
100
AcDbCircle
 10
285.333906
 20
98.382725
 30
0.0
 40
3.75
100
AcDbArc
 50
36.0
 51
54.0
  0
LINE
  5
189
100
AcDbEntity
  8
0
  6
Continuous
 62
   174
100
AcDbLine
 10
120.333906
 20
102.132725
 30
0.0
 11
91.583906
 21
102.132725
 31
0.0
  0
LINE
  5
18A
100
AcDbEntity
  8
0
  6
HIDDEN
 62
   174
100
AcDbLine
 10
120.333906
 20
98.382725
 30
0.0
 11
91.583906
 21
98.382725
 31
0.0
  0
LINE
  5
18B
100
AcDbEntity
  8
0
  6
Continuous
 62
   174
100
AcDbLine
 10
307.833906
 20
92.17731
 30
0.0
 11
307.833906
 21
83.784828
 31
0.0
  0
LINE
  5
18C
100
AcDbEntity
  8
0
  6
Continuous
 62
   174
100
AcDbLine
 10
312.592881
 20
103.382163
 30
0.0
 11
312.628945
 21
103.320258
 31
0.0
  0
LINE
  5
18D
100
AcDbEntity
  8
0
  6
HIDDEN
 62
   174
100
AcDbLine
 10
289.083906
 20
82.132725
 30
0.0
 11
289.083906
 21
65.882725
 31
0.0
  0
LINE
  5
18E
100
AcDbEntity
  8
0
  6
Continuous
 62
   174
100
AcDbLine
 10
68.208906
 20
86.45575
 30
0.0
 11
68.208906
 21
80.928855
 31
0.0
  0
LINE
  5
18F
100
AcDbEntity
  8
0
  6
Continuous
 62
   174
100
AcDbLine
 10
308.708906
 20
80.883286
 30
0.0
 11
312.592881
 21
80.883286
 31
0.0
  0
LINE
  5
190
100
AcDbEntity
  8
0
  6
HIDDEN
 62
   174
100
AcDbLine
 10
64.288923
 20
80.945099
 30
0.0
 11
64.324932
 21
80.883286
 31
0.0
  0
LWPOLYLINE
  5
191
100
AcDbEntity
  8
0
  6
Continuous
 62
   174
100
AcDbPolyline
 90
        7
 70
   128
 10
64.324932
 20
97.8548
 10
63.867274
 20
98.794413
 10
63.582151
 20
99.715721
 10
63.486022
 20
100.618531
 10
63.58217
 20
101.52133
 10
63.855659
 20
102.413482
 10
64.291614
 20
103.322934
  0
LINE
  5
192
100
AcDbEntity
  8
0
  6
HIDDEN
 62
   174
100
AcDbLine
 10
289.083906
 20
88.652872
 30
0.0
 11
289.083906
 21
82.132725
 31
0.0
  0
LINE
  5
193
100
AcDbEntity
  8
0
  6
HIDDEN
 62
   174
100
AcDbLine
 10
103.041397
 20
102.132725
 30
0.0
 11
105.512876
 21
102.132725
 31
0.0
  0
LINE
  5
194
100
AcDbEntity
  8
0
  6
HIDDEN
 62
   174
100
AcDbLine
 10
107.784632
 20
102.132725
 30
0.0
 11
108.333211
 21
102.132725
 31
0.0
  0
LINE
  5
195
100
AcDbEntity
  8
0
  6
HIDDEN
 62
   174
100
AcDbLine
 10
108.333211
 20
102.132725
 30
0.0
 11
109.262876
 21
102.132725
 31
0.0
  0
LINE
  5
196
100
AcDbEntity
  8
0
  6
HIDDEN
 62
   174
100
AcDbLine
 10
304.083906
 20
92.17731
 30
0.0
 11
304.083906
 21
84.053092
 31
0.0
  0
LINE
  5
197
100
AcDbEntity
  8
0
  6
Continuous
 62
   174
100
AcDbLine
 10
313.458906
 20
84.301581
 30
0.0
 11
313.458906
 21
83.187067
 31
0.0
  0
LINE
  5
198
100
AcDbEntity
  8
0
  6
Continuous
 62
   174
100
AcDbLine
 10
299.333906
 20
32.530336
 30
0.0
 11
291.583906
 21
32.530336
 31
0.0
  0
LINE
  5
199
100
AcDbEntity
  8
0
  6
HIDDEN
 62
   174
100
AcDbLine
 10
91.583906
 20
102.132725
 30
0.0
 11
101.262876
 21
102.132725
 31
0.0
  0
LINE
  5
19A
100
AcDbEntity
  8
0
  6
Continuous
 62
   174
100
AcDbLine
 10
252.208906
 20
58.382725
 30
0.0
 11
252.208906
 21
65.882725
 31
0.0
  0
LINE
  5
19B
100
AcDbEntity
  8
0
  6
Continuous
 62
   174
100
AcDbLine
 10
256.583906
 20
98.382725
 30
0.0
 11
285.333906
 21
98.382725
 31
0.0
  0
LINE
  5
19C
100
AcDbEntity
  8
0
  6
HIDDEN
 62
   174
100
AcDbLine
 10
77.583906
 20
38.287807
 30
0.0
 11
85.333906
 21
38.287807
 31
0.0
  0
LINE
  5
19D
100
AcDbEntity
  8
0
  6
Continuous
 62
   174
100
AcDbLine
 10
68.208906
 20
103.382163
 30
0.0
 11
64.324932
 21
103.382163
 31
0.0
  0
LINE
  5
19E
100
AcDbEntity
  8
0
  6
Continuous
 62
   174
100
AcDbLine
 10
91.583906
 20
98.426986
 30
0.0
 11
91.583906
 21
102.176671
 31
0.0
  0
LINE
  5
19F
100
AcDbEntity
  8
0
  6
Continuous
 62
   174
100
AcDbLine
 10
77.583906
 20
33.913293
 30
0.0
 11
77.583906
 21
32.578282
 31
0.0
  0
LINE
  5
1A0
100
AcDbEntity
  8
0
  6
HIDDEN
 62
   174
100
AcDbLine
 10
192.833906
 20
33.007725
 30
0.0
 11
192.833906
 21
37.145354
 31
0.0
  0
LINE
  5
1A1
100
AcDbEntity
  8
0
  6
Continuous
 62
   174
100
AcDbLine
 10
299.333906
 20
41.511934
 30
0.0
 11
291.583906
 21
41.511934
 31
0.0
  0
LINE
  5
1A2
100
AcDbEntity
  8
0
  6
HIDDEN
 62
   174
100
AcDbLine
 10
101.262876
 20
102.132725
 30
0.0
 11
101.763282
 21
102.132725
 31
0.0
  0
LINE
  5
1A3
100
AcDbEntity
  8
0
  6
Continuous
 62
   174
100
AcDbLine
 10
304.083906
 20
83.919711
 30
0.0
 11
304.083906
 21
92.17731
 31
0.0
  0
LINE
  5
1A4
100
AcDbEntity
  8
0
  6
HIDDEN
 62
   174
100
AcDbLine
 10
205.217614
 20
30.882725
 30
0.0
 11
205.174055
 21
30.882725
 31
0.0
  0
LINE
  5
1A5
100
AcDbEntity
  8
0
  6
Continuous
 62
   174
100
AcDbLine
 10
291.583906
 20
57.179847
 30
0.0
 11
291.583906
 21
56.783609
 31
0.0
  0
LINE
  5
1A6
100
AcDbEntity
  8
0
  6
Continuous
 62
   174
100
AcDbLine
 10
124.083906
 20
65.882725
 30
0.0
 11
124.083906
 21
98.382725
 31
0.0
  0
LINE
  5
1A7
100
AcDbEntity
  8
0
  6
Continuous
 62
   174
100
AcDbLine
 10
304.083906
 20
82.178249
 30
0.0
 11
304.083906
 21
83.919711
 31
0.0
  0
LINE
  5
1A8
100
AcDbEntity
  8
0
  6
HIDDEN
 62
   174
100
AcDbLine
 10
188.484621
 20
33.007725
 30
0.0
 11
192.859454
 21
33.007725
 31
0.0
  0
LWPOLYLINE
  5
1A9
100
AcDbEntity
  8
0
  6
Continuous
 62
   174
100
AcDbPolyline
 90
        7
 70
   128
 10
64.291584
 20
80.942569
 10
63.855627
 20
81.852048
 10
63.582151
 20
82.744208
 10
63.486022
 20
83.647018
 10
63.58217
 20
84.549817
 10
63.867295
 20
85.471091
 10
64.324932
 20
86.41065
  0
LWPOLYLINE
  5
1AA
100
AcDbEntity
  8
0
  6
HIDDEN
 62
   174
100
AcDbPolyline
 90
        4
 70
   128
 10
63.458906
 20
83.187067
 10
63.625307
 20
82.426618
 10
63.91666
 20
81.662775
 10
64.28903
 20
80.944913
  0
LWPOLYLINE
  5
1AB
100
AcDbEntity
  8
0
  6
Continuous
 62
   174
100
AcDbPolyline
 90
        4
 70
   128
 10
87.886357
 20
92.132725
 10
87.875113
 20
90.946466
 10
87.849606
 20
89.773758
 10
87.833906
 20
88.652872
  0
LINE
  5
1AC
100
AcDbEntity
  8
0
  6
Continuous
 62
   174
100
AcDbLine
 10
87.833906
 20
88.652872
 30
0.0
 11
87.833906
 21
65.882725
 31
0.0
  0
LINE
  5
1AD
100
AcDbEntity
  8
0
  6
Continuous
 62
   174
100
AcDbLine
 10
124.109716
 20
98.382725
 30
0.0
 11
120.359731
 21
98.382725
 31
0.0
  0
LINE
  5
1AE
100
AcDbEntity
  8
0
  6
HIDDEN
 62
   174
100
AcDbLine
 10
289.708906
 20
57.179847
 30
0.0
 11
289.708906
 21
44.680796
 31
0.0
  0
LINE
  5
1AF
100
AcDbEntity
  8
0
  6
Continuous
 62
   174
100
AcDbLine
 10
308.708906
 20
86.650414
 30
0.0
 11
308.708906
 21
92.17731
 31
0.0
  0
LINE
  5
1B0
100
AcDbEntity
  8
0
  6
Continuous
 62
   174
100
AcDbLine
 10
77.583906
 20
33.864326
 30
0.0
 11
85.333906
 21
33.864326
 31
0.0
  0
LINE
  5
1B1
100
AcDbEntity
  8
0
  6
HIDDEN
 62
   174
100
AcDbLine
 10
120.333906
 20
65.882725
 30
0.0
 11
120.333906
 21
98.382725
 31
0.0
  0
LINE
  5
1B2
100
AcDbEntity
  8
0
  6
HIDDEN
 62
   174
100
AcDbLine
 10
291.583906
 20
38.284062
 30
0.0
 11
291.583906
 21
33.864326
 31
0.0
  0
LINE
  5
1B3
100
AcDbEntity
  8
0
  6
HIDDEN
 62
   174
100
AcDbLine
 10
68.208906
 20
103.382163
 30
0.0
 11
68.208906
 21
97.660088
 31
0.0
  0
LINE
  5
1B4
100
AcDbEntity
  8
0
  6
Continuous
 62
   174
100
AcDbLine
 10
85.333906
 20
57.132725
 30
0.0
 11
87.208906
 21
57.132725
 31
0.0
  0
LINE
  5
1B5
100
AcDbEntity
  8
0
  6
HIDDEN
 62
   174
100
AcDbLine
 10
101.763282
 20
102.132725
 30
0.0
 11
103.041397
 21
102.132725
 31
0.0
  0
LINE
  5
1B6
100
AcDbEntity
  8
0
  6
HIDDEN
 62
   174
100
AcDbLine
 10
181.609497
 20
33.007725
 30
0.0
 11
188.484621
 21
33.007725
 31
0.0
  0
LINE
  5
1B7
100
AcDbEntity
  8
0
  6
HIDDEN
 62
   174
100
AcDbLine
 10
308.708906
 20
86.41065
 30
0.0
 11
312.592881
 21
86.41065
 31
0.0
  0
LWPOLYLINE
  5
1B8
100
AcDbEntity
  8
0
  6
Continuous
 62
   174
100
AcDbPolyline
 90
        4
 70
   128
 10
64.324932
 20
86.41065
 10
63.915056
 20
87.976668
 10
63.624114
 20
89.505195
 10
63.458906
 20
91.01821
  0
LINE
  5
1B9
100
AcDbEntity
  8
0
  6
Continuous
 62
   174
100
AcDbLine
 10
63.458906
 20
91.063099
 30
0.0
 11
63.458906
 21
82.428188
 31
0.0
  0
LINE
  5
1BA
100
AcDbEntity
  8
0
  6
HIDDEN
 62
   174
100
AcDbLine
 10
181.583906
 20
30.882725
 30
0.0
 11
181.583906
 21
33.007725
 31
0.0
  0
LINE
  5
1BB
100
AcDbEntity
  8
0
  6
Continuous
 62
   174
100
AcDbLine
 10
77.583906
 20
47.757725
 30
0.0
 11
85.333906
 21
47.757725
 31
0.0
  0
LWPOLYLINE
  5
1BC
100
AcDbEntity
  8
0
  6
Continuous
 62
   174
100
AcDbPolyline
 90
        4
 70
   128
 10
289.083906
 20
95.612577
 10
289.068206
 20
94.491658
 10
289.0427
 20
93.318966
 10
289.031456
 20
92.132725
  0
LINE
  5
1BD
100
AcDbEntity
  8
0
  6
HIDDEN
 62
   174
100
AcDbLine
 10
304.083906
 20
92.17731
 30
0.0
 11
304.083906
 21
100.301828
 31
0.0
  0
LWPOLYLINE
  5
1BE
100
AcDbEntity
  8
0
  6
Continuous
 62
   174
100
AcDbPolyline
 90
        7
 70
   128
 10
312.592881
 20
97.660088
 10
313.050509
 20
95.781
 10
313.335634
 20
93.938512
 10
313.431797
 20
92.133021
 10
313.335689
 20
90.327463
 10
313.050573
 20
88.484774
 10
312.592881
 20
86.605361
  0
LINE
  5
1BF
100
AcDbEntity
  8
0
  6
Continuous
 62
   174
100
AcDbLine
 10
232.208906
 20
58.382725
 30
0.0
 11
252.208906
 21
58.382725
 31
0.0
  0
LINE
  5
1C0
100
AcDbEntity
  8
0
  6
Continuous
 62
   174
100
AcDbLine
 10
69.083906
 20
83.785129
 30
0.0
 11
69.083906
 21
92.17731
 31
0.0
  0
LINE
  5
1C1
100
AcDbEntity
  8
0
  6
Continuous
 62
   174
100
AcDbLine
 10
77.583906
 20
38.284062
 30
0.0
 11
77.583906
 21
33.864326
 31
0.0
  0
LINE
  5
1C2
100
AcDbEntity
  8
0
  6
HIDDEN
 62
   174
100
AcDbLine
 10
269.133181
 20
102.132725
 30
0.0
 11
271.404937
 21
102.132725
 31
0.0
  0
ARC
  5
1C3
100
AcDbEntity
  8
0
  6
HIDDEN
 62
   174
100
AcDbCircle
 10
91.583906
 20
98.382725
 30
0.0
 40
3.75
100
AcDbArc
 50
90.0
 51
180.0
  0
LINE
  5
1C4
100
AcDbEntity
  8
0
  6
Continuous
 62
   174
100
AcDbLine
 10
124.708906
 20
65.882725
 30
0.0
 11
124.708906
 21
58.382725
 31
0.0
  0
LINE
  5
1C5
100
AcDbEntity
  8
0
  6
HIDDEN
 62
   174
100
AcDbLine
 10
285.333906
 20
102.176671
 30
0.0
 11
285.333906
 21
98.426986
 31
0.0
  0
ENDBLK
  5
1C6
100
AcDbEntity
  8
0
100
AcDbBlockEnd
  0
BLOCK
  5
1C9
100
AcDbEntity
  8
0
100
AcDbBlockBegin
  2
*B2
 70
     0
 10
0.0
 20
0.0
 30
0.0
  3
*B2
  1

  0
LINE
  5
1CA
100
AcDbEntity
  8
0
  6
Continuous
 62
   174
100
AcDbLine
 10
72.833906
 20
149.731174
 30
0.0
 11
69.083906
 21
149.731174
 31
0.0
  0
LINE
  5
1CB
100
AcDbEntity
  8
0
  6
Continuous
 62
   174
100
AcDbLine
 10
72.833906
 20
165.981174
 30
0.0
 11
69.083906
 21
165.981174
 31
0.0
  0
LINE
  5
1CC
100
AcDbEntity
  8
0
  6
Continuous
 62
   174
100
AcDbLine
 10
72.833906
 20
149.731174
 30
0.0
 11
69.083906
 21
149.731174
 31
0.0
  0
LINE
  5
1CD
100
AcDbEntity
  8
0
  6
Continuous
 62
   174
100
AcDbLine
 10
72.833906
 20
165.981174
 30
0.0
 11
69.083906
 21
165.981174
 31
0.0
  0
LINE
  5
1CE
100
AcDbEntity
  8
0
  6
Continuous
 62
   174
100
AcDbLine
 10
304.083906
 20
165.981174
 30
0.0
 11
307.833906
 21
165.981174
 31
0.0
  0
LINE
  5
1CF
100
AcDbEntity
  8
0
  6
Continuous
 62
   174
100
AcDbLine
 10
304.083906
 20
149.731174
 30
0.0
 11
307.833906
 21
149.731174
 31
0.0
  0
LINE
  5
1D0
100
AcDbEntity
  8
0
  6
Continuous
 62
   174
100
AcDbLine
 10
304.083906
 20
165.981174
 30
0.0
 11
307.833906
 21
165.981174
 31
0.0
  0
LINE
  5
1D1
100
AcDbEntity
  8
0
  6
Continuous
 62
   174
100
AcDbLine
 10
304.083906
 20
149.731174
 30
0.0
 11
307.833906
 21
149.731174
 31
0.0
  0
LINE
  5
1D2
100
AcDbEntity
  8
0
  6
Continuous
 62
   174
100
AcDbLine
 10
69.083906
 20
146.606174
 30
0.0
 11
68.208906
 21
146.606174
 31
0.0
  0
LINE
  5
1D3
100
AcDbEntity
  8
0
  6
Continuous
 62
   174
100
AcDbLine
 10
69.083906
 20
169.106174
 30
0.0
 11
68.208906
 21
169.106174
 31
0.0
  0
LINE
  5
1D4
100
AcDbEntity
  8
0
  6
Continuous
 62
   174
100
AcDbLine
 10
69.083906
 20
146.606174
 30
0.0
 11
68.208906
 21
146.606174
 31
0.0
  0
LINE
  5
1D5
100
AcDbEntity
  8
0
  6
Continuous
 62
   174
100
AcDbLine
 10
69.083906
 20
169.106174
 30
0.0
 11
68.208906
 21
169.106174
 31
0.0
  0
LINE
  5
1D6
100
AcDbEntity
  8
0
  6
Continuous
 62
   174
100
AcDbLine
 10
307.833906
 20
169.106174
 30
0.0
 11
308.708906
 21
169.106174
 31
0.0
  0
LINE
  5
1D7
100
AcDbEntity
  8
0
  6
Continuous
 62
   174
100
AcDbLine
 10
304.083906
 20
147.856174
 30
0.0
 11
299.333906
 21
147.856174
 31
0.0
  0
LINE
  5
1D8
100
AcDbEntity
  8
0
  6
Continuous
 62
   174
100
AcDbLine
 10
304.083906
 20
167.856174
 30
0.0
 11
299.333906
 21
167.856174
 31
0.0
  0
LINE
  5
1D9
100
AcDbEntity
  8
0
  6
Continuous
 62
   174
100
AcDbLine
 10
232.208906
 20
144.106174
 30
0.0
 11
252.208906
 21
144.106174
 31
0.0
  0
LINE
  5
1DA
100
AcDbEntity
  8
0
  6
Continuous
 62
   174
100
AcDbLine
 10
232.208906
 20
171.606174
 30
0.0
 11
232.208906
 21
144.106174
 31
0.0
  0
ARC
  5
1DB
100
AcDbEntity
  8
0
  6
Continuous
 62
   174
100
AcDbCircle
 10
215.958906
 20
163.481174
 30
0.0
 40
4.375
100
AcDbArc
 50
-90.0
 51
90.0
  0
ARC
  5
1DC
100
AcDbEntity
  8
0
  6
Continuous
 62
   174
100
AcDbCircle
 10
215.958906
 20
163.481174
 30
0.0
 40
4.375
100
AcDbArc
 50
-270.0
 51
-90.0
  0
LINE
  5
1DD
100
AcDbEntity
  8
0
  6
Continuous
 62
   174
100
AcDbLine
 10
68.208906
 20
167.542265
 30
0.0
 11
64.324932
 21
167.542265
 31
0.0
  0
LINE
  5
1DE
100
AcDbEntity
  8
0
  6
Continuous
 62
   174
100
AcDbLine
 10
308.708906
 20
167.654682
 30
0.0
 11
312.592881
 21
167.654682
 31
0.0
  0
LINE
  5
1DF
100
AcDbEntity
  8
0
  6
Continuous
 62
   174
100
AcDbLine
 10
299.333906
 20
151.508608
 30
0.0
 11
291.583906
 21
151.508608
 31
0.0
  0
ARC
  5
1E0
100
AcDbEntity
  8
0
  6
Continuous
 62
   174
100
AcDbCircle
 10
202.208906
 20
152.231174
 30
0.0
 40
6.875
100
AcDbArc
 50
90.0
 51
270.0
  0
ARC
  5
1E1
100
AcDbEntity
  8
0
  6
Continuous
 62
   174
100
AcDbCircle
 10
202.208906
 20
152.231174
 30
0.0
 40
6.875
100
AcDbArc
 50
-90.0
 51
90.0
  0
LINE
  5
1E2
100
AcDbEntity
  8
0
  6
Continuous
 62
   174
100
AcDbLine
 10
313.458906
 20
167.606174
 30
0.0
 11
313.335661
 21
167.819641
 31
0.0
  0
LINE
  5
1E3
100
AcDbEntity
  8
0
  6
Continuous
 62
   174
100
AcDbLine
 10
304.083906
 20
167.856174
 30
0.0
 11
299.333906
 21
167.856174
 31
0.0
  0
ARC
  5
1E4
100
AcDbEntity
  8
0
  6
Continuous
 62
   174
100
AcDbCircle
 10
169.708906
 20
147.543674
 30
0.0
 40
2.0625
100
AcDbArc
 50
-270.0
 51
-90.0
  0
LINE
  5
1E5
100
AcDbEntity
  8
0
  6
Continuous
 62
   174
100
AcDbLine
 10
232.208906
 20
171.606174
 30
0.0
 11
232.208906
 21
144.106174
 31
0.0
  0
LINE
  5
1E6
100
AcDbEntity
  8
0
  6
Continuous
 62
   174
100
AcDbLine
 10
232.208906
 20
171.606174
 30
0.0
 11
252.208906
 21
171.606174
 31
0.0
  0
LINE
  5
1E7
100
AcDbEntity
  8
0
  6
Continuous
 62
   174
100
AcDbLine
 10
68.208906
 20
148.09845
 30
0.0
 11
68.208906
 21
146.646881
 31
0.0
  0
LINE
  5
1E8
100
AcDbEntity
  8
0
  6
Continuous
 62
   174
100
AcDbLine
 10
308.708906
 20
157.783585
 30
0.0
 11
308.708906
 21
167.694025
 31
0.0
  0
ARC
  5
1E9
100
AcDbEntity
  8
0
  6
Continuous
 62
   174
100
AcDbCircle
 10
188.458906
 20
157.856174
 30
0.0
 40
4.375
100
AcDbArc
 50
-90.0
 51
90.0
  0
ARC
  5
1EA
100
AcDbEntity
  8
0
  6
Continuous
 62
   174
100
AcDbCircle
 10
188.458906
 20
157.856174
 30
0.0
 40
4.375
100
AcDbArc
 50
-270.0
 51
-90.0
  0
LWPOLYLINE
  5
1EB
100
AcDbEntity
  8
0
  6
Continuous
 62
   174
100
AcDbPolyline
 90
        4
 70
   128
 10
64.324932
 20
167.542265
 10
63.915056
 20
167.542265
 10
63.624114
 20
167.542265
 10
63.458906
 20
167.542265
  0
ARC
  5
1EC
100
AcDbEntity
  8
0
  6
Continuous
 62
   174
100
AcDbCircle
 10
160.958906
 20
152.231174
 30
0.0
 40
4.375
100
AcDbArc
 50
-90.0
 51
90.0
  0
ARC
  5
1ED
100
AcDbEntity
  8
0
  6
Continuous
 62
   174
100
AcDbCircle
 10
160.958906
 20
152.231174
 30
0.0
 40
4.375
100
AcDbArc
 50
-270.0
 51
-90.0
  0
LWPOLYLINE
  5
1EE
100
AcDbEntity
  8
0
  6
Continuous
 62
   174
100
AcDbPolyline
 90
        4
 70
   128
 10
63.458906
 20
153.978326
 10
63.625307
 20
155.295462
 10
63.91666
 20
156.618477
 10
64.324932
 20
157.968591
  0
LINE
  5
1EF
100
AcDbEntity
  8
0
  6
Continuous
 62
   174
100
AcDbLine
 10
63.458906
 20
167.581673
 30
0.0
 11
63.458906
 21
154.018579
 31
0.0
  0
LINE
  5
1F0
100
AcDbEntity
  8
0
  6
Continuous
 62
   174
100
AcDbLine
 10
313.458906
 20
148.210802
 30
0.0
 11
313.458906
 21
161.773596
 31
0.0
  0
LINE
  5
1F1
100
AcDbEntity
  8
0
  6
Continuous
 62
   174
100
AcDbLine
 10
63.458906
 20
152.088461
 30
0.0
 11
63.458906
 21
148.146815
 31
0.0
  0
LINE
  5
1F2
100
AcDbEntity
  8
0
  6
Continuous
 62
   174
100
AcDbLine
 10
313.458906
 20
163.704014
 30
0.0
 11
313.458906
 21
167.645359
 31
0.0
  0
LINE
  5
1F3
100
AcDbEntity
  8
0
  6
Continuous
 62
   174
100
AcDbLine
 10
307.833906
 20
146.606174
 30
0.0
 11
308.708906
 21
146.606174
 31
0.0
  0
LINE
  5
1F4
100
AcDbEntity
  8
0
  6
Continuous
 62
   174
100
AcDbLine
 10
72.833906
 20
147.856174
 30
0.0
 11
77.583906
 21
147.856174
 31
0.0
  0
LINE
  5
1F5
100
AcDbEntity
  8
0
  6
Continuous
 62
   174
100
AcDbLine
 10
72.833906
 20
166.153536
 30
0.0
 11
72.833906
 21
149.638638
 31
0.0
  0
LINE
  5
1F6
100
AcDbEntity
  8
0
  6
Continuous
 62
   174
100
AcDbLine
 10
307.833906
 20
149.504056
 30
0.0
 11
307.833906
 21
146.646881
 31
0.0
  0
LINE
  5
1F7
100
AcDbEntity
  8
0
  6
Continuous
 62
   174
100
AcDbLine
 10
307.833906
 20
166.288419
 30
0.0
 11
307.833906
 21
149.504056
 31
0.0
  0
LINE
  5
1F8
100
AcDbEntity
  8
0
  6
Continuous
 62
   174
100
AcDbLine
 10
307.833906
 20
169.145293
 30
0.0
 11
307.833906
 21
166.288419
 31
0.0
  0
LINE
  5
1F9
100
AcDbEntity
  8
0
  6
Continuous
 62
   174
100
AcDbLine
 10
68.208906
 20
158.00859
 30
0.0
 11
68.208906
 21
148.09845
 31
0.0
  0
LINE
  5
1FA
100
AcDbEntity
  8
0
  6
Continuous
 62
   174
100
AcDbLine
 10
68.208906
 20
167.581673
 30
0.0
 11
68.208906
 21
158.00859
 31
0.0
  0
LINE
  5
1FB
100
AcDbEntity
  8
0
  6
Continuous
 62
   174
100
AcDbLine
 10
308.708906
 20
148.210802
 30
0.0
 11
308.708906
 21
157.783585
 31
0.0
  0
LINE
  5
1FC
100
AcDbEntity
  8
0
  6
Continuous
 62
   174
100
AcDbLine
 10
308.708906
 20
146.646881
 30
0.0
 11
308.708906
 21
148.210802
 31
0.0
  0
LINE
  5
1FD
100
AcDbEntity
  8
0
  6
Continuous
 62
   174
100
AcDbLine
 10
68.208906
 20
157.968591
 30
0.0
 11
64.324932
 21
157.968591
 31
0.0
  0
LINE
  5
1FE
100
AcDbEntity
  8
0
  6
Continuous
 62
   174
100
AcDbLine
 10
299.333906
 20
151.548929
 30
0.0
 11
299.333906
 21
154.772902
 31
0.0
  0
LINE
  5
1FF
100
AcDbEntity
  8
0
  6
Continuous
 62
   174
100
AcDbLine
 10
77.583906
 20
154.768696
 30
0.0
 11
77.583906
 21
151.545324
 31
0.0
  0
LWPOLYLINE
  5
200
100
AcDbEntity
  8
0
  6
Continuous
 62
   174
100
AcDbPolyline
 90
        7
 70
   128
 10
64.324932
 20
157.968591
 10
63.867274
 20
159.596049
 10
63.582151
 20
161.191801
 10
63.486022
 20
162.755514
 10
63.58217
 20
164.319208
 10
63.867295
 20
165.914902
 10
64.324932
 20
167.542265
  0
LINE
  5
201
100
AcDbEntity
  8
0
  6
Continuous
 62
   174
100
AcDbLine
 10
299.333906
 20
161.023479
 30
0.0
 11
299.333906
 21
164.24715
 31
0.0
  0
LINE
  5
202
100
AcDbEntity
  8
0
  6
Continuous
 62
   174
100
AcDbLine
 10
77.583906
 20
147.126932
 30
0.0
 11
77.583906
 21
145.792823
 31
0.0
  0
LINE
  5
203
100
AcDbEntity
  8
0
  6
Continuous
 62
   174
100
AcDbLine
 10
299.333906
 20
168.665242
 30
0.0
 11
299.333906
 21
169.999352
 31
0.0
  0
LINE
  5
204
100
AcDbEntity
  8
0
  6
Continuous
 62
   174
100
AcDbLine
 10
313.458906
 20
163.664417
 30
0.0
 11
313.458906
 21
161.734022
 31
0.0
  0
LINE
  5
205
100
AcDbEntity
  8
0
  6
Continuous
 62
   174
100
AcDbLine
 10
77.583906
 20
168.623926
 30
0.0
 11
85.333906
 21
168.623926
 31
0.0
  0
LINE
  5
206
100
AcDbEntity
  8
0
  6
Continuous
 62
   174
100
AcDbLine
 10
72.833906
 20
147.856174
 30
0.0
 11
77.583906
 21
147.856174
 31
0.0
  0
LINE
  5
207
100
AcDbEntity
  8
0
  6
Continuous
 62
   174
100
AcDbLine
 10
144.708906
 20
171.606174
 30
0.0
 11
124.708906
 21
171.606174
 31
0.0
  0
ARC
  5
208
100
AcDbEntity
  8
0
  6
Continuous
 62
   174
100
AcDbCircle
 10
202.208906
 20
152.231174
 30
0.0
 40
4.375
100
AcDbArc
 50
-90.0
 51
90.0
  0
ARC
  5
209
100
AcDbEntity
  8
0
  6
Continuous
 62
   174
100
AcDbCircle
 10
202.208906
 20
152.231174
 30
0.0
 40
4.375
100
AcDbArc
 50
-270.0
 51
-90.0
  0
LINE
  5
20A
100
AcDbEntity
  8
0
  6
Continuous
 62
   174
100
AcDbLine
 10
68.208906
 20
169.145293
 30
0.0
 11
68.208906
 21
167.581673
 31
0.0
  0
LINE
  5
20B
100
AcDbEntity
  8
0
  6
Continuous
 62
   174
100
AcDbLine
 10
144.708906
 20
171.606174
 30
0.0
 11
232.208906
 21
171.606174
 31
0.0
  0
LINE
  5
20C
100
AcDbEntity
  8
0
  6
Continuous
 62
   174
100
AcDbLine
 10
308.708906
 20
148.170083
 30
0.0
 11
312.592881
 21
148.170083
 31
0.0
  0
LWPOLYLINE
  5
20D
100
AcDbEntity
  8
0
  6
Continuous
 62
   174
100
AcDbPolyline
 90
        4
 70
   128
 10
312.592881
 20
148.170083
 10
313.002757
 20
148.170083
 10
313.293699
 20
148.170083
 10
313.458906
 20
148.170083
  0
LWPOLYLINE
  5
20E
100
AcDbEntity
  8
0
  6
Continuous
 62
   174
100
AcDbPolyline
 90
        7
 70
   128
 10
312.592881
 20
157.743757
 10
313.050539
 20
156.116299
 10
313.335662
 20
154.520547
 10
313.431791
 20
152.956833
 10
313.335643
 20
151.39314
 10
313.050518
 20
149.797446
 10
312.592881
 20
148.170083
  0
LINE
  5
20F
100
AcDbEntity
  8
0
  6
Continuous
 62
   174
100
AcDbLine
 10
77.583906
 20
169.959247
 30
0.0
 11
85.333906
 21
169.959247
 31
0.0
  0
ARC
  5
210
100
AcDbEntity
  8
0
  6
Continuous
 62
   174
100
AcDbCircle
 10
207.208906
 20
168.168674
 30
0.0
 40
2.0625
100
AcDbArc
 50
-270.0
 51
-90.0
  0
ARC
  5
211
100
AcDbEntity
  8
0
  6
Continuous
 62
   174
100
AcDbCircle
 10
207.208906
 20
168.168674
 30
0.0
 40
2.0625
100
AcDbArc
 50
-90.0
 51
90.0
  0
LINE
  5
212
100
AcDbEntity
  8
0
  6
Continuous
 62
   174
100
AcDbLine
 10
144.708906
 20
144.106174
 30
0.0
 11
144.708906
 21
171.606174
 31
0.0
  0
LINE
  5
213
100
AcDbEntity
  8
0
  6
Continuous
 62
   174
100
AcDbLine
 10
144.708906
 20
144.106174
 30
0.0
 11
144.708906
 21
171.606174
 31
0.0
  0
LWPOLYLINE
  5
214
100
AcDbEntity
  8
0
  6
Continuous
 62
   174
100
AcDbPolyline
 90
        4
 70
   128
 10
63.486015
 20
148.057666
 10
63.582124
 20
148.057666
 10
63.86724
 20
148.057666
 10
64.324932
 20
148.057666
  0
LINE
  5
215
100
AcDbEntity
  8
0
  6
Continuous
 62
   174
100
AcDbLine
 10
77.583906
 20
164.20374
 30
0.0
 11
85.333906
 21
164.20374
 31
0.0
  0
LINE
  5
216
100
AcDbEntity
  8
0
  6
Continuous
 62
   174
100
AcDbLine
 10
304.083906
 20
147.856174
 30
0.0
 11
299.333906
 21
147.856174
 31
0.0
  0
LINE
  5
217
100
AcDbEntity
  8
0
  6
Continuous
 62
   174
100
AcDbLine
 10
124.708906
 20
144.106174
 30
0.0
 11
124.708906
 21
171.606174
 31
0.0
  0
LINE
  5
218
100
AcDbEntity
  8
0
  6
Continuous
 62
   174
100
AcDbLine
 10
144.708906
 20
144.106174
 30
0.0
 11
124.708906
 21
144.106174
 31
0.0
  0
LINE
  5
219
100
AcDbEntity
  8
0
  6
Continuous
 62
   174
100
AcDbLine
 10
69.083906
 20
166.288419
 30
0.0
 11
69.083906
 21
169.145293
 31
0.0
  0
LINE
  5
21A
100
AcDbEntity
  8
0
  6
Continuous
 62
   174
100
AcDbLine
 10
69.083906
 20
149.504056
 30
0.0
 11
69.083906
 21
166.288419
 31
0.0
  0
LINE
  5
21B
100
AcDbEntity
  8
0
  6
Continuous
 62
   174
100
AcDbLine
 10
69.083906
 20
146.646881
 30
0.0
 11
69.083906
 21
149.504056
 31
0.0
  0
LINE
  5
21C
100
AcDbEntity
  8
0
  6
Continuous
 62
   174
100
AcDbLine
 10
308.708906
 20
167.694025
 30
0.0
 11
308.708906
 21
169.145293
 31
0.0
  0
LINE
  5
21D
100
AcDbEntity
  8
0
  6
Continuous
 62
   174
100
AcDbLine
 10
77.583906
 20
169.99845
 30
0.0
 11
77.583906
 21
168.663139
 31
0.0
  0
LINE
  5
21E
100
AcDbEntity
  8
0
  6
Continuous
 62
   174
100
AcDbLine
 10
299.333906
 20
145.794024
 30
0.0
 11
299.333906
 21
147.129035
 31
0.0
  0
LINE
  5
21F
100
AcDbEntity
  8
0
  6
Continuous
 62
   174
100
AcDbLine
 10
308.708906
 20
157.743757
 30
0.0
 11
312.592881
 21
157.743757
 31
0.0
  0
LINE
  5
220
100
AcDbEntity
  8
0
  6
Continuous
 62
   174
100
AcDbLine
 10
68.208906
 20
148.057666
 30
0.0
 11
64.324932
 21
148.057666
 31
0.0
  0
LINE
  5
221
100
AcDbEntity
  8
0
  6
Continuous
 62
   174
100
AcDbLine
 10
299.333906
 20
147.088422
 30
0.0
 11
291.583906
 21
147.088422
 31
0.0
  0
LINE
  5
222
100
AcDbEntity
  8
0
  6
Continuous
 62
   174
100
AcDbLine
 10
307.833906
 20
146.606174
 30
0.0
 11
308.708906
 21
146.606174
 31
0.0
  0
LINE
  5
223
100
AcDbEntity
  8
0
  6
Continuous
 62
   174
100
AcDbLine
 10
72.833906
 20
167.856174
 30
0.0
 11
77.583906
 21
167.856174
 31
0.0
  0
ARC
  5
224
100
AcDbEntity
  8
0
  6
Continuous
 62
   174
100
AcDbCircle
 10
174.708906
 20
163.481174
 30
0.0
 40
4.375
100
AcDbArc
 50
-90.0
 51
90.0
  0
ARC
  5
225
100
AcDbEntity
  8
0
  6
Continuous
 62
   174
100
AcDbCircle
 10
174.708906
 20
163.481174
 30
0.0
 40
4.375
100
AcDbArc
 50
-270.0
 51
-90.0
  0
LINE
  5
226
100
AcDbEntity
  8
0
  6
Continuous
 62
   174
100
AcDbLine
 10
304.083906
 20
166.153536
 30
0.0
 11
304.083906
 21
167.895298
 31
0.0
  0
LINE
  5
227
100
AcDbEntity
  8
0
  6
Continuous
 62
   174
100
AcDbLine
 10
77.583906
 20
164.243245
 30
0.0
 11
77.583906
 21
161.019273
 31
0.0
  0
LWPOLYLINE
  5
228
100
AcDbEntity
  8
0
  6
Continuous
 62
   174
100
AcDbPolyline
 90
        4
 70
   128
 10
313.458906
 20
161.734022
 10
313.292506
 20
160.416886
 10
313.001153
 20
159.09387
 10
312.592881
 20
157.743757
  0
LINE
  5
229
100
AcDbEntity
  8
0
  6
Continuous
 62
   174
100
AcDbLine
 10
307.833906
 20
169.106174
 30
0.0
 11
308.708906
 21
169.106174
 31
0.0
  0
LINE
  5
22A
100
AcDbEntity
  8
0
  6
Continuous
 62
   174
100
AcDbLine
 10
63.458906
 20
148.106174
 30
0.0
 11
63.582152
 21
147.892707
 31
0.0
  0
LINE
  5
22B
100
AcDbEntity
  8
0
  6
Continuous
 62
   174
100
AcDbLine
 10
72.833906
 20
167.856174
 30
0.0
 11
77.583906
 21
167.856174
 31
0.0
  0
ARC
  5
22C
100
AcDbEntity
  8
0
  6
Continuous
 62
   174
100
AcDbCircle
 10
169.708906
 20
147.543674
 30
0.0
 40
2.0625
100
AcDbArc
 50
-90.0
 51
90.0
  0
LINE
  5
22D
100
AcDbEntity
  8
0
  6
Continuous
 62
   174
100
AcDbLine
 10
252.208906
 20
171.606174
 30
0.0
 11
252.208906
 21
144.106174
 31
0.0
  0
LINE
  5
22E
100
AcDbEntity
  8
0
  6
Continuous
 62
   174
100
AcDbLine
 10
72.833906
 20
149.638638
 30
0.0
 11
72.833906
 21
147.896876
 31
0.0
  0
LINE
  5
22F
100
AcDbEntity
  8
0
  6
Continuous
 62
   174
100
AcDbLine
 10
72.833906
 20
167.895298
 30
0.0
 11
72.833906
 21
166.153536
 31
0.0
  0
LINE
  5
230
100
AcDbEntity
  8
0
  6
Continuous
 62
   174
100
AcDbLine
 10
304.083906
 20
149.638638
 30
0.0
 11
304.083906
 21
166.153536
 31
0.0
  0
LINE
  5
231
100
AcDbEntity
  8
0
  6
Continuous
 62
   174
100
AcDbLine
 10
304.083906
 20
147.896876
 30
0.0
 11
304.083906
 21
149.638638
 31
0.0
  0
LINE
  5
232
100
AcDbEntity
  8
0
  6
Continuous
 62
   174
100
AcDbLine
 10
232.208906
 20
144.106174
 30
0.0
 11
144.708906
 21
144.106174
 31
0.0
  0
LINE
  5
233
100
AcDbEntity
  8
0
  6
Continuous
 62
   174
100
AcDbLine
 10
63.458906
 20
152.047931
 30
0.0
 11
63.458906
 21
153.978326
 31
0.0
  0
LWPOLYLINE
  5
234
100
AcDbEntity
  8
0
  6
Continuous
 62
   174
100
AcDbPolyline
 90
        4
 70
   128
 10
64.324932
 20
148.057666
 10
63.915056
 20
149.413877
 10
63.624113
 20
150.737626
 10
63.458906
 20
152.047931
  0
LWPOLYLINE
  5
235
100
AcDbEntity
  8
0
  6
Continuous
 62
   174
100
AcDbPolyline
 90
        4
 70
   128
 10
312.592881
 20
167.654682
 10
313.002757
 20
166.29847
 10
313.293699
 20
164.974722
 10
313.458906
 20
163.664417
  0
LINE
  5
236
100
AcDbEntity
  8
0
  6
Continuous
 62
   174
100
AcDbLine
 10
299.333906
 20
145.753101
 30
0.0
 11
291.583906
 21
145.753101
 31
0.0
  0
LWPOLYLINE
  5
237
100
AcDbEntity
  8
0
  6
Continuous
 62
   174
100
AcDbPolyline
 90
        4
 70
   128
 10
313.431797
 20
167.654682
 10
313.335689
 20
167.654682
 10
313.050573
 20
167.654682
 10
312.592881
 20
167.654682
  0
LINE
  5
238
100
AcDbEntity
  8
0
  6
Continuous
 62
   174
100
AcDbLine
 10
77.583906
 20
147.086215
 30
0.0
 11
85.333906
 21
147.086215
 31
0.0
  0
ARC
  5
239
100
AcDbEntity
  8
0
  6
Continuous
 62
   174
100
AcDbCircle
 10
174.708906
 20
163.481174
 30
0.0
 40
6.875
100
AcDbArc
 50
-90.0
 51
90.0
  0
LINE
  5
23A
100
AcDbEntity
  8
0
  6
Continuous
 62
   174
100
AcDbLine
 10
198.256059
 20
150.356174
 30
0.0
 11
198.291853
 21
150.356197
 31
0.0
  0
LINE
  5
23B
100
AcDbEntity
  8
0
  6
Continuous
 62
   174
100
AcDbLine
 10
85.333906
 20
169.99845
 30
0.0
 11
85.333906
 21
170.395288
 31
0.0
  0
LINE
  5
23C
100
AcDbEntity
  8
0
  6
Continuous
 62
   174
100
AcDbLine
 10
299.333906
 20
164.207485
 30
0.0
 11
291.583906
 21
164.207485
 31
0.0
  0
LINE
  5
23D
100
AcDbEntity
  8
0
  6
Continuous
 62
   174
100
AcDbLine
 10
291.583906
 20
151.548929
 30
0.0
 11
291.583906
 21
147.129035
 31
0.0
  0
ARC
  5
23E
100
AcDbEntity
  8
0
  6
Continuous
 62
   174
100
AcDbCircle
 10
215.958906
 20
163.481174
 30
0.0
 40
6.875
100
AcDbArc
 50
90.0
 51
270.0
  0
LINE
  5
23F
100
AcDbEntity
  8
0
  6
Continuous
 62
   174
100
AcDbLine
 10
77.583906
 20
151.504863
 30
0.0
 11
85.333906
 21
151.504863
 31
0.0
  0
ARC
  5
240
100
AcDbEntity
  8
0
  6
Continuous
 62
   174
100
AcDbCircle
 10
188.458906
 20
157.856174
 30
0.0
 40
6.875
100
AcDbArc
 50
90.0
 51
270.0
  0
LINE
  5
241
100
AcDbEntity
  8
0
  6
Continuous
 62
   174
100
AcDbLine
 10
290.958906
 20
170.356174
 30
0.0
 11
289.708906
 21
170.356174
 31
0.0
  0
LINE
  5
242
100
AcDbEntity
  8
0
  6
Continuous
 62
   174
100
AcDbLine
 10
299.333906
 20
169.960333
 30
0.0
 11
291.583906
 21
169.960333
 31
0.0
  0
LINE
  5
243
100
AcDbEntity
  8
0
  6
Continuous
 62
   174
100
AcDbLine
 10
85.333906
 20
164.243245
 30
0.0
 11
85.333906
 21
168.663139
 31
0.0
  0
ARC
  5
244
100
AcDbEntity
  8
0
  6
Continuous
 62
   174
100
AcDbCircle
 10
215.958906
 20
163.481174
 30
0.0
 40
6.875
100
AcDbArc
 50
-90.0
 51
90.0
  0
LINE
  5
245
100
AcDbEntity
  8
0
  6
Continuous
 62
   174
100
AcDbLine
 10
290.958906
 20
170.356174
 30
0.0
 11
289.708906
 21
170.356174
 31
0.0
  0
ARC
  5
246
100
AcDbEntity
  8
0
  6
Continuous
 62
   174
100
AcDbCircle
 10
188.458906
 20
157.856174
 30
0.0
 40
6.875
100
AcDbArc
 50
-90.0
 51
90.0
  0
LINE
  5
247
100
AcDbEntity
  8
0
  6
Continuous
 62
   174
100
AcDbLine
 10
77.583906
 20
145.752015
 30
0.0
 11
85.333906
 21
145.752015
 31
0.0
  0
LINE
  5
248
100
AcDbEntity
  8
0
  6
Continuous
 62
   174
100
AcDbLine
 10
291.583906
 20
170.356174
 30
0.0
 11
290.958906
 21
170.356174
 31
0.0
  0
LINE
  5
249
100
AcDbEntity
  8
0
  6
Continuous
 62
   174
100
AcDbLine
 10
85.333906
 20
147.126932
 30
0.0
 11
85.333906
 21
151.545324
 31
0.0
  0
LINE
  5
24A
100
AcDbEntity
  8
0
  6
Continuous
 62
   174
100
AcDbLine
 10
291.583906
 20
161.023479
 30
0.0
 11
291.583906
 21
154.772902
 31
0.0
  0
LINE
  5
24B
100
AcDbEntity
  8
0
  6
Continuous
 62
   174
100
AcDbLine
 10
299.333906
 20
154.732735
 30
0.0
 11
291.583906
 21
154.732735
 31
0.0
  0
LINE
  5
24C
100
AcDbEntity
  8
0
  6
Continuous
 62
   174
100
AcDbLine
 10
299.333906
 20
147.088422
 30
0.0
 11
299.333906
 21
151.508608
 31
0.0
  0
LINE
  5
24D
100
AcDbEntity
  8
0
  6
Continuous
 62
   174
100
AcDbLine
 10
290.958906
 20
145.356174
 30
0.0
 11
289.708906
 21
145.356174
 31
0.0
  0
LINE
  5
24E
100
AcDbEntity
  8
0
  6
Continuous
 62
   174
100
AcDbLine
 10
299.333906
 20
160.983822
 30
0.0
 11
291.583906
 21
160.983822
 31
0.0
  0
LINE
  5
24F
100
AcDbEntity
  8
0
  6
Continuous
 62
   174
100
AcDbLine
 10
77.583906
 20
160.979612
 30
0.0
 11
85.333906
 21
160.979612
 31
0.0
  0
LINE
  5
250
100
AcDbEntity
  8
0
  6
Continuous
 62
   174
100
AcDbLine
 10
77.583906
 20
168.623926
 30
0.0
 11
77.583906
 21
164.20374
 31
0.0
  0
LINE
  5
251
100
AcDbEntity
  8
0
  6
Continuous
 62
   174
100
AcDbLine
 10
291.583906
 20
170.395288
 30
0.0
 11
291.583906
 21
169.999352
 31
0.0
  0
LINE
  5
252
100
AcDbEntity
  8
0
  6
Continuous
 62
   174
100
AcDbLine
 10
85.333906
 20
170.356174
 30
0.0
 11
85.958906
 21
170.356174
 31
0.0
  0
LWPOLYLINE
  5
253
100
AcDbEntity
  8
0
  6
Continuous
 62
   174
100
AcDbPolyline
 90
       14
 70
   128
 10
157.041853
 20
150.356197
 10
157.781848
 20
150.366801
 10
158.490346
 20
150.393687
 10
159.134667
 20
150.429413
 10
159.718004
 20
150.466256
 10
160.243775
 20
150.496194
 10
160.724289
 20
150.512765
 10
161.193384
 20
150.512767
 10
161.673458
 20
150.496222
 10
162.198747
 20
150.466322
 10
162.781822
 20
150.429494
 10
163.425974
 20
150.393759
 10
164.134851
 20
150.366832
 10
164.875947
 20
150.356197
  0
LINE
  5
254
100
AcDbEntity
  8
0
  6
Continuous
 62
   174
100
AcDbLine
 10
85.333906
 20
154.768696
 30
0.0
 11
85.333906
 21
161.019273
 31
0.0
  0
LINE
  5
255
100
AcDbEntity
  8
0
  6
Continuous
 62
   174
100
AcDbLine
 10
77.583906
 20
154.728526
 30
0.0
 11
85.333906
 21
154.728526
 31
0.0
  0
ARC
  5
256
100
AcDbEntity
  8
0
  6
Continuous
 62
   174
100
AcDbCircle
 10
160.958906
 20
152.231174
 30
0.0
 40
6.875
100
AcDbArc
 50
90.0
 51
270.0
  0
LINE
  5
257
100
AcDbEntity
  8
0
  6
Continuous
 62
   174
100
AcDbLine
 10
299.333906
 20
154.732735
 30
0.0
 11
299.333906
 21
160.983822
 31
0.0
  0
LINE
  5
258
100
AcDbEntity
  8
0
  6
Continuous
 62
   174
100
AcDbLine
 10
124.708906
 20
144.106174
 30
0.0
 11
87.208906
 21
144.106174
 31
0.0
  0
LINE
  5
259
100
AcDbEntity
  8
0
  6
Continuous
 62
   174
100
AcDbLine
 10
85.958906
 20
145.356174
 30
0.0
 11
87.208906
 21
145.356174
 31
0.0
  0
LINE
  5
25A
100
AcDbEntity
  8
0
  6
Continuous
 62
   174
100
AcDbLine
 10
77.583906
 20
160.979612
 30
0.0
 11
77.583906
 21
154.728526
 31
0.0
  0
LINE
  5
25B
100
AcDbEntity
  8
0
  6
Continuous
 62
   174
100
AcDbLine
 10
85.333906
 20
145.397186
 30
0.0
 11
85.333906
 21
145.792823
 31
0.0
  0
LINE
  5
25C
100
AcDbEntity
  8
0
  6
Continuous
 62
   174
100
AcDbLine
 10
289.708906
 20
144.106174
 30
0.0
 11
252.208906
 21
144.106174
 31
0.0
  0
ARC
  5
25D
100
AcDbEntity
  8
0
  6
Continuous
 62
   174
100
AcDbCircle
 10
174.708906
 20
163.481174
 30
0.0
 40
6.875
100
AcDbArc
 50
90.0
 51
270.0
  0
LINE
  5
25E
100
AcDbEntity
  8
0
  6
Continuous
 62
   174
100
AcDbLine
 10
85.958906
 20
145.356174
 30
0.0
 11
87.208906
 21
145.356174
 31
0.0
  0
LINE
  5
25F
100
AcDbEntity
  8
0
  6
Continuous
 62
   174
100
AcDbLine
 10
291.583906
 20
168.665242
 30
0.0
 11
291.583906
 21
164.24715
 31
0.0
  0
LWPOLYLINE
  5
260
100
AcDbEntity
  8
0
  6
Continuous
 62
   174
100
AcDbPolyline
 90
       14
 70
   128
 10
178.62596
 20
165.356151
 10
177.885965
 20
165.345546
 10
177.177467
 20
165.318661
 10
176.533145
 20
165.282935
 10
175.949809
 20
165.246092
 10
175.424038
 20
165.216154
 10
174.943524
 20
165.199583
 10
174.474429
 20
165.19958
 10
173.994355
 20
165.216126
 10
173.469065
 20
165.246025
 10
172.885991
 20
165.282854
 10
172.241839
 20
165.318589
 10
171.532961
 20
165.345516
 10
170.791866
 20
165.356151
  0
LINE
  5
261
100
AcDbEntity
  8
0
  6
Continuous
 62
   174
100
AcDbLine
 10
124.708906
 20
171.606174
 30
0.0
 11
124.708906
 21
144.106174
 31
0.0
  0
ARC
  5
262
100
AcDbEntity
  8
0
  6
Continuous
 62
   174
100
AcDbCircle
 10
160.958906
 20
152.231174
 30
0.0
 40
6.875
100
AcDbArc
 50
-90.0
 51
90.0
  0
LINE
  5
263
100
AcDbEntity
  8
0
  6
Continuous
 62
   174
100
AcDbLine
 10
299.333906
 20
164.207485
 30
0.0
 11
299.333906
 21
168.626133
 31
0.0
  0
LINE
  5
264
100
AcDbEntity
  8
0
  6
Continuous
 62
   174
100
AcDbLine
 10
87.208906
 20
171.606174
 30
0.0
 11
124.708906
 21
171.606174
 31
0.0
  0
LINE
  5
265
100
AcDbEntity
  8
0
  6
Continuous
 62
   174
100
AcDbLine
 10
85.333906
 20
145.356174
 30
0.0
 11
85.958906
 21
145.356174
 31
0.0
  0
LINE
  5
266
100
AcDbEntity
  8
0
  6
Continuous
 62
   174
100
AcDbLine
 10
157.006059
 20
150.356174
 30
0.0
 11
157.041853
 21
150.356197
 31
0.0
  0
LINE
  5
267
100
AcDbEntity
  8
0
  6
Continuous
 62
   174
100
AcDbLine
 10
219.911753
 20
165.356174
 30
0.0
 11
219.87596
 21
165.356151
 31
0.0
  0
LINE
  5
268
100
AcDbEntity
  8
0
  6
Continuous
 62
   174
100
AcDbLine
 10
77.583906
 20
151.504863
 30
0.0
 11
77.583906
 21
147.086215
 31
0.0
  0
LINE
  5
269
100
AcDbEntity
  8
0
  6
Continuous
 62
   174
100
AcDbLine
 10
289.708906
 20
171.606174
 30
0.0
 11
289.708906
 21
144.106174
 31
0.0
  0
LINE
  5
26A
100
AcDbEntity
  8
0
  6
Continuous
 62
   174
100
AcDbLine
 10
178.661753
 20
165.356174
 30
0.0
 11
178.62596
 21
165.356151
 31
0.0
  0
LINE
  5
26B
100
AcDbEntity
  8
0
  6
Continuous
 62
   174
100
AcDbLine
 10
85.958906
 20
170.356174
 30
0.0
 11
87.208906
 21
170.356174
 31
0.0
  0
LWPOLYLINE
  5
26C
100
AcDbEntity
  8
0
  6
Continuous
 62
   174
100
AcDbPolyline
 90
       14
 70
   128
 10
198.291853
 20
150.356197
 10
199.031848
 20
150.366801
 10
199.740346
 20
150.393687
 10
200.384667
 20
150.429413
 10
200.968004
 20
150.466256
 10
201.493775
 20
150.496194
 10
201.974289
 20
150.512765
 10
202.443384
 20
150.512767
 10
202.923458
 20
150.496222
 10
203.448747
 20
150.466322
 10
204.031822
 20
150.429494
 10
204.675974
 20
150.393759
 10
205.384851
 20
150.366832
 10
206.125947
 20
150.356197
  0
LINE
  5
26D
100
AcDbEntity
  8
0
  6
Continuous
 62
   174
100
AcDbLine
 10
299.333906
 20
168.626133
 30
0.0
 11
291.583906
 21
168.626133
 31
0.0
  0
LINE
  5
26E
100
AcDbEntity
  8
0
  6
Continuous
 62
   174
100
AcDbLine
 10
252.208906
 20
171.606174
 30
0.0
 11
289.708906
 21
171.606174
 31
0.0
  0
LINE
  5
26F
100
AcDbEntity
  8
0
  6
Continuous
 62
   174
100
AcDbLine
 10
252.208906
 20
144.106174
 30
0.0
 11
252.208906
 21
171.606174
 31
0.0
  0
LINE
  5
270
100
AcDbEntity
  8
0
  6
Continuous
 62
   174
100
AcDbLine
 10
291.583906
 20
145.356174
 30
0.0
 11
290.958906
 21
145.356174
 31
0.0
  0
LINE
  5
271
100
AcDbEntity
  8
0
  6
Continuous
 62
   174
100
AcDbLine
 10
87.208906
 20
144.106174
 30
0.0
 11
87.208906
 21
171.606174
 31
0.0
  0
LINE
  5
272
100
AcDbEntity
  8
0
  6
Continuous
 62
   174
100
AcDbLine
 10
291.583906
 20
145.794024
 30
0.0
 11
291.583906
 21
145.397186
 31
0.0
  0
LWPOLYLINE
  5
273
100
AcDbEntity
  8
0
  6
Continuous
 62
   174
100
AcDbPolyline
 90
       14
 70
   128
 10
219.87596
 20
165.356151
 10
219.135965
 20
165.345546
 10
218.427467
 20
165.318661
 10
217.783145
 20
165.282935
 10
217.199809
 20
165.246092
 10
216.674038
 20
165.216154
 10
216.193524
 20
165.199583
 10
215.724429
 20
165.19958
 10
215.244355
 20
165.216126
 10
214.719065
 20
165.246025
 10
214.135991
 20
165.282854
 10
213.491839
 20
165.318589
 10
212.782961
 20
165.345516
 10
212.041866
 20
165.356151
  0
ENDBLK
  5
274
100
AcDbEntity
  8
0
100
AcDbBlockEnd
  0
BLOCK
  5
277
100
AcDbEntity
  8
0
100
AcDbBlockBegin
  2
*B3
 70
     0
 10
0.0
 20
0.0
 30
0.0
  3
*B3
  1

  0
LINE
  5
278
100
AcDbEntity
  8
0
  6
Continuous
 62
   172
100
AcDbLine
 10
105.878671
 20
158.449346
 30
0.0
 11
83.76436
 21
120.843155
 31
0.0
  0
LINE
  5
279
100
AcDbEntity
  8
0
  6
Continuous
 62
   172
100
AcDbLine
 10
83.76436
 20
120.843155
 30
0.0
 11
73.253671
 21
120.843155
 31
0.0
  0
ENDBLK
  5
27A
100
AcDbEntity
  8
0
100
AcDbBlockEnd
  0
BLOCK
  5
27D
100
AcDbEntity
  8
0
100
AcDbBlockBegin
  2
*B4
 70
     0
 10
0.0
 20
0.0
 30
0.0
  3
*B4
  1

  0
LINE
  5
27E
100
AcDbEntity
  8
0
  6
Continuous
 62
   172
100
AcDbLine
 10
81.580415
 20
123.122602
 30
0.0
 11
79.330415
 21
123.949346
 31
0.0
  0
LINE
  5
27F
100
AcDbEntity
  8
0
  6
Continuous
 62
   172
100
AcDbLine
 10
81.580415
 20
123.122602
 30
0.0
 11
79.330415
 21
122.449346
 31
0.0
  0
LINE
  5
280
100
AcDbEntity
  8
0
  6
Continuous
 62
   172
100
AcDbLine
 10
80.080415
 20
123.122602
 30
0.0
 11
81.580415
 21
123.122602
 31
0.0
  0
LINE
  5
281
100
AcDbEntity
  8
0
  6
Continuous
 62
   172
100
AcDbLine
 10
81.580415
 20
136.02609
 30
0.0
 11
79.330415
 21
135.199346
 31
0.0
  0
LINE
  5
282
100
AcDbEntity
  8
0
  6
Continuous
 62
   172
100
AcDbLine
 10
81.580415
 20
136.02609
 30
0.0
 11
79.330415
 21
136.699346
 31
0.0
  0
LINE
  5
283
100
AcDbEntity
  8
0
  6
Continuous
 62
   172
100
AcDbLine
 10
80.080415
 20
136.02609
 30
0.0
 11
81.580415
 21
136.02609
 31
0.0
  0
ARC
  5
284
100
AcDbEntity
  8
0
  6
Continuous
 62
   172
100
AcDbCircle
 10
80.080415
 20
129.574346
 30
0.0
 40
6.451744
100
AcDbArc
 50
-270.0
 51
-90.0
  0
ENDBLK
  5
285
100
AcDbEntity
  8
0
100
AcDbBlockEnd
  0
BLOCK
  5
288
100
AcDbEntity
  8
0
100
AcDbBlockBegin
  2
*B5
 70
     0
 10
0.0
 20
0.0
 30
0.0
  3
*B5
  1

  0
ENDBLK
  5
289
100
AcDbEntity
  8
0
100
AcDbBlockEnd
  0
BLOCK
  5
28B
100
AcDbEntity
  8
0
100
AcDbBlockBegin
  2
*B6
 70
     0
 10
0.0
 20
0.0
 30
0.0
  3
*B6
  1

  0
LINE
  5
28C
100
AcDbEntity
  8
0
  6
Continuous
 62
   172
100
AcDbLine
 10
137.227325
 20
47.874097
 30
0.0
 11
115.113014
 21
10.267906
 31
0.0
  0
LINE
  5
28D
100
AcDbEntity
  8
0
  6
Continuous
 62
   172
100
AcDbLine
 10
115.113014
 20
10.267906
 30
0.0
 11
104.602325
 21
10.267906
 31
0.0
  0
ENDBLK
  5
28E
100
AcDbEntity
  8
0
100
AcDbBlockEnd
  0
BLOCK
  5
291
100
AcDbEntity
  8
0
100
AcDbBlockBegin
  2
*B7
 70
     0
 10
0.0
 20
0.0
 30
0.0
  3
*B7
  1

  0
LINE
  5
292
100
AcDbEntity
  8
0
  6
Continuous
 62
   172
100
AcDbLine
 10
112.929069
 20
12.547353
 30
0.0
 11
110.679069
 21
13.374097
 31
0.0
  0
LINE
  5
293
100
AcDbEntity
  8
0
  6
Continuous
 62
   172
100
AcDbLine
 10
112.929069
 20
12.547353
 30
0.0
 11
110.679069
 21
11.874097
 31
0.0
  0
LINE
  5
294
100
AcDbEntity
  8
0
  6
Continuous
 62
   172
100
AcDbLine
 10
111.429069
 20
12.547353
 30
0.0
 11
112.929069
 21
12.547353
 31
0.0
  0
LINE
  5
295
100
AcDbEntity
  8
0
  6
Continuous
 62
   172
100
AcDbLine
 10
112.929069
 20
25.450841
 30
0.0
 11
110.679069
 21
24.624097
 31
0.0
  0
LINE
  5
296
100
AcDbEntity
  8
0
  6
Continuous
 62
   172
100
AcDbLine
 10
112.929069
 20
25.450841
 30
0.0
 11
110.679069
 21
26.124097
 31
0.0
  0
LINE
  5
297
100
AcDbEntity
  8
0
  6
Continuous
 62
   172
100
AcDbLine
 10
111.429069
 20
25.450841
 30
0.0
 11
112.929069
 21
25.450841
 31
0.0
  0
ARC
  5
298
100
AcDbEntity
  8
0
  6
Continuous
 62
   172
100
AcDbCircle
 10
111.429069
 20
18.999097
 30
0.0
 40
6.451744
100
AcDbArc
 50
-270.0
 51
-90.0
  0
ENDBLK
  5
299
100
AcDbEntity
  8
0
100
AcDbBlockEnd
  0
BLOCK
  5
29C
100
AcDbEntity
  8
0
100
AcDbBlockBegin
  2
*B8
 70
     0
 10
0.0
 20
0.0
 30
0.0
  3
*B8
  1

  0
ENDBLK
  5
29D
100
AcDbEntity
  8
0
100
AcDbBlockEnd
  0
BLOCK
  5
29F
100
AcDbEntity
  8
0
100
AcDbBlockBegin
  2
*B9
 70
     0
 10
0.0
 20
0.0
 30
0.0
  3
*B9
  1

  0
LINE
  5
2A0
100
AcDbEntity
  8
0
  6
Continuous
 62
     0
100
AcDbLine
 10
144.734488
 20
195.022087
 30
0.0
 11
169.734693
 21
195.022087
 31
0.0
  0
SOLID
  5
2A1
100
AcDbEntity
  8
0
  6
Continuous
 62
     0
100
AcDbTrace
 10
149.734468
 20
196.021843
 30
0.0
 11
144.734488
 21
195.022087
 31
0.0
 12
149.734468
 22
194.022031
 32
0.0
 13
149.734468
 23
194.022031
 33
0.0
  0
SOLID
  5
2A2
100
AcDbEntity
  8
0
  6
Continuous
 62
     0
100
AcDbTrace
 10
164.734712
 20
194.022031
 30
0.0
 11
169.734693
 21
195.022087
 31
0.0
 12
164.734712
 22
196.021843
 32
0.0
 13
164.734712
 23
196.021843
 33
0.0
  0
ENDBLK
  5
2A3
100
AcDbEntity
  8
0
100
AcDbBlockEnd
  0
BLOCK
  5
2A6
100
AcDbEntity
  8
0
100
AcDbBlockBegin
  2
*B10
 70
     0
 10
0.0
 20
0.0
 30
0.0
  3
*B10
  1

  0
LINE
  5
2A7
100
AcDbEntity
  8
0
  6
Continuous
 62
     0
100
AcDbLine
 10
169.734693
 20
195.022087
 30
0.0
 11
207.23455
 21
195.022087
 31
0.0
  0
SOLID
  5
2A8
100
AcDbEntity
  8
0
  6
Continuous
 62
     0
100
AcDbTrace
 10
174.734674
 20
196.021843
 30
0.0
 11
169.734693
 21
195.022087
 31
0.0
 12
174.734674
 22
194.022031
 32
0.0
 13
174.734674
 23
194.022031
 33
0.0
  0
SOLID
  5
2A9
100
AcDbEntity
  8
0
  6
Continuous
 62
     0
100
AcDbTrace
 10
202.234569
 20
194.022031
 30
0.0
 11
207.23455
 21
195.022087
 31
0.0
 12
202.234569
 22
196.021843
 32
0.0
 13
202.234569
 23
196.021843
 33
0.0
  0
ENDBLK
  5
2AA
100
AcDbEntity
  8
0
100
AcDbBlockEnd
  0
BLOCK
  5
2AD
100
AcDbEntity
  8
0
100
AcDbBlockBegin
  2
*B11
 70
     0
 10
0.0
 20
0.0
 30
0.0
  3
*B11
  1

  0
LINE
  5
2AE
100
AcDbEntity
  8
0
  6
Continuous
 62
     0
100
AcDbLine
 10
144.734488
 20
183.022914
 30
0.0
 11
174.734674
 21
183.022914
 31
0.0
  0
SOLID
  5
2AF
100
AcDbEntity
  8
0
  6
Continuous
 62
     0
100
AcDbTrace
 10
149.734468
 20
184.02297
 30
0.0
 11
144.734488
 21
183.022914
 31
0.0
 12
149.734468
 22
182.022858
 32
0.0
 13
149.734468
 23
182.022858
 33
0.0
  0
SOLID
  5
2B0
100
AcDbEntity
  8
0
  6
Continuous
 62
     0
100
AcDbTrace
 10
169.734693
 20
182.022858
 30
0.0
 11
174.734674
 21
183.022914
 31
0.0
 12
169.734693
 22
184.02297
 32
0.0
 13
169.734693
 23
184.02297
 33
0.0
  0
ENDBLK
  5
2B1
100
AcDbEntity
  8
0
100
AcDbBlockEnd
  0
BLOCK
  5
2B4
100
AcDbEntity
  8
0
100
AcDbBlockBegin
  2
*B12
 70
     0
 10
0.0
 20
0.0
 30
0.0
  3
*B12
  1

  0
LINE
  5
2B5
100
AcDbEntity
  8
0
  6
Continuous
 62
     0
100
AcDbLine
 10
174.734674
 20
183.022914
 30
0.0
 11
202.234569
 21
183.022914
 31
0.0
  0
SOLID
  5
2B6
100
AcDbEntity
  8
0
  6
Continuous
 62
     0
100
AcDbTrace
 10
179.734654
 20
184.02297
 30
0.0
 11
174.734674
 21
183.022914
 31
0.0
 12
179.734654
 22
182.022858
 32
0.0
 13
179.734654
 23
182.022858
 33
0.0
  0
SOLID
  5
2B7
100
AcDbEntity
  8
0
  6
Continuous
 62
     0
100
AcDbTrace
 10
197.234588
 20
182.022858
 30
0.0
 11
202.234569
 21
183.022914
 31
0.0
 12
197.234588
 22
184.02297
 32
0.0
 13
197.234588
 23
184.02297
 33
0.0
  0
ENDBLK
  5
2B8
100
AcDbEntity
  8
0
100
AcDbBlockEnd
  0
BLOCK
  5
2BB
100
AcDbEntity
  8
0
100
AcDbBlockBegin
  2
*B13
 70
     0
 10
0.0
 20
0.0
 30
0.0
  3
*B13
  1

  0
LINE
  5
2BC
100
AcDbEntity
  8
0
  6
Continuous
 62
     0
100
AcDbLine
 10
134.734526
 20
129.042106
 30
0.0
 11
170.984688
 21
129.042106
 31
0.0
  0
SOLID
  5
2BD
100
AcDbEntity
  8
0
  6
Continuous
 62
     0
100
AcDbTrace
 10
139.734507
 20
128.042049
 30
0.0
 11
144.734488
 21
129.042106
 31
0.0
 12
139.734507
 22
130.041862
 32
0.0
 13
139.734507
 23
130.041862
 33
0.0
  0
SOLID
  5
2BE
100
AcDbEntity
  8
0
  6
Continuous
 62
     0
100
AcDbTrace
 10
165.984707
 20
130.041862
 30
0.0
 11
160.984426
 21
129.042106
 31
0.0
 12
165.984707
 22
128.042049
 32
0.0
 13
165.984707
 23
128.042049
 33
0.0
  0
ENDBLK
  5
2BF
100
AcDbEntity
  8
0
100
AcDbBlockEnd
  0
BLOCK
  5
2C2
100
AcDbEntity
  8
0
100
AcDbBlockBegin
  2
*B14
 70
     0
 10
0.0
 20
0.0
 30
0.0
  3
*B14
  1

  0
LINE
  5
2C3
100
AcDbEntity
  8
0
  6
Continuous
 62
     0
100
AcDbLine
 10
160.984426
 20
129.042106
 30
0.0
 11
188.484621
 21
129.042106
 31
0.0
  0
SOLID
  5
2C4
100
AcDbEntity
  8
0
  6
Continuous
 62
     0
100
AcDbTrace
 10
165.984707
 20
130.041862
 30
0.0
 11
160.984426
 21
129.042106
 31
0.0
 12
165.984707
 22
128.042049
 32
0.0
 13
165.984707
 23
128.042049
 33
0.0
  0
SOLID
  5
2C5
100
AcDbEntity
  8
0
  6
Continuous
 62
     0
100
AcDbTrace
 10
183.48464
 20
128.042049
 30
0.0
 11
188.484621
 21
129.042106
 31
0.0
 12
183.48464
 22
130.041862
 32
0.0
 13
183.48464
 23
130.041862
 33
0.0
  0
ENDBLK
  5
2C6
100
AcDbEntity
  8
0
100
AcDbBlockEnd
  0
BLOCK
  5
2C9
100
AcDbEntity
  8
0
100
AcDbBlockBegin
  2
*B15
 70
     0
 10
0.0
 20
0.0
 30
0.0
  3
*B15
  1

  0
LINE
  5
2CA
100
AcDbEntity
  8
0
  6
Continuous
 62
     0
100
AcDbLine
 10
188.484621
 20
129.042106
 30
0.0
 11
215.984516
 21
129.042106
 31
0.0
  0
SOLID
  5
2CB
100
AcDbEntity
  8
0
  6
Continuous
 62
     0
100
AcDbTrace
 10
193.484602
 20
130.041862
 30
0.0
 11
188.484621
 21
129.042106
 31
0.0
 12
193.484602
 22
128.042049
 32
0.0
 13
193.484602
 23
128.042049
 33
0.0
  0
SOLID
  5
2CC
100
AcDbEntity
  8
0
  6
Continuous
 62
     0
100
AcDbTrace
 10
210.984535
 20
128.042049
 30
0.0
 11
215.984516
 21
129.042106
 31
0.0
 12
210.984535
 22
130.041862
 32
0.0
 13
210.984535
 23
130.041862
 33
0.0
  0
ENDBLK
  5
2CD
100
AcDbEntity
  8
0
100
AcDbBlockEnd
  0
BLOCK
  5
2D0
100
AcDbEntity
  8
0
100
AcDbBlockBegin
  2
*B16
 70
     0
 10
0.0
 20
0.0
 30
0.0
  3
*B16
  1

  0
LINE
  5
2D1
100
AcDbEntity
  8
0
  6
Continuous
 62
     0
100
AcDbLine
 10
247.740583
 20
137.585092
 30
0.0
 11
247.740583
 21
178.207083
 31
0.0
  0
SOLID
  5
2D2
100
AcDbEntity
  8
0
  6
Continuous
 62
     0
100
AcDbTrace
 10
248.74064
 20
142.584772
 30
0.0
 11
247.740583
 21
147.584453
 31
0.0
 12
246.740527
 22
142.584772
 32
0.0
 13
246.740527
 23
142.584772
 33
0.0
  0
SOLID
  5
2D3
100
AcDbEntity
  8
0
  6
Continuous
 62
     0
100
AcDbTrace
 10
246.740527
 20
173.207402
 30
0.0
 11
247.740583
 21
168.208022
 31
0.0
 12
248.74064
 22
173.207402
 32
0.0
 13
248.74064
 23
173.207402
 33
0.0
  0
ENDBLK
  5
2D4
100
AcDbEntity
  8
0
100
AcDbBlockEnd
  0
BLOCK
  5
2D7
100
AcDbEntity
  8
0
100
AcDbBlockBegin
  2
*B17
 70
     0
 10
0.0
 20
0.0
 30
0.0
  3
*B17
  1

  0
LINE
  5
2D8
100
AcDbEntity
  8
0
  6
Continuous
 62
     0
100
AcDbLine
 10
134.740534
 20
173.520126
 30
0.0
 11
134.740534
 21
142.272348
 31
0.0
  0
SOLID
  5
2D9
100
AcDbEntity
  8
0
  6
Continuous
 62
     0
100
AcDbTrace
 10
133.740778
 20
168.520446
 30
0.0
 11
134.740534
 21
163.520765
 31
0.0
 12
135.74059
 22
168.520446
 32
0.0
 13
135.74059
 23
168.520446
 33
0.0
  0
SOLID
  5
2DA
100
AcDbEntity
  8
0
  6
Continuous
 62
     0
100
AcDbTrace
 10
135.74059
 20
147.272029
 30
0.0
 11
134.740534
 21
152.271409
 31
0.0
 12
133.740778
 22
147.272029
 32
0.0
 13
133.740778
 23
147.272029
 33
0.0
  0
ENDBLK
  5
2DB
100
AcDbEntity
  8
0
100
AcDbBlockEnd
  0
BLOCK
  5
2DE
100
AcDbEntity
  8
0
100
AcDbBlockBegin
  2
*B18
 70
     0
 10
0.0
 20
0.0
 30
0.0
  3
*B18
  1

  0
LINE
  5
2DF
100
AcDbEntity
  8
0
  6
Continuous
 62
     0
100
AcDbLine
 10
49.740858
 20
144.147191
 30
0.0
 11
49.740858
 21
171.645284
 31
0.0
  0
SOLID
  5
2E0
100
AcDbEntity
  8
0
  6
Continuous
 62
     0
100
AcDbTrace
 10
48.740802
 20
149.146872
 30
0.0
 11
49.740858
 21
144.147191
 31
0.0
 12
50.740614
 22
149.146872
 32
0.0
 13
50.740614
 23
149.146872
 33
0.0
  0
SOLID
  5
2E1
100
AcDbEntity
  8
0
  6
Continuous
 62
     0
100
AcDbTrace
 10
50.740614
 20
166.645603
 30
0.0
 11
49.740858
 21
171.645284
 31
0.0
 12
48.740802
 22
166.645603
 32
0.0
 13
48.740802
 23
166.645603
 33
0.0
  0
ENDBLK
  5
2E2
100
AcDbEntity
  8
0
100
AcDbBlockEnd
  0
BLOCK
  5
2E5
100
AcDbEntity
  8
0
100
AcDbBlockBegin
  2
*B19
 70
     0
 10
0.0
 20
0.0
 30
0.0
  3
*B19
  1

  0
LINE
  5
2E6
100
AcDbEntity
  8
0
  6
Continuous
 62
     0
100
AcDbLine
 10
49.740858
 20
103.426065
 30
0.0
 11
49.740858
 21
30.931749
 31
0.0
  0
SOLID
  5
2E7
100
AcDbEntity
  8
0
  6
Continuous
 62
     0
100
AcDbTrace
 10
50.740614
 20
98.426385
 30
0.0
 11
49.740858
 21
103.426065
 31
0.0
 12
48.740802
 22
98.426385
 32
0.0
 13
48.740802
 23
98.426385
 33
0.0
  0
SOLID
  5
2E8
100
AcDbEntity
  8
0
  6
Continuous
 62
     0
100
AcDbTrace
 10
48.740802
 20
35.93143
 30
0.0
 11
49.740858
 21
30.931749
 31
0.0
 12
50.740614
 22
35.93143
 32
0.0
 13
50.740614
 23
35.93143
 33
0.0
  0
ENDBLK
  5
2E9
100
AcDbEntity
  8
0
100
AcDbBlockEnd
  0
BLOCK
  5
2EC
100
AcDbEntity
  8
0
100
AcDbBlockBegin
  2
*B20
 70
     0
 10
0.0
 20
0.0
 30
0.0
  3
*B20
  1

  0
LINE
  5
2ED
100
AcDbEntity
  8
0
  6
Continuous
 62
     0
100
AcDbLine
 10
63.484497
 20
115.04312
 30
0.0
 11
124.734564
 21
115.04312
 31
0.0
  0
SOLID
  5
2EE
100
AcDbEntity
  8
0
  6
Continuous
 62
     0
100
AcDbTrace
 10
68.484478
 20
116.042876
 30
0.0
 11
63.484497
 21
115.04312
 31
0.0
 12
68.484478
 22
114.043064
 32
0.0
 13
68.484478
 23
114.043064
 33
0.0
  0
SOLID
  5
2EF
100
AcDbEntity
  8
0
  6
Continuous
 62
     0
100
AcDbTrace
 10
119.734583
 20
114.043064
 30
0.0
 11
124.734564
 21
115.04312
 31
0.0
 12
119.734583
 22
116.042876
 32
0.0
 13
119.734583
 23
116.042876
 33
0.0
  0
ENDBLK
  5
2F0
100
AcDbEntity
  8
0
100
AcDbBlockEnd
  0
BLOCK
  5
2F3
100
AcDbEntity
  8
0
100
AcDbBlockBegin
  2
*B21
 70
     0
 10
0.0
 20
0.0
 30
0.0
  3
*B21
  1

  0
LINE
  5
2F4
100
AcDbEntity
  8
0
  6
Continuous
 62
     0
100
AcDbLine
 10
252.234678
 20
115.04312
 30
0.0
 11
124.734564
 21
115.04312
 31
0.0
  0
SOLID
  5
2F5
100
AcDbEntity
  8
0
  6
Continuous
 62
     0
100
AcDbTrace
 10
247.234397
 20
114.043064
 30
0.0
 11
252.234678
 21
115.04312
 31
0.0
 12
247.234397
 22
116.042876
 32
0.0
 13
247.234397
 23
116.042876
 33
0.0
  0
SOLID
  5
2F6
100
AcDbEntity
  8
0
  6
Continuous
 62
     0
100
AcDbTrace
 10
129.734545
 20
116.042876
 30
0.0
 11
124.734564
 21
115.04312
 31
0.0
 12
129.734545
 22
114.043064
 32
0.0
 13
129.734545
 23
114.043064
 33
0.0
  0
ENDBLK
  5
2F7
100
AcDbEntity
  8
0
100
AcDbBlockEnd
  0
BLOCK
  5
2FA
100
AcDbEntity
  8
0
100
AcDbBlockBegin
  2
*B22
 70
     0
 10
0.0
 20
0.0
 30
0.0
  3
*B22
  1

  0
LINE
  5
2FB
100
AcDbEntity
  8
0
  6
Continuous
 62
     0
100
AcDbLine
 10
157.672133
 20
85.465007
 30
0.0
 11
193.669953
 21
85.465007
 31
0.0
  0
SOLID
  5
2FC
100
AcDbEntity
  8
0
  6
Continuous
 62
     0
100
AcDbTrace
 10
162.672114
 20
84.465251
 30
0.0
 11
167.672095
 21
85.465007
 31
0.0
 12
162.672114
 22
86.465063
 32
0.0
 13
162.672114
 23
86.465063
 33
0.0
  0
SOLID
  5
2FD
100
AcDbEntity
  8
0
  6
Continuous
 62
     0
100
AcDbTrace
 10
176.79697
 20
86.465063
 30
0.0
 11
171.796989
 21
85.465007
 31
0.0
 12
176.79697
 22
84.465251
 32
0.0
 13
176.79697
 23
84.465251
 33
0.0
  0
ENDBLK
  5
2FE
100
AcDbEntity
  8
0
100
AcDbBlockEnd
  0
BLOCK
  5
301
100
AcDbEntity
  8
0
100
AcDbBlockBegin
  2
*B23
 70
     0
 10
0.0
 20
0.0
 30
0.0
  3
*B23
  1

  0
LINE
  5
302
100
AcDbEntity
  8
0
  6
Continuous
 62
     0
100
AcDbLine
 10
174.109526
 20
13.470268
 30
0.0
 11
210.16983
 21
13.470268
 31
0.0
  0
SOLID
  5
303
100
AcDbEntity
  8
0
  6
Continuous
 62
     0
100
AcDbTrace
 10
179.109507
 20
12.470212
 30
0.0
 11
184.109488
 21
13.470268
 31
0.0
 12
179.109507
 22
14.470024
 32
0.0
 13
179.109507
 23
14.470024
 33
0.0
  0
SOLID
  5
304
100
AcDbEntity
  8
0
  6
Continuous
 62
     0
100
AcDbTrace
 10
197.859435
 20
14.470024
 30
0.0
 11
192.859454
 21
13.470268
 31
0.0
 12
197.859435
 22
12.470212
 32
0.0
 13
197.859435
 23
12.470212
 33
0.0
  0
ENDBLK
  5
305
100
AcDbEntity
  8
0
100
AcDbBlockEnd
  0
BLOCK
  5
308
100
AcDbEntity
  8
0
100
AcDbBlockBegin
  2
*B24
 70
     0
 10
0.0
 20
0.0
 30
0.0
  3
*B24
  1

  0
LINE
  5
309
100
AcDbEntity
  8
0
  6
Continuous
 62
     0
100
AcDbLine
 10
144.734488
 20
100.464048
 30
0.0
 11
232.234454
 21
100.464048
 31
0.0
  0
SOLID
  5
30A
100
AcDbEntity
  8
0
  6
Continuous
 62
     0
100
AcDbTrace
 10
149.734468
 20
101.463804
 30
0.0
 11
144.734488
 21
100.464048
 31
0.0
 12
149.734468
 22
99.463992
 32
0.0
 13
149.734468
 23
99.463992
 33
0.0
  0
SOLID
  5
30B
100
AcDbEntity
  8
0
  6
Continuous
 62
     0
100
AcDbTrace
 10
227.234473
 20
99.463992
 30
0.0
 11
232.234454
 21
100.464048
 31
0.0
 12
227.234473
 22
101.463804
 32
0.0
 13
227.234473
 23
101.463804
 33
0.0
  0
ENDBLK
  5
30C
100
AcDbEntity
  8
0
100
AcDbBlockEnd
  0
BLOCK
  5
30F
100
AcDbEntity
  8
0
100
AcDbBlockBegin
  2
*B25
 70
     0
 10
0.0
 20
0.0
 30
0.0
  3
*B25
  1

  0
LINE
  5
310
100
AcDbEntity
  8
0
  6
Continuous
 62
     0
100
AcDbLine
 10
313.484445
 20
115.04312
 30
0.0
 11
252.234678
 21
115.04312
 31
0.0
  0
SOLID
  5
311
100
AcDbEntity
  8
0
  6
Continuous
 62
     0
100
AcDbTrace
 10
308.484464
 20
114.043064
 30
0.0
 11
313.484445
 21
115.04312
 31
0.0
 12
308.484464
 22
116.042876
 32
0.0
 13
308.484464
 23
116.042876
 33
0.0
  0
SOLID
  5
312
100
AcDbEntity
  8
0
  6
Continuous
 62
     0
100
AcDbTrace
 10
257.234659
 20
116.042876
 30
0.0
 11
252.234678
 21
115.04312
 31
0.0
 12
257.234659
 22
114.043064
 32
0.0
 13
257.234659
 23
114.043064
 33
0.0
  0
ENDBLK
  5
313
100
AcDbEntity
  8
0
100
AcDbBlockEnd
  0
BLOCK
  5
316
100
AcDbEntity
  8
0
100
AcDbBlockBegin
  2
*B26
 70
     0
 10
0.0
 20
0.0
 30
0.0
  3
*B26
  1

  0
LINE
  5
317
100
AcDbEntity
  8
0
  6
Continuous
 62
     8
100
AcDbLine
 10
245.740771
 20
168.208022
 30
0.0
 11
249.740696
 21
168.208022
 31
0.0
  0
LINE
  5
318
100
AcDbEntity
  8
0
  6
Continuous
 62
     8
100
AcDbLine
 10
202.172084
 20
168.208022
 30
0.0
 11
204.234681
 21
168.208022
 31
0.0
  0
LINE
  5
319
100
AcDbEntity
  8
0
  6
Continuous
 62
     8
100
AcDbLine
 10
210.234418
 20
168.208022
 30
0.0
 11
225.487604
 21
168.208022
 31
0.0
  0
LINE
  5
31A
100
AcDbEntity
  8
0
  6
Continuous
 62
     8
100
AcDbLine
 10
227.487717
 20
168.208022
 30
0.0
 11
228.487473
 21
168.208022
 31
0.0
  0
LINE
  5
31B
100
AcDbEntity
  8
0
  6
Continuous
 62
     8
100
AcDbLine
 10
230.487585
 20
168.208022
 30
0.0
 11
245.740771
 21
168.208022
 31
0.0
  0
ENDBLK
  5
31C
100
AcDbEntity
  8
0
100
AcDbBlockEnd
  0
BLOCK
  5
31F
100
AcDbEntity
  8
0
100
AcDbBlockBegin
  2
*B27
 70
     0
 10
0.0
 20
0.0
 30
0.0
  3
*B27
  1

  0
LINE
  5
320
100
AcDbEntity
  8
0
  6
Continuous
 62
     8
100
AcDbLine
 10
202.234569
 20
181.023102
 30
0.0
 11
202.234569
 21
185.022726
 31
0.0
  0
LINE
  5
321
100
AcDbEntity
  8
0
  6
Continuous
 62
     8
100
AcDbLine
 10
202.234569
 20
142.397318
 30
0.0
 11
202.234569
 21
149.271841
 31
0.0
  0
LINE
  5
322
100
AcDbEntity
  8
0
  6
Continuous
 62
     8
100
AcDbLine
 10
202.234569
 20
155.271277
 30
0.0
 11
202.234569
 21
165.647349
 31
0.0
  0
LINE
  5
323
100
AcDbEntity
  8
0
  6
Continuous
 62
     8
100
AcDbLine
 10
202.234569
 20
167.647161
 30
0.0
 11
202.234569
 21
168.647218
 31
0.0
  0
LINE
  5
324
100
AcDbEntity
  8
0
  6
Continuous
 62
     8
100
AcDbLine
 10
202.234569
 20
170.64703
 30
0.0
 11
202.234569
 21
181.023102
 31
0.0
  0
ENDBLK
  5
325
100
AcDbEntity
  8
0
100
AcDbBlockEnd
  0
BLOCK
  5
328
100
AcDbEntity
  8
0
100
AcDbBlockBegin
  2
*B28
 70
     0
 10
0.0
 20
0.0
 30
0.0
  3
*B28
  1

  0
LINE
  5
329
100
AcDbEntity
  8
0
  6
Continuous
 62
     8
100
AcDbLine
 10
47.740746
 20
171.645284
 30
0.0
 11
85.234594
 21
171.645284
 31
0.0
  0
ENDBLK
  5
32A
100
AcDbEntity
  8
0
100
AcDbBlockEnd
  0
BLOCK
  5
32D
100
AcDbEntity
  8
0
100
AcDbBlockBegin
  2
*B29
 70
     0
 10
0.0
 20
0.0
 30
0.0
  3
*B29
  1

  0
LINE
  5
32E
100
AcDbEntity
  8
0
  6
Continuous
 62
     8
100
AcDbLine
 10
232.234454
 20
60.429654
 30
0.0
 11
232.234454
 21
102.463861
 31
0.0
  0
ENDBLK
  5
32F
100
AcDbEntity
  8
0
100
AcDbBlockEnd
  0
BLOCK
  5
332
100
AcDbEntity
  8
0
100
AcDbBlockBegin
  2
*B30
 70
     0
 10
0.0
 20
0.0
 30
0.0
  3
*B30
  1

  0
LINE
  5
333
100
AcDbEntity
  8
0
  6
Continuous
 62
     8
100
AcDbLine
 10
252.234678
 20
67.929325
 30
0.0
 11
252.234678
 21
117.042933
 31
0.0
  0
ENDBLK
  5
334
100
AcDbEntity
  8
0
100
AcDbBlockEnd
  0
BLOCK
  5
337
100
AcDbEntity
  8
0
100
AcDbBlockBegin
  2
*B31
 70
     0
 10
0.0
 20
0.0
 30
0.0
  3
*B31
  1

  0
LINE
  5
338
100
AcDbEntity
  8
0
  6
Continuous
 62
     8
100
AcDbLine
 10
282.359533
 20
92.17731
 30
0.0
 11
296.922083
 21
92.17731
 31
0.0
  0
LINE
  5
339
100
AcDbEntity
  8
0
  6
Continuous
 62
     8
100
AcDbLine
 10
298.921895
 20
92.17731
 30
0.0
 11
299.921951
 21
92.17731
 31
0.0
  0
LINE
  5
33A
100
AcDbEntity
  8
0
  6
Continuous
 62
     8
100
AcDbLine
 10
301.922064
 20
92.17731
 30
0.0
 11
316.484613
 21
92.17731
 31
0.0
  0
ENDBLK
  5
33B
100
AcDbEntity
  8
0
100
AcDbBlockEnd
  0
BLOCK
  5
33E
100
AcDbEntity
  8
0
100
AcDbBlockBegin
  2
*B32
 70
     0
 10
0.0
 20
0.0
 30
0.0
  3
*B32
  1

  0
LINE
  5
33F
100
AcDbEntity
  8
0
  6
Continuous
 62
     8
100
AcDbLine
 10
60.484629
 20
92.17731
 30
0.0
 11
75.047178
 21
92.17731
 31
0.0
  0
LINE
  5
340
100
AcDbEntity
  8
0
  6
Continuous
 62
     8
100
AcDbLine
 10
77.04699
 20
92.17731
 30
0.0
 11
78.047047
 21
92.17731
 31
0.0
  0
LINE
  5
341
100
AcDbEntity
  8
0
  6
Continuous
 62
     8
100
AcDbLine
 10
80.047159
 20
92.17731
 30
0.0
 11
94.609709
 21
92.17731
 31
0.0
  0
ENDBLK
  5
342
100
AcDbEntity
  8
0
100
AcDbBlockEnd
  0
BLOCK
  5
345
100
AcDbEntity
  8
0
100
AcDbBlockBegin
  2
*B33
 70
     0
 10
0.0
 20
0.0
 30
0.0
  3
*B33
  1

  0
LINE
  5
346
100
AcDbEntity
  8
0
  6
Continuous
 62
     8
100
AcDbLine
 10
215.984516
 20
127.042294
 30
0.0
 11
215.984516
 21
131.041918
 31
0.0
  0
LINE
  5
347
100
AcDbEntity
  8
0
  6
Continuous
 62
     8
100
AcDbLine
 10
215.984516
 20
131.041918
 30
0.0
 11
215.984516
 21
143.281717
 31
0.0
  0
LINE
  5
348
100
AcDbEntity
  8
0
  6
Continuous
 62
     8
100
AcDbLine
 10
215.984516
 20
145.281529
 30
0.0
 11
215.984516
 21
146.281285
 31
0.0
  0
LINE
  5
349
100
AcDbEntity
  8
0
  6
Continuous
 62
     8
100
AcDbLine
 10
215.984516
 20
148.281398
 30
0.0
 11
215.984516
 21
160.520897
 31
0.0
  0
LINE
  5
34A
100
AcDbEntity
  8
0
  6
Continuous
 62
     8
100
AcDbLine
 10
215.984516
 20
166.520634
 30
0.0
 11
215.984516
 21
173.395157
 31
0.0
  0
ENDBLK
  5
34B
100
AcDbEntity
  8
0
100
AcDbBlockEnd
  0
BLOCK
  5
34E
100
AcDbEntity
  8
0
100
AcDbBlockBegin
  2
*B34
 70
     0
 10
0.0
 20
0.0
 30
0.0
  3
*B34
  1

  0
LINE
  5
34F
100
AcDbEntity
  8
0
  6
Continuous
 62
     8
100
AcDbLine
 10
132.740722
 20
152.271409
 30
0.0
 11
136.740646
 21
152.271409
 31
0.0
  0
LINE
  5
350
100
AcDbEntity
  8
0
  6
Continuous
 62
     8
100
AcDbLine
 10
136.740646
 20
152.271409
 30
0.0
 11
157.984557
 21
152.271409
 31
0.0
  0
LINE
  5
351
100
AcDbEntity
  8
0
  6
Continuous
 62
     8
100
AcDbLine
 10
163.984594
 20
152.271409
 30
0.0
 11
179.109507
 21
152.271409
 31
0.0
  0
LINE
  5
352
100
AcDbEntity
  8
0
  6
Continuous
 62
     8
100
AcDbLine
 10
181.109619
 20
152.271409
 30
0.0
 11
182.109675
 21
152.271409
 31
0.0
  0
LINE
  5
353
100
AcDbEntity
  8
0
  6
Continuous
 62
     8
100
AcDbLine
 10
184.109488
 20
152.271409
 30
0.0
 11
199.2344
 21
152.271409
 31
0.0
  0
LINE
  5
354
100
AcDbEntity
  8
0
  6
Continuous
 62
     8
100
AcDbLine
 10
205.234437
 20
152.271409
 30
0.0
 11
212.109561
 21
152.271409
 31
0.0
  0
ENDBLK
  5
355
100
AcDbEntity
  8
0
100
AcDbBlockEnd
  0
BLOCK
  5
358
100
AcDbEntity
  8
0
100
AcDbBlockBegin
  2
*B35
 70
     0
 10
0.0
 20
0.0
 30
0.0
  3
*B35
  1

  0
LINE
  5
359
100
AcDbEntity
  8
0
  6
Continuous
 62
     8
100
AcDbLine
 10
192.859454
 20
11.470456
 30
0.0
 11
192.859454
 21
31.056719
 31
0.0
  0
ENDBLK
  5
35A
100
AcDbEntity
  8
0
100
AcDbBlockEnd
  0
BLOCK
  5
35D
100
AcDbEntity
  8
0
100
AcDbBlockBegin
  2
*B36
 70
     0
 10
0.0
 20
0.0
 30
0.0
  3
*B36
  1

  0
LINE
  5
35E
100
AcDbEntity
  8
0
  6
Continuous
 62
     8
100
AcDbLine
 10
169.734693
 20
27.932181
 30
0.0
 11
169.734693
 21
41.430988
 31
0.0
  0
LINE
  5
35F
100
AcDbEntity
  8
0
  6
Continuous
 62
     8
100
AcDbLine
 10
169.734693
 20
43.431101
 30
0.0
 11
169.734693
 21
44.430857
 31
0.0
  0
LINE
  5
360
100
AcDbEntity
  8
0
  6
Continuous
 62
     8
100
AcDbLine
 10
169.734693
 20
46.430669
 30
0.0
 11
169.734693
 21
59.929776
 31
0.0
  0
ENDBLK
  5
361
100
AcDbEntity
  8
0
100
AcDbBlockEnd
  0
BLOCK
  5
364
100
AcDbEntity
  8
0
100
AcDbBlockBegin
  2
*B37
 70
     0
 10
0.0
 20
0.0
 30
0.0
  3
*B37
  1

  0
LINE
  5
365
100
AcDbEntity
  8
0
  6
Continuous
 62
     8
100
AcDbLine
 10
169.734693
 20
193.022275
 30
0.0
 11
169.734693
 21
197.021899
 31
0.0
  0
LINE
  5
366
100
AcDbEntity
  8
0
  6
Continuous
 62
     8
100
AcDbLine
 10
169.734693
 20
142.522287
 30
0.0
 11
169.734693
 21
144.584584
 31
0.0
  0
LINE
  5
367
100
AcDbEntity
  8
0
  6
Continuous
 62
     8
100
AcDbLine
 10
169.734693
 20
150.584321
 30
0.0
 11
169.734693
 21
161.397185
 31
0.0
  0
LINE
  5
368
100
AcDbEntity
  8
0
  6
Continuous
 62
     8
100
AcDbLine
 10
169.734693
 20
163.396997
 30
0.0
 11
169.734693
 21
164.396753
 31
0.0
  0
LINE
  5
369
100
AcDbEntity
  8
0
  6
Continuous
 62
     8
100
AcDbLine
 10
169.734693
 20
166.396866
 30
0.0
 11
169.734693
 21
177.20973
 31
0.0
  0
LINE
  5
36A
100
AcDbEntity
  8
0
  6
Continuous
 62
     8
100
AcDbLine
 10
169.734693
 20
179.209542
 30
0.0
 11
169.734693
 21
180.209298
 31
0.0
  0
LINE
  5
36B
100
AcDbEntity
  8
0
  6
Continuous
 62
     8
100
AcDbLine
 10
169.734693
 20
182.209411
 30
0.0
 11
169.734693
 21
193.022275
 31
0.0
  0
ENDBLK
  5
36C
100
AcDbEntity
  8
0
100
AcDbBlockEnd
  0
BLOCK
  5
36F
100
AcDbEntity
  8
0
100
AcDbBlockBegin
  2
*B38
 70
     0
 10
0.0
 20
0.0
 30
0.0
  3
*B38
  1

  0
LINE
  5
370
100
AcDbEntity
  8
0
  6
Continuous
 62
     8
100
AcDbLine
 10
63.484497
 20
103.925643
 30
0.0
 11
63.484497
 21
117.042933
 31
0.0
  0
ENDBLK
  5
371
100
AcDbEntity
  8
0
100
AcDbBlockEnd
  0
BLOCK
  5
374
100
AcDbEntity
  8
0
100
AcDbBlockBegin
  2
*B39
 70
     0
 10
0.0
 20
0.0
 30
0.0
  3
*B39
  1

  0
LINE
  5
375
100
AcDbEntity
  8
0
  6
Continuous
 62
     8
100
AcDbLine
 10
207.23455
 20
193.022275
 30
0.0
 11
207.23455
 21
197.021899
 31
0.0
  0
LINE
  5
376
100
AcDbEntity
  8
0
  6
Continuous
 62
     8
100
AcDbLine
 10
207.23455
 20
163.145857
 30
0.0
 11
207.23455
 21
165.208154
 31
0.0
  0
LINE
  5
377
100
AcDbEntity
  8
0
  6
Continuous
 62
     8
100
AcDbLine
 10
207.23455
 20
171.20759
 30
0.0
 11
207.23455
 21
193.022275
 31
0.0
  0
ENDBLK
  5
378
100
AcDbEntity
  8
0
100
AcDbBlockEnd
  0
BLOCK
  5
37B
100
AcDbEntity
  8
0
100
AcDbBlockBegin
  2
*B40
 70
     0
 10
0.0
 20
0.0
 30
0.0
  3
*B40
  1

  0
LINE
  5
37C
100
AcDbEntity
  8
0
  6
Continuous
 62
     8
100
AcDbLine
 10
144.734488
 20
60.429654
 30
0.0
 11
144.734488
 21
102.463861
 31
0.0
  0
ENDBLK
  5
37D
100
AcDbEntity
  8
0
100
AcDbBlockEnd
  0
BLOCK
  5
380
100
AcDbEntity
  8
0
100
AcDbBlockBegin
  2
*B41
 70
     0
 10
0.0
 20
0.0
 30
0.0
  3
*B41
  1

  0
LINE
  5
381
100
AcDbEntity
  8
0
  6
Continuous
 62
     8
100
AcDbLine
 10
47.740746
 20
103.426065
 30
0.0
 11
62.35076
 21
103.426065
 31
0.0
  0
ENDBLK
  5
382
100
AcDbEntity
  8
0
100
AcDbBlockEnd
  0
BLOCK
  5
385
100
AcDbEntity
  8
0
100
AcDbBlockBegin
  2
*B42
 70
     0
 10
0.0
 20
0.0
 30
0.0
  3
*B42
  1

  0
LINE
  5
386
100
AcDbEntity
  8
0
  6
Continuous
 62
     8
100
AcDbLine
 10
184.109488
 20
11.470456
 30
0.0
 11
184.109488
 21
31.056719
 31
0.0
  0
ENDBLK
  5
387
100
AcDbEntity
  8
0
100
AcDbBlockEnd
  0
BLOCK
  5
38A
100
AcDbEntity
  8
0
100
AcDbBlockBegin
  2
*B43
 70
     0
 10
0.0
 20
0.0
 30
0.0
  3
*B43
  1

  0
LINE
  5
38B
100
AcDbEntity
  8
0
  6
Continuous
 62
     8
100
AcDbLine
 10
160.984426
 20
127.042294
 30
0.0
 11
160.984426
 21
131.041918
 31
0.0
  0
LINE
  5
38C
100
AcDbEntity
  8
0
  6
Continuous
 62
     8
100
AcDbLine
 10
160.984426
 20
131.041918
 30
0.0
 11
160.984426
 21
149.271841
 31
0.0
  0
LINE
  5
38D
100
AcDbEntity
  8
0
  6
Continuous
 62
     8
100
AcDbLine
 10
160.984426
 20
155.271277
 30
0.0
 11
160.984426
 21
162.145801
 31
0.0
  0
ENDBLK
  5
38E
100
AcDbEntity
  8
0
100
AcDbBlockEnd
  0
BLOCK
  5
391
100
AcDbEntity
  8
0
100
AcDbBlockBegin
  2
*B44
 70
     0
 10
0.0
 20
0.0
 30
0.0
  3
*B44
  1

  0
LINE
  5
392
100
AcDbEntity
  8
0
  6
Continuous
 62
     8
100
AcDbLine
 10
144.734488
 20
127.042294
 30
0.0
 11
144.734488
 21
142.147379
 31
0.0
  0
LINE
  5
393
100
AcDbEntity
  8
0
  6
Continuous
 62
     8
100
AcDbLine
 10
144.734488
 20
173.645096
 30
0.0
 11
144.734488
 21
197.021899
 31
0.0
  0
ENDBLK
  5
394
100
AcDbEntity
  8
0
100
AcDbBlockEnd
  0
BLOCK
  5
397
100
AcDbEntity
  8
0
100
AcDbBlockBegin
  2
*B45
 70
     0
 10
0.0
 20
0.0
 30
0.0
  3
*B45
  1

  0
LINE
  5
398
100
AcDbEntity
  8
0
  6
Continuous
 62
     8
100
AcDbLine
 10
64.484553
 20
157.896237
 30
0.0
 11
75.234632
 21
157.896237
 31
0.0
  0
LINE
  5
399
100
AcDbEntity
  8
0
  6
Continuous
 62
     8
100
AcDbLine
 10
77.234745
 20
157.896237
 30
0.0
 11
78.234501
 21
157.896237
 31
0.0
  0
LINE
  5
39A
100
AcDbEntity
  8
0
  6
Continuous
 62
     8
100
AcDbLine
 10
80.234613
 20
157.896237
 30
0.0
 11
90.984693
 21
157.896237
 31
0.0
  0
LINE
  5
39B
100
AcDbEntity
  8
0
  6
Continuous
 62
     8
100
AcDbLine
 10
92.984505
 20
157.896237
 30
0.0
 11
93.984561
 21
157.896237
 31
0.0
  0
LINE
  5
39C
100
AcDbEntity
  8
0
  6
Continuous
 62
     8
100
AcDbLine
 10
95.984674
 20
157.896237
 30
0.0
 11
106.734452
 21
157.896237
 31
0.0
  0
LINE
  5
39D
100
AcDbEntity
  8
0
  6
Continuous
 62
     8
100
AcDbLine
 10
108.734565
 20
157.896237
 30
0.0
 11
109.734621
 21
157.896237
 31
0.0
  0
LINE
  5
39E
100
AcDbEntity
  8
0
  6
Continuous
 62
     8
100
AcDbLine
 10
111.734734
 20
157.896237
 30
0.0
 11
122.484512
 21
157.896237
 31
0.0
  0
LINE
  5
39F
100
AcDbEntity
  8
0
  6
Continuous
 62
     8
100
AcDbLine
 10
124.484625
 20
157.896237
 30
0.0
 11
125.484681
 21
157.896237
 31
0.0
  0
LINE
  5
3A0
100
AcDbEntity
  8
0
  6
Continuous
 62
     8
100
AcDbLine
 10
127.484493
 20
157.896237
 30
0.0
 11
138.234572
 21
157.896237
 31
0.0
  0
LINE
  5
3A1
100
AcDbEntity
  8
0
  6
Continuous
 62
     8
100
AcDbLine
 10
140.234685
 20
157.896237
 30
0.0
 11
141.234441
 21
157.896237
 31
0.0
  0
LINE
  5
3A2
100
AcDbEntity
  8
0
  6
Continuous
 62
     8
100
AcDbLine
 10
143.234553
 20
157.896237
 30
0.0
 11
153.984632
 21
157.896237
 31
0.0
  0
LINE
  5
3A3
100
AcDbEntity
  8
0
  6
Continuous
 62
     8
100
AcDbLine
 10
155.984445
 20
157.896237
 30
0.0
 11
156.984501
 21
157.896237
 31
0.0
  0
LINE
  5
3A4
100
AcDbEntity
  8
0
  6
Continuous
 62
     8
100
AcDbLine
 10
158.984613
 20
157.896237
 30
0.0
 11
169.734693
 21
157.896237
 31
0.0
  0
LINE
  5
3A5
100
AcDbEntity
  8
0
  6
Continuous
 62
     8
100
AcDbLine
 10
171.734505
 20
157.896237
 30
0.0
 11
172.734561
 21
157.896237
 31
0.0
  0
LINE
  5
3A6
100
AcDbEntity
  8
0
  6
Continuous
 62
     8
100
AcDbLine
 10
174.734674
 20
157.896237
 30
0.0
 11
185.484452
 21
157.896237
 31
0.0
  0
LINE
  5
3A7
100
AcDbEntity
  8
0
  6
Continuous
 62
     8
100
AcDbLine
 10
191.484489
 20
157.896237
 30
0.0
 11
201.98463
 21
157.896237
 31
0.0
  0
LINE
  5
3A8
100
AcDbEntity
  8
0
  6
Continuous
 62
     8
100
AcDbLine
 10
203.984442
 20
157.896237
 30
0.0
 11
204.984498
 21
157.896237
 31
0.0
  0
LINE
  5
3A9
100
AcDbEntity
  8
0
  6
Continuous
 62
     8
100
AcDbLine
 10
206.984611
 20
157.896237
 30
0.0
 11
217.48445
 21
157.896237
 31
0.0
  0
LINE
  5
3AA
100
AcDbEntity
  8
0
  6
Continuous
 62
     8
100
AcDbLine
 10
219.484563
 20
157.896237
 30
0.0
 11
220.484619
 21
157.896237
 31
0.0
  0
LINE
  5
3AB
100
AcDbEntity
  8
0
  6
Continuous
 62
     8
100
AcDbLine
 10
222.484431
 20
157.896237
 30
0.0
 11
232.984571
 21
157.896237
 31
0.0
  0
LINE
  5
3AC
100
AcDbEntity
  8
0
  6
Continuous
 62
     8
100
AcDbLine
 10
234.984384
 20
157.896237
 30
0.0
 11
235.98444
 21
157.896237
 31
0.0
  0
LINE
  5
3AD
100
AcDbEntity
  8
0
  6
Continuous
 62
     8
100
AcDbLine
 10
237.984552
 20
157.896237
 30
0.0
 11
248.484392
 21
157.896237
 31
0.0
  0
LINE
  5
3AE
100
AcDbEntity
  8
0
  6
Continuous
 62
     8
100
AcDbLine
 10
250.484505
 20
157.896237
 30
0.0
 11
251.484561
 21
157.896237
 31
0.0
  0
LINE
  5
3AF
100
AcDbEntity
  8
0
  6
Continuous
 62
     8
100
AcDbLine
 10
253.484373
 20
157.896237
 30
0.0
 11
263.984513
 21
157.896237
 31
0.0
  0
LINE
  5
3B0
100
AcDbEntity
  8
0
  6
Continuous
 62
     8
100
AcDbLine
 10
265.984626
 20
157.896237
 30
0.0
 11
266.984382
 21
157.896237
 31
0.0
  0
LINE
  5
3B1
100
AcDbEntity
  8
0
  6
Continuous
 62
     8
100
AcDbLine
 10
268.984494
 20
157.896237
 30
0.0
 11
279.484634
 21
157.896237
 31
0.0
  0
LINE
  5
3B2
100
AcDbEntity
  8
0
  6
Continuous
 62
     8
100
AcDbLine
 10
281.484447
 20
157.896237
 30
0.0
 11
282.484503
 21
157.896237
 31
0.0
  0
LINE
  5
3B3
100
AcDbEntity
  8
0
  6
Continuous
 62
     8
100
AcDbLine
 10
284.484615
 20
157.896237
 30
0.0
 11
294.984455
 21
157.896237
 31
0.0
  0
LINE
  5
3B4
100
AcDbEntity
  8
0
  6
Continuous
 62
     8
100
AcDbLine
 10
296.984568
 20
157.896237
 30
0.0
 11
297.984624
 21
157.896237
 31
0.0
  0
LINE
  5
3B5
100
AcDbEntity
  8
0
  6
Continuous
 62
     8
100
AcDbLine
 10
299.984436
 20
157.896237
 30
0.0
 11
310.484576
 21
157.896237
 31
0.0
  0
ENDBLK
  5
3B6
100
AcDbEntity
  8
0
100
AcDbBlockEnd
  0
BLOCK
  5
3B9
100
AcDbEntity
  8
0
100
AcDbBlockBegin
  2
*B46
 70
     0
 10
0.0
 20
0.0
 30
0.0
  3
*B46
  1

  0
LINE
  5
3BA
100
AcDbEntity
  8
0
  6
Continuous
 62
     8
100
AcDbLine
 10
207.23455
 20
27.932181
 30
0.0
 11
207.23455
 21
41.430988
 31
0.0
  0
LINE
  5
3BB
100
AcDbEntity
  8
0
  6
Continuous
 62
     8
100
AcDbLine
 10
207.23455
 20
43.431101
 30
0.0
 11
207.23455
 21
44.430857
 31
0.0
  0
LINE
  5
3BC
100
AcDbEntity
  8
0
  6
Continuous
 62
     8
100
AcDbLine
 10
207.23455
 20
46.430669
 30
0.0
 11
207.23455
 21
59.929776
 31
0.0
  0
ENDBLK
  5
3BD
100
AcDbEntity
  8
0
100
AcDbBlockEnd
  0
BLOCK
  5
3C0
100
AcDbEntity
  8
0
100
AcDbBlockBegin
  2
*B47
 70
     0
 10
0.0
 20
0.0
 30
0.0
  3
*B47
  1

  0
LINE
  5
3C1
100
AcDbEntity
  8
0
  6
Continuous
 62
     8
100
AcDbLine
 10
171.796989
 20
58.92972
 30
0.0
 11
171.796989
 21
87.464819
 31
0.0
  0
ENDBLK
  5
3C2
100
AcDbEntity
  8
0
100
AcDbBlockEnd
  0
BLOCK
  5
3C5
100
AcDbEntity
  8
0
100
AcDbBlockBegin
  2
*B48
 70
     0
 10
0.0
 20
0.0
 30
0.0
  3
*B48
  1

  0
LINE
  5
3C6
100
AcDbEntity
  8
0
  6
Continuous
 62
     8
100
AcDbLine
 10
174.734674
 20
181.023102
 30
0.0
 11
174.734674
 21
185.022726
 31
0.0
  0
LINE
  5
3C7
100
AcDbEntity
  8
0
  6
Continuous
 62
     8
100
AcDbLine
 10
174.734674
 20
153.646374
 30
0.0
 11
174.734674
 21
160.520897
 31
0.0
  0
LINE
  5
3C8
100
AcDbEntity
  8
0
  6
Continuous
 62
     8
100
AcDbLine
 10
174.734674
 20
166.520634
 30
0.0
 11
174.734674
 21
181.023102
 31
0.0
  0
ENDBLK
  5
3C9
100
AcDbEntity
  8
0
100
AcDbBlockEnd
  0
BLOCK
  5
3CC
100
AcDbEntity
  8
0
100
AcDbBlockBegin
  2
*B49
 70
     0
 10
0.0
 20
0.0
 30
0.0
  3
*B49
  1

  0
LINE
  5
3CD
100
AcDbEntity
  8
0
  6
Continuous
 62
     8
100
AcDbLine
 10
167.672095
 20
58.92972
 30
0.0
 11
167.672095
 21
87.464819
 31
0.0
  0
ENDBLK
  5
3CE
100
AcDbEntity
  8
0
100
AcDbBlockEnd
  0
BLOCK
  5
3D1
100
AcDbEntity
  8
0
100
AcDbBlockBegin
  2
*B50
 70
     0
 10
0.0
 20
0.0
 30
0.0
  3
*B50
  1

  0
LINE
  5
3D2
100
AcDbEntity
  8
0
  6
Continuous
 62
     8
100
AcDbLine
 10
188.484621
 20
30.056963
 30
0.0
 11
188.484621
 21
41.589303
 31
0.0
  0
ENDBLK
  5
3D3
100
AcDbEntity
  8
0
100
AcDbBlockEnd
  0
BLOCK
  5
3D6
100
AcDbEntity
  8
0
100
AcDbBlockBegin
  2
*B51
 70
     0
 10
0.0
 20
0.0
 30
0.0
  3
*B51
  1

  0
LINE
  5
3D7
100
AcDbEntity
  8
0
  6
Continuous
 62
     8
100
AcDbLine
 10
313.484445
 20
103.925643
 30
0.0
 11
313.484445
 21
117.042933
 31
0.0
  0
ENDBLK
  5
3D8
100
AcDbEntity
  8
0
100
AcDbBlockEnd
  0
BLOCK
  5
3DB
100
AcDbEntity
  8
0
100
AcDbBlockBegin
  2
*B52
 70
     0
 10
0.0
 20
0.0
 30
0.0
  3
*B52
  1

  0
LINE
  5
3DC
100
AcDbEntity
  8
0
  6
Continuous
 62
     8
100
AcDbLine
 10
47.740746
 20
144.147191
 30
0.0
 11
85.234594
 21
144.147191
 31
0.0
  0
ENDBLK
  5
3DD
100
AcDbEntity
  8
0
100
AcDbBlockEnd
  0
BLOCK
  5
3E0
100
AcDbEntity
  8
0
100
AcDbBlockBegin
  2
*B53
 70
     0
 10
0.0
 20
0.0
 30
0.0
  3
*B53
  1

  0
LINE
  5
3E1
100
AcDbEntity
  8
0
  6
Continuous
 62
     8
100
AcDbLine
 10
245.740771
 20
147.584453
 30
0.0
 11
249.740696
 21
147.584453
 31
0.0
  0
LINE
  5
3E2
100
AcDbEntity
  8
0
  6
Continuous
 62
     8
100
AcDbLine
 10
164.671926
 20
147.584453
 30
0.0
 11
166.734524
 21
147.584453
 31
0.0
  0
LINE
  5
3E3
100
AcDbEntity
  8
0
  6
Continuous
 62
     8
100
AcDbLine
 10
172.734561
 20
147.584453
 30
0.0
 11
183.335638
 21
147.584453
 31
0.0
  0
LINE
  5
3E4
100
AcDbEntity
  8
0
  6
Continuous
 62
     8
100
AcDbLine
 10
185.335751
 20
147.584453
 30
0.0
 11
186.335807
 21
147.584453
 31
0.0
  0
LINE
  5
3E5
100
AcDbEntity
  8
0
  6
Continuous
 62
     8
100
AcDbLine
 10
188.335919
 20
147.584453
 30
0.0
 11
198.936996
 21
147.584453
 31
0.0
  0
LINE
  5
3E6
100
AcDbEntity
  8
0
  6
Continuous
 62
     8
100
AcDbLine
 10
200.937109
 20
147.584453
 30
0.0
 11
201.936865
 21
147.584453
 31
0.0
  0
LINE
  5
3E7
100
AcDbEntity
  8
0
  6
Continuous
 62
     8
100
AcDbLine
 10
203.936977
 20
147.584453
 30
0.0
 11
214.538054
 21
147.584453
 31
0.0
  0
LINE
  5
3E8
100
AcDbEntity
  8
0
  6
Continuous
 62
     8
100
AcDbLine
 10
216.538167
 20
147.584453
 30
0.0
 11
217.538223
 21
147.584453
 31
0.0
  0
LINE
  5
3E9
100
AcDbEntity
  8
0
  6
Continuous
 62
     8
100
AcDbLine
 10
219.538336
 20
147.584453
 30
0.0
 11
230.139413
 21
147.584453
 31
0.0
  0
LINE
  5
3EA
100
AcDbEntity
  8
0
  6
Continuous
 62
     8
100
AcDbLine
 10
232.139525
 20
147.584453
 30
0.0
 11
233.139281
 21
147.584453
 31
0.0
  0
LINE
  5
3EB
100
AcDbEntity
  8
0
  6
Continuous
 62
     8
100
AcDbLine
 10
235.139394
 20
147.584453
 30
0.0
 11
245.740771
 21
147.584453
 31
0.0
  0
ENDBLK
  5
3EC
100
AcDbEntity
  8
0
100
AcDbBlockEnd
  0
BLOCK
  5
3EF
100
AcDbEntity
  8
0
100
AcDbBlockBegin
  2
*B54
 70
     0
 10
0.0
 20
0.0
 30
0.0
  3
*B54
  1

  0
LINE
  5
3F0
100
AcDbEntity
  8
0
  6
Continuous
 62
     8
100
AcDbLine
 10
132.740722
 20
163.520765
 30
0.0
 11
136.740646
 21
163.520765
 31
0.0
  0
LINE
  5
3F1
100
AcDbEntity
  8
0
  6
Continuous
 62
     8
100
AcDbLine
 10
136.740646
 20
163.520765
 30
0.0
 11
151.737585
 21
163.520765
 31
0.0
  0
LINE
  5
3F2
100
AcDbEntity
  8
0
  6
Continuous
 62
     8
100
AcDbLine
 10
153.737698
 20
163.520765
 30
0.0
 11
154.737754
 21
163.520765
 31
0.0
  0
LINE
  5
3F3
100
AcDbEntity
  8
0
  6
Continuous
 62
     8
100
AcDbLine
 10
156.737566
 20
163.520765
 30
0.0
 11
171.734505
 21
163.520765
 31
0.0
  0
LINE
  5
3F4
100
AcDbEntity
  8
0
  6
Continuous
 62
     8
100
AcDbLine
 10
177.734542
 20
163.520765
 30
0.0
 11
192.859454
 21
163.520765
 31
0.0
  0
LINE
  5
3F5
100
AcDbEntity
  8
0
  6
Continuous
 62
     8
100
AcDbLine
 10
194.859567
 20
163.520765
 30
0.0
 11
195.859623
 21
163.520765
 31
0.0
  0
LINE
  5
3F6
100
AcDbEntity
  8
0
  6
Continuous
 62
     8
100
AcDbLine
 10
197.859435
 20
163.520765
 30
0.0
 11
212.984648
 21
163.520765
 31
0.0
  0
LINE
  5
3F7
100
AcDbEntity
  8
0
  6
Continuous
 62
     8
100
AcDbLine
 10
218.984385
 20
163.520765
 30
0.0
 11
225.859509
 21
163.520765
 31
0.0
  0
ENDBLK
  5
3F8
100
AcDbEntity
  8
0
100
AcDbBlockEnd
  0
BLOCK
  5
3FB
100
AcDbEntity
  8
0
100
AcDbBlockBegin
  2
*B55
 70
     0
 10
0.0
 20
0.0
 30
0.0
  3
*B55
  1

  0
LINE
  5
3FC
100
AcDbEntity
  8
0
  6
Continuous
 62
     8
100
AcDbLine
 10
124.734564
 20
67.929325
 30
0.0
 11
124.734564
 21
117.042933
 31
0.0
  0
ENDBLK
  5
3FD
100
AcDbEntity
  8
0
100
AcDbBlockEnd
  0
BLOCK
  5
400
100
AcDbEntity
  8
0
100
AcDbBlockBegin
  2
*B56
 70
     0
 10
0.0
 20
0.0
 30
0.0
  3
*B56
  1

  0
LINE
  5
401
100
AcDbEntity
  8
0
  6
Continuous
 62
     8
100
AcDbLine
 10
47.740746
 20
30.931749
 30
0.0
 11
85.234594
 21
30.931749
 31
0.0
  0
ENDBLK
  5
402
100
AcDbEntity
  8
0
100
AcDbBlockEnd
  0
BLOCK
  5
405
100
AcDbEntity
  8
0
100
AcDbBlockBegin
  2
*B57
 70
     0
 10
0.0
 20
0.0
 30
0.0
  3
*B57
  1

  0
LINE
  5
406
100
AcDbEntity
  8
0
  6
Continuous
 62
     8
100
AcDbLine
 10
74.609485
 20
44.680796
 30
0.0
 11
85.126147
 21
44.680796
 31
0.0
  0
LINE
  5
407
100
AcDbEntity
  8
0
  6
Continuous
 62
     8
100
AcDbLine
 10
87.12626
 20
44.680796
 30
0.0
 11
88.126316
 21
44.680796
 31
0.0
  0
LINE
  5
408
100
AcDbEntity
  8
0
  6
Continuous
 62
     8
100
AcDbLine
 10
90.126128
 20
44.680796
 30
0.0
 11
100.642791
 21
44.680796
 31
0.0
  0
LINE
  5
409
100
AcDbEntity
  8
0
  6
Continuous
 62
     8
100
AcDbLine
 10
102.642903
 20
44.680796
 30
0.0
 11
103.64296
 21
44.680796
 31
0.0
  0
LINE
  5
40A
100
AcDbEntity
  8
0
  6
Continuous
 62
     8
100
AcDbLine
 10
105.642772
 20
44.680796
 30
0.0
 11
116.159735
 21
44.680796
 31
0.0
  0
LINE
  5
40B
100
AcDbEntity
  8
0
  6
Continuous
 62
     8
100
AcDbLine
 10
118.159547
 20
44.680796
 30
0.0
 11
119.159603
 21
44.680796
 31
0.0
  0
LINE
  5
40C
100
AcDbEntity
  8
0
  6
Continuous
 62
     8
100
AcDbLine
 10
121.159716
 20
44.680796
 30
0.0
 11
131.676378
 21
44.680796
 31
0.0
  0
LINE
  5
40D
100
AcDbEntity
  8
0
  6
Continuous
 62
     8
100
AcDbLine
 10
133.67619
 20
44.680796
 30
0.0
 11
134.676247
 21
44.680796
 31
0.0
  0
LINE
  5
40E
100
AcDbEntity
  8
0
  6
Continuous
 62
     8
100
AcDbLine
 10
136.676359
 20
44.680796
 30
0.0
 11
147.193022
 21
44.680796
 31
0.0
  0
LINE
  5
40F
100
AcDbEntity
  8
0
  6
Continuous
 62
     8
100
AcDbLine
 10
149.192834
 20
44.680796
 30
0.0
 11
150.19289
 21
44.680796
 31
0.0
  0
LINE
  5
410
100
AcDbEntity
  8
0
  6
Continuous
 62
     8
100
AcDbLine
 10
152.193003
 20
44.680796
 30
0.0
 11
162.709665
 21
44.680796
 31
0.0
  0
LINE
  5
411
100
AcDbEntity
  8
0
  6
Continuous
 62
     8
100
AcDbLine
 10
164.709477
 20
44.680796
 30
0.0
 11
165.709534
 21
44.680796
 31
0.0
  0
LINE
  5
412
100
AcDbEntity
  8
0
  6
Continuous
 62
     8
100
AcDbLine
 10
167.709646
 20
44.680796
 30
0.0
 11
178.226309
 21
44.680796
 31
0.0
  0
LINE
  5
413
100
AcDbEntity
  8
0
  6
Continuous
 62
     8
100
AcDbLine
 10
180.226121
 20
44.680796
 30
0.0
 11
181.226177
 21
44.680796
 31
0.0
  0
LINE
  5
414
100
AcDbEntity
  8
0
  6
Continuous
 62
     8
100
AcDbLine
 10
183.22629
 20
44.680796
 30
0.0
 11
193.742952
 21
44.680796
 31
0.0
  0
LINE
  5
415
100
AcDbEntity
  8
0
  6
Continuous
 62
     8
100
AcDbLine
 10
195.742764
 20
44.680796
 30
0.0
 11
196.742821
 21
44.680796
 31
0.0
  0
LINE
  5
416
100
AcDbEntity
  8
0
  6
Continuous
 62
     8
100
AcDbLine
 10
198.742933
 20
44.680796
 30
0.0
 11
209.259596
 21
44.680796
 31
0.0
  0
LINE
  5
417
100
AcDbEntity
  8
0
  6
Continuous
 62
     8
100
AcDbLine
 10
211.259408
 20
44.680796
 30
0.0
 11
212.259464
 21
44.680796
 31
0.0
  0
LINE
  5
418
100
AcDbEntity
  8
0
  6
Continuous
 62
     8
100
AcDbLine
 10
214.259577
 20
44.680796
 30
0.0
 11
224.776239
 21
44.680796
 31
0.0
  0
LINE
  5
419
100
AcDbEntity
  8
0
  6
Continuous
 62
     8
100
AcDbLine
 10
226.776052
 20
44.680796
 30
0.0
 11
227.776108
 21
44.680796
 31
0.0
  0
LINE
  5
41A
100
AcDbEntity
  8
0
  6
Continuous
 62
     8
100
AcDbLine
 10
229.77622
 20
44.680796
 30
0.0
 11
240.292883
 21
44.680796
 31
0.0
  0
LINE
  5
41B
100
AcDbEntity
  8
0
  6
Continuous
 62
     8
100
AcDbLine
 10
242.292995
 20
44.680796
 30
0.0
 11
243.292751
 21
44.680796
 31
0.0
  0
LINE
  5
41C
100
AcDbEntity
  8
0
  6
Continuous
 62
     8
100
AcDbLine
 10
245.292864
 20
44.680796
 30
0.0
 11
255.809526
 21
44.680796
 31
0.0
  0
LINE
  5
41D
100
AcDbEntity
  8
0
  6
Continuous
 62
     8
100
AcDbLine
 10
257.809639
 20
44.680796
 30
0.0
 11
258.809395
 21
44.680796
 31
0.0
  0
LINE
  5
41E
100
AcDbEntity
  8
0
  6
Continuous
 62
     8
100
AcDbLine
 10
260.809507
 20
44.680796
 30
0.0
 11
271.32617
 21
44.680796
 31
0.0
  0
LINE
  5
41F
100
AcDbEntity
  8
0
  6
Continuous
 62
     8
100
AcDbLine
 10
273.326283
 20
44.680796
 30
0.0
 11
274.326038
 21
44.680796
 31
0.0
  0
LINE
  5
420
100
AcDbEntity
  8
0
  6
Continuous
 62
     8
100
AcDbLine
 10
276.326151
 20
44.680796
 30
0.0
 11
286.842813
 21
44.680796
 31
0.0
  0
LINE
  5
421
100
AcDbEntity
  8
0
  6
Continuous
 62
     8
100
AcDbLine
 10
288.842926
 20
44.680796
 30
0.0
 11
289.842682
 21
44.680796
 31
0.0
  0
LINE
  5
422
100
AcDbEntity
  8
0
  6
Continuous
 62
     8
100
AcDbLine
 10
291.842794
 20
44.680796
 30
0.0
 11
302.359457
 21
44.680796
 31
0.0
  0
ENDBLK
  5
423
100
AcDbEntity
  8
0
100
AcDbBlockEnd
  0
BLOCK
  5
426
100
AcDbEntity
  8
0
100
AcDbBlockBegin
  2
*B58
 70
     0
 10
0.0
 20
0.0
 30
0.0
  3
*B58
  1

  0
LINE
  5
427
100
AcDbEntity
  8
0
  6
Continuous
 62
     8
100
AcDbLine
 10
188.484621
 20
127.042294
 30
0.0
 11
188.484621
 21
131.041918
 31
0.0
  0
LINE
  5
428
100
AcDbEntity
  8
0
  6
Continuous
 62
     8
100
AcDbLine
 10
188.484621
 20
131.041918
 30
0.0
 11
188.484621
 21
140.469303
 31
0.0
  0
LINE
  5
429
100
AcDbEntity
  8
0
  6
Continuous
 62
     8
100
AcDbLine
 10
188.484621
 20
142.469115
 30
0.0
 11
188.484621
 21
143.469172
 31
0.0
  0
LINE
  5
42A
100
AcDbEntity
  8
0
  6
Continuous
 62
     8
100
AcDbLine
 10
188.484621
 20
145.468984
 30
0.0
 11
188.484621
 21
154.896369
 31
0.0
  0
LINE
  5
42B
100
AcDbEntity
  8
0
  6
Continuous
 62
     8
100
AcDbLine
 10
188.484621
 20
160.895805
 30
0.0
 11
188.484621
 21
167.770329
 31
0.0
  0
ENDBLK
  5
42C
100
AcDbEntity
  8
0
100
AcDbBlockEnd
  0
BLOCK
  5
42F
100
AcDbEntity
  8
0
100
AcDbBlockBegin
  2
*B59
 70
     0
 10
0.0
 20
0.0
 30
0.0
  3
*B59
  1

  0
LINE
  5
430
100
AcDbEntity
  8
0
  6
Continuous
 62
     6
100
AcDbLine
 10
63.484497
 20
156.896181
 30
0.0
 11
63.484497
 21
158.895993
 31
0.0
  0
LINE
  5
431
100
AcDbEntity
  8
0
  6
Continuous
 62
     6
100
AcDbLine
 10
62.484741
 20
157.896237
 30
0.0
 11
64.484553
 21
157.896237
 31
0.0
  0
ENDBLK
  5
432
100
AcDbEntity
  8
0
100
AcDbBlockEnd
  0
BLOCK
  5
435
100
AcDbEntity
  8
0
100
AcDbBlockBegin
  2
*B60
 70
     0
 10
0.0
 20
0.0
 30
0.0
  3
*B60
  1

  0
LINE
  5
436
100
AcDbEntity
  8
0
  6
Continuous
 62
     6
100
AcDbLine
 10
159.98467
 20
152.271409
 30
0.0
 11
161.984482
 21
152.271409
 31
0.0
  0
LINE
  5
437
100
AcDbEntity
  8
0
  6
Continuous
 62
     6
100
AcDbLine
 10
160.984426
 20
151.271653
 30
0.0
 11
160.984426
 21
153.271465
 31
0.0
  0
ENDBLK
  5
438
100
AcDbEntity
  8
0
100
AcDbBlockEnd
  0
BLOCK
  5
43B
100
AcDbEntity
  8
0
100
AcDbBlockBegin
  2
*B61
 70
     0
 10
0.0
 20
0.0
 30
0.0
  3
*B61
  1

  0
LINE
  5
43C
100
AcDbEntity
  8
0
  6
Continuous
 62
     6
100
AcDbLine
 10
206.234493
 20
168.208022
 30
0.0
 11
208.234606
 21
168.208022
 31
0.0
  0
LINE
  5
43D
100
AcDbEntity
  8
0
  6
Continuous
 62
     6
100
AcDbLine
 10
207.23455
 20
167.207966
 30
0.0
 11
207.23455
 21
169.207778
 31
0.0
  0
ENDBLK
  5
43E
100
AcDbEntity
  8
0
100
AcDbBlockEnd
  0
BLOCK
  5
441
100
AcDbEntity
  8
0
100
AcDbBlockBegin
  2
*B62
 70
     0
 10
0.0
 20
0.0
 30
0.0
  3
*B62
  1

  0
LINE
  5
442
100
AcDbEntity
  8
0
  6
Continuous
 62
     6
100
AcDbLine
 10
187.484565
 20
157.896237
 30
0.0
 11
189.484677
 21
157.896237
 31
0.0
  0
LINE
  5
443
100
AcDbEntity
  8
0
  6
Continuous
 62
     6
100
AcDbLine
 10
188.484621
 20
156.896181
 30
0.0
 11
188.484621
 21
158.895993
 31
0.0
  0
ENDBLK
  5
444
100
AcDbEntity
  8
0
100
AcDbBlockEnd
  0
BLOCK
  5
447
100
AcDbEntity
  8
0
100
AcDbBlockBegin
  2
*B63
 70
     0
 10
0.0
 20
0.0
 30
0.0
  3
*B63
  1

  0
LINE
  5
448
100
AcDbEntity
  8
0
  6
Continuous
 62
     6
100
AcDbLine
 10
173.734617
 20
163.520765
 30
0.0
 11
175.734429
 21
163.520765
 31
0.0
  0
LINE
  5
449
100
AcDbEntity
  8
0
  6
Continuous
 62
     6
100
AcDbLine
 10
174.734674
 20
162.520709
 30
0.0
 11
174.734674
 21
164.520822
 31
0.0
  0
ENDBLK
  5
44A
100
AcDbEntity
  8
0
100
AcDbBlockEnd
  0
BLOCK
  5
44D
100
AcDbEntity
  8
0
100
AcDbBlockBegin
  2
*B64
 70
     0
 10
0.0
 20
0.0
 30
0.0
  3
*B64
  1

  0
LINE
  5
44E
100
AcDbEntity
  8
0
  6
Continuous
 62
     6
100
AcDbLine
 10
215.984516
 20
162.520709
 30
0.0
 11
215.984516
 21
164.520822
 31
0.0
  0
LINE
  5
44F
100
AcDbEntity
  8
0
  6
Continuous
 62
     6
100
AcDbLine
 10
214.98446
 20
163.520765
 30
0.0
 11
216.984572
 21
163.520765
 31
0.0
  0
ENDBLK
  5
450
100
AcDbEntity
  8
0
100
AcDbBlockEnd
  0
BLOCK
  5
453
100
AcDbEntity
  8
0
100
AcDbBlockBegin
  2
*B65
 70
     0
 10
0.0
 20
0.0
 30
0.0
  3
*B65
  1

  0
LINE
  5
454
100
AcDbEntity
  8
0
  6
Continuous
 62
     6
100
AcDbLine
 10
202.234569
 20
151.271653
 30
0.0
 11
202.234569
 21
153.271465
 31
0.0
  0
LINE
  5
455
100
AcDbEntity
  8
0
  6
Continuous
 62
     6
100
AcDbLine
 10
201.234512
 20
152.271409
 30
0.0
 11
203.234625
 21
152.271409
 31
0.0
  0
ENDBLK
  5
456
100
AcDbEntity
  8
0
100
AcDbBlockEnd
  0
BLOCK
  5
459
100
AcDbEntity
  8
0
100
AcDbBlockBegin
  2
*B66
 70
     0
 10
0.0
 20
0.0
 30
0.0
  3
*B66
  1

  0
LINE
  5
45A
100
AcDbEntity
  8
0
  6
Continuous
 62
     6
100
AcDbLine
 10
313.484445
 20
156.896181
 30
0.0
 11
313.484445
 21
158.895993
 31
0.0
  0
LINE
  5
45B
100
AcDbEntity
  8
0
  6
Continuous
 62
     6
100
AcDbLine
 10
312.484388
 20
157.896237
 30
0.0
 11
314.484501
 21
157.896237
 31
0.0
  0
ENDBLK
  5
45C
100
AcDbEntity
  8
0
100
AcDbBlockEnd
  0
BLOCK
  5
45F
100
AcDbEntity
  8
0
100
AcDbBlockBegin
  2
*B67
 70
     0
 10
0.0
 20
0.0
 30
0.0
  3
*B67
  1

  0
LINE
  5
460
100
AcDbEntity
  8
0
  6
Continuous
 62
     6
100
AcDbLine
 10
169.734693
 20
146.584396
 30
0.0
 11
169.734693
 21
148.584208
 31
0.0
  0
LINE
  5
461
100
AcDbEntity
  8
0
  6
Continuous
 62
     6
100
AcDbLine
 10
168.734636
 20
147.584453
 30
0.0
 11
170.734448
 21
147.584453
 31
0.0
  0
ENDBLK
  5
462
100
AcDbEntity
  8
0
100
AcDbBlockEnd
  0
BLOCK
  5
465
100
AcDbEntity
  8
0
100
AcDbBlockBegin
  2
*B68
 70
     0
 10
0.0
 20
0.0
 30
0.0
  3
*B68
  1

  0
TEXT
  5
466
100
AcDbEntity
  8
TEXT
  6
Continuous
 62
     0
100
AcDbText
 10
52.190149
 20
126.5
 30
0.0
 40
7.0
  1
180%%d
100
AcDbText
  0
ENDBLK
  5
467
100
AcDbEntity
  8
0
100
AcDbBlockEnd
  0
BLOCK
  5
46A
100
AcDbEntity
  8
0
100
AcDbBlockBegin
  2
*B69
 70
     0
 10
0.0
 20
0.0
 30
0.0
  3
*B69
  1

  0
TEXT
  5
46B
100
AcDbEntity
  8
TEXT
  6
Continuous
 62
     0
100
AcDbText
 10
83.190149
 20
15.5
 30
0.0
 40
7.0
  1
180%%d
100
AcDbText
  0
ENDBLK
  5
46C
100
AcDbEntity
  8
0
100
AcDbBlockEnd
  0
BLOCK
  5
46F
100
AcDbEntity
  8
0
100
AcDbBlockBegin
  2
*B70
 70
     0
 10
0.0
 20
0.0
 30
0.0
  3
*B70
  1

  0
TEXT
  5
470
100
AcDbEntity
  8
TEXT
  6
Continuous
 62
     0
100
AcDbText
 10
153.875573
 20
196.734743
 30
0.0
 40
3.5
  1
20
100
AcDbText
  0
ENDBLK
  5
471
100
AcDbEntity
  8
0
100
AcDbBlockEnd
  0
BLOCK
  5
474
100
AcDbEntity
  8
0
100
AcDbBlockBegin
  2
*B71
 70
     0
 10
0.0
 20
0.0
 30
0.0
  3
*B71
  1

  0
TEXT
  5
475
100
AcDbEntity
  8
TEXT
  6
Continuous
 62
     0
100
AcDbText
 10
185.125573
 20
196.734743
 30
0.0
 40
3.5
  1
30
100
AcDbText
  0
ENDBLK
  5
476
100
AcDbEntity
  8
0
100
AcDbBlockEnd
  0
BLOCK
  5
479
100
AcDbEntity
  8
0
100
AcDbBlockBegin
  2
*B72
 70
     0
 10
0.0
 20
0.0
 30
0.0
  3
*B72
  1

  0
TEXT
  5
47A
100
AcDbEntity
  8
TEXT
  6
Continuous
 62
     0
100
AcDbText
 10
156.375573
 20
184.734743
 30
0.0
 40
3.5
  1
24
100
AcDbText
  0
ENDBLK
  5
47B
100
AcDbEntity
  8
0
100
AcDbBlockEnd
  0
BLOCK
  5
47E
100
AcDbEntity
  8
0
100
AcDbBlockBegin
  2
*B73
 70
     0
 10
0.0
 20
0.0
 30
0.0
  3
*B73
  1

  0
TEXT
  5
47F
100
AcDbEntity
  8
TEXT
  6
Continuous
 62
     0
100
AcDbText
 10
185.125573
 20
184.734743
 30
0.0
 40
3.5
  1
22
100
AcDbText
  0
ENDBLK
  5
480
100
AcDbEntity
  8
0
100
AcDbBlockEnd
  0
BLOCK
  5
483
100
AcDbEntity
  8
0
100
AcDbBlockBegin
  2
*B74
 70
     0
 10
0.0
 20
0.0
 30
0.0
  3
*B74
  1

  0
TEXT
  5
484
100
AcDbEntity
  8
TEXT
  6
Continuous
 62
     0
100
AcDbText
 10
149.500573
 20
130.75
 30
0.0
 40
3.5
  1
13
100
AcDbText
  0
ENDBLK
  5
485
100
AcDbEntity
  8
0
100
AcDbBlockEnd
  0
BLOCK
  5
488
100
AcDbEntity
  8
0
100
AcDbBlockBegin
  2
*B75
 70
     0
 10
0.0
 20
0.0
 30
0.0
  3
*B75
  1

  0
TEXT
  5
489
100
AcDbEntity
  8
TEXT
  6
Continuous
 62
     0
100
AcDbText
 10
171.375573
 20
130.75
 30
0.0
 40
3.5
  1
22
100
AcDbText
  0
ENDBLK
  5
48A
100
AcDbEntity
  8
0
100
AcDbBlockEnd
  0
BLOCK
  5
48D
100
AcDbEntity
  8
0
100
AcDbBlockBegin
  2
*B76
 70
     0
 10
0.0
 20
0.0
 30
0.0
  3
*B76
  1

  0
TEXT
  5
48E
100
AcDbEntity
  8
TEXT
  6
Continuous
 62
     0
100
AcDbText
 10
198.875573
 20
130.75
 30
0.0
 40
3.5
  1
22
100
AcDbText
  0
ENDBLK
  5
48F
100
AcDbEntity
  8
0
100
AcDbBlockEnd
  0
BLOCK
  5
492
100
AcDbEntity
  8
0
100
AcDbBlockBegin
  2
*B77
 70
     0
 10
0.0
 20
0.0
 30
0.0
  3
*B77
  1

  0
TEXT
  5
493
100
AcDbEntity
  8
TEXT
  6
Continuous
 62
     0
100
AcDbText
 10
245.965012
 20
152.02284
 30
0.0
 40
3.5
  1
16,5
 50
90.0
100
AcDbText
  0
ENDBLK
  5
494
100
AcDbEntity
  8
0
100
AcDbBlockEnd
  0
BLOCK
  5
497
100
AcDbEntity
  8
0
100
AcDbBlockBegin
  2
*B78
 70
     0
 10
0.0
 20
0.0
 30
0.0
  3
*B78
  1

  0
TEXT
  5
498
100
AcDbEntity
  8
TEXT
  6
Continuous
 62
     0
100
AcDbText
 10
132.965012
 20
156.189507
 30
0.0
 40
3.5
  1
9
 50
90.0
100
AcDbText
  0
ENDBLK
  5
499
100
AcDbEntity
  8
0
100
AcDbBlockEnd
  0
BLOCK
  5
49C
100
AcDbEntity
  8
0
100
AcDbBlockBegin
  2
*B79
 70
     0
 10
0.0
 20
0.0
 30
0.0
  3
*B79
  1

  0
TEXT
  5
49D
100
AcDbEntity
  8
TEXT
  6
Continuous
 62
     0
100
AcDbText
 10
47.965012
 20
154.52284
 30
0.0
 40
3.5
  1
22
 50
90.0
100
AcDbText
  0
ENDBLK
  5
49E
100
AcDbEntity
  8
0
100
AcDbBlockEnd
  0
BLOCK
  5
4A1
100
AcDbEntity
  8
0
100
AcDbBlockBegin
  2
*B80
 70
     0
 10
0.0
 20
0.0
 30
0.0
  3
*B80
  1

  0
TEXT
  5
4A2
100
AcDbEntity
  8
TEXT
  6
Continuous
 62
     0
100
AcDbText
 10
47.965012
 20
63.79911
 30
0.0
 40
3.5
  1
58
 50
90.0
100
AcDbText
  0
ENDBLK
  5
4A3
100
AcDbEntity
  8
0
100
AcDbBlockEnd
  0
BLOCK
  5
4A6
100
AcDbEntity
  8
0
100
AcDbBlockBegin
  2
*B81
 70
     0
 10
0.0
 20
0.0
 30
0.0
  3
*B81
  1

  0
TEXT
  5
4A7
100
AcDbEntity
  8
TEXT
  6
Continuous
 62
     0
100
AcDbText
 10
90.750573
 20
116.75
 30
0.0
 40
3.5
  1
48
100
AcDbText
  0
ENDBLK
  5
4A8
100
AcDbEntity
  8
0
100
AcDbBlockEnd
  0
BLOCK
  5
4AB
100
AcDbEntity
  8
0
100
AcDbBlockBegin
  2
*B82
 70
     0
 10
0.0
 20
0.0
 30
0.0
  3
*B82
  1

  0
TEXT
  5
4AC
100
AcDbEntity
  8
TEXT
  6
Continuous
 62
     0
100
AcDbText
 10
183.458906
 20
116.75
 30
0.0
 40
3.5
  1
102
100
AcDbText
  0
ENDBLK
  5
4AD
100
AcDbEntity
  8
0
100
AcDbBlockEnd
  0
BLOCK
  5
4B0
100
AcDbEntity
  8
0
100
AcDbBlockBegin
  2
*B83
 70
     0
 10
0.0
 20
0.0
 30
0.0
  3
*B83
  1

  0
TEXT
  5
4B1
100
AcDbEntity
  8
TEXT
  6
Continuous
 62
     0
100
AcDbText
 10
179.098346
 20
87.169853
 30
0.0
 40
3.5
  1
%%c3,3
100
AcDbText
  0
ENDBLK
  5
4B2
100
AcDbEntity
  8
0
100
AcDbBlockEnd
  0
BLOCK
  5
4B5
100
AcDbEntity
  8
0
100
AcDbBlockBegin
  2
*B84
 70
     0
 10
0.0
 20
0.0
 30
0.0
  3
*B84
  1

  0
TEXT
  5
4B6
100
AcDbEntity
  8
TEXT
  6
Continuous
 62
     0
100
AcDbText
 10
200.598346
 20
15.169853
 30
0.0
 40
3.5
  1
%%c7
100
AcDbText
  0
ENDBLK
  5
4B7
100
AcDbEntity
  8
0
100
AcDbBlockEnd
  0
BLOCK
  5
4BA
100
AcDbEntity
  8
0
100
AcDbBlockBegin
  2
*B85
 70
     0
 10
0.0
 20
0.0
 30
0.0
  3
*B85
  1

  0
TEXT
  5
4BB
100
AcDbEntity
  8
TEXT
  6
Continuous
 62
     0
100
AcDbText
 10
185.125573
 20
102.169853
 30
0.0
 40
3.5
  1
70
100
AcDbText
  0
ENDBLK
  5
4BC
100
AcDbEntity
  8
0
100
AcDbBlockEnd
  0
BLOCK
  5
4BF
100
AcDbEntity
  8
0
100
AcDbBlockBegin
  2
*B86
 70
     0
 10
0.0
 20
0.0
 30
0.0
  3
*B86
  1

  0
TEXT
  5
4C0
100
AcDbEntity
  8
TEXT
  6
Continuous
 62
     0
100
AcDbText
 10
279.500573
 20
116.75
 30
0.0
 40
3.5
  1
48
100
AcDbText
  0
ENDBLK
  5
4C1
100
AcDbEntity
  8
0
100
AcDbBlockEnd
  0
ENDSEC
  0
SECTION
  2
ENTITIES
  0
INSERT
  5
1C7
100
AcDbEntity
  8
0
  6
HIDDEN
 62
   174
100
AcDbBlockReference
  2
*B1
 10
0.0
 20
0.0
 30
0.0
  0
INSERT
  5
275
100
AcDbEntity
  8
0
  6
Continuous
 62
   174
100
AcDbBlockReference
  2
*B2
 10
0.0
 20
0.0
 30
0.0
  0
INSERT
  5
27B
100
AcDbEntity
  8
0
  6
Continuous
 62
   172
100
AcDbBlockReference
  2
*B3
 10
0.0
 20
0.0
 30
0.0
  0
INSERT
  5
286
100
AcDbEntity
  8
0
  6
Continuous
 62
   172
100
AcDbBlockReference
  2
*B4
 10
0.0
 20
0.0
 30
0.0
  0
INSERT
  5
28F
100
AcDbEntity
  8
0
  6
Continuous
 62
   172
100
AcDbBlockReference
  2
*B6
 10
0.0
 20
0.0
 30
0.0
  0
INSERT
  5
29A
100
AcDbEntity
  8
0
  6
Continuous
 62
   172
100
AcDbBlockReference
  2
*B7
 10
0.0
 20
0.0
 30
0.0
  0
INSERT
  5
2A4
100
AcDbEntity
  8
0
  6
Continuous
 62
     0
100
AcDbBlockReference
  2
*B9
 10
0.0
 20
0.0
 30
0.0
  0
INSERT
  5
2AB
100
AcDbEntity
  8
0
  6
Continuous
 62
     0
100
AcDbBlockReference
  2
*B10
 10
0.0
 20
0.0
 30
0.0
  0
INSERT
  5
2B2
100
AcDbEntity
  8
0
  6
Continuous
 62
     0
100
AcDbBlockReference
  2
*B11
 10
0.0
 20
0.0
 30
0.0
  0
INSERT
  5
2B9
100
AcDbEntity
  8
0
  6
Continuous
 62
     0
100
AcDbBlockReference
  2
*B12
 10
0.0
 20
0.0
 30
0.0
  0
INSERT
  5
2C0
100
AcDbEntity
  8
0
  6
Continuous
 62
     0
100
AcDbBlockReference
  2
*B13
 10
0.0
 20
0.0
 30
0.0
  0
INSERT
  5
2C7
100
AcDbEntity
  8
0
  6
Continuous
 62
     0
100
AcDbBlockReference
  2
*B14
 10
0.0
 20
0.0
 30
0.0
  0
INSERT
  5
2CE
100
AcDbEntity
  8
0
  6
Continuous
 62
     0
100
AcDbBlockReference
  2
*B15
 10
0.0
 20
0.0
 30
0.0
  0
INSERT
  5
2D5
100
AcDbEntity
  8
0
  6
Continuous
 62
     0
100
AcDbBlockReference
  2
*B16
 10
0.0
 20
0.0
 30
0.0
  0
INSERT
  5
2DC
100
AcDbEntity
  8
0
  6
Continuous
 62
     0
100
AcDbBlockReference
  2
*B17
 10
0.0
 20
0.0
 30
0.0
  0
INSERT
  5
2E3
100
AcDbEntity
  8
0
  6
Continuous
 62
     0
100
AcDbBlockReference
  2
*B18
 10
0.0
 20
0.0
 30
0.0
  0
INSERT
  5
2EA
100
AcDbEntity
  8
0
  6
Continuous
 62
     0
100
AcDbBlockReference
  2
*B19
 10
0.0
 20
0.0
 30
0.0
  0
INSERT
  5
2F1
100
AcDbEntity
  8
0
  6
Continuous
 62
     0
100
AcDbBlockReference
  2
*B20
 10
0.0
 20
0.0
 30
0.0
  0
INSERT
  5
2F8
100
AcDbEntity
  8
0
  6
Continuous
 62
     0
100
AcDbBlockReference
  2
*B21
 10
0.0
 20
0.0
 30
0.0
  0
INSERT
  5
2FF
100
AcDbEntity
  8
0
  6
Continuous
 62
     0
100
AcDbBlockReference
  2
*B22
 10
0.0
 20
0.0
 30
0.0
  0
INSERT
  5
306
100
AcDbEntity
  8
0
  6
Continuous
 62
     0
100
AcDbBlockReference
  2
*B23
 10
0.0
 20
0.0
 30
0.0
  0
INSERT
  5
30D
100
AcDbEntity
  8
0
  6
Continuous
 62
     0
100
AcDbBlockReference
  2
*B24
 10
0.0
 20
0.0
 30
0.0
  0
INSERT
  5
314
100
AcDbEntity
  8
0
  6
Continuous
 62
     0
100
AcDbBlockReference
  2
*B25
 10
0.0
 20
0.0
 30
0.0
  0
INSERT
  5
31D
100
AcDbEntity
  8
0
  6
Continuous
 62
     8
100
AcDbBlockReference
  2
*B26
 10
0.0
 20
0.0
 30
0.0
  0
INSERT
  5
326
100
AcDbEntity
  8
0
  6
Continuous
 62
     8
100
AcDbBlockReference
  2
*B27
 10
0.0
 20
0.0
 30
0.0
  0
INSERT
  5
32B
100
AcDbEntity
  8
0
  6
Continuous
 62
     8
100
AcDbBlockReference
  2
*B28
 10
0.0
 20
0.0
 30
0.0
  0
INSERT
  5
330
100
AcDbEntity
  8
0
  6
Continuous
 62
     8
100
AcDbBlockReference
  2
*B29
 10
0.0
 20
0.0
 30
0.0
  0
INSERT
  5
335
100
AcDbEntity
  8
0
  6
Continuous
 62
     8
100
AcDbBlockReference
  2
*B30
 10
0.0
 20
0.0
 30
0.0
  0
INSERT
  5
33C
100
AcDbEntity
  8
0
  6
Continuous
 62
     8
100
AcDbBlockReference
  2
*B31
 10
0.0
 20
0.0
 30
0.0
  0
INSERT
  5
343
100
AcDbEntity
  8
0
  6
Continuous
 62
     8
100
AcDbBlockReference
  2
*B32
 10
0.0
 20
0.0
 30
0.0
  0
INSERT
  5
34C
100
AcDbEntity
  8
0
  6
Continuous
 62
     8
100
AcDbBlockReference
  2
*B33
 10
0.0
 20
0.0
 30
0.0
  0
INSERT
  5
356
100
AcDbEntity
  8
0
  6
Continuous
 62
     8
100
AcDbBlockReference
  2
*B34
 10
0.0
 20
0.0
 30
0.0
  0
INSERT
  5
35B
100
AcDbEntity
  8
0
  6
Continuous
 62
     8
100
AcDbBlockReference
  2
*B35
 10
0.0
 20
0.0
 30
0.0
  0
INSERT
  5
362
100
AcDbEntity
  8
0
  6
Continuous
 62
     8
100
AcDbBlockReference
  2
*B36
 10
0.0
 20
0.0
 30
0.0
  0
INSERT
  5
36D
100
AcDbEntity
  8
0
  6
Continuous
 62
     8
100
AcDbBlockReference
  2
*B37
 10
0.0
 20
0.0
 30
0.0
  0
INSERT
  5
372
100
AcDbEntity
  8
0
  6
Continuous
 62
     8
100
AcDbBlockReference
  2
*B38
 10
0.0
 20
0.0
 30
0.0
  0
INSERT
  5
379
100
AcDbEntity
  8
0
  6
Continuous
 62
     8
100
AcDbBlockReference
  2
*B39
 10
0.0
 20
0.0
 30
0.0
  0
INSERT
  5
37E
100
AcDbEntity
  8
0
  6
Continuous
 62
     8
100
AcDbBlockReference
  2
*B40
 10
0.0
 20
0.0
 30
0.0
  0
INSERT
  5
383
100
AcDbEntity
  8
0
  6
Continuous
 62
     8
100
AcDbBlockReference
  2
*B41
 10
0.0
 20
0.0
 30
0.0
  0
INSERT
  5
388
100
AcDbEntity
  8
0
  6
Continuous
 62
     8
100
AcDbBlockReference
  2
*B42
 10
0.0
 20
0.0
 30
0.0
  0
INSERT
  5
38F
100
AcDbEntity
  8
0
  6
Continuous
 62
     8
100
AcDbBlockReference
  2
*B43
 10
0.0
 20
0.0
 30
0.0
  0
INSERT
  5
395
100
AcDbEntity
  8
0
  6
Continuous
 62
     8
100
AcDbBlockReference
  2
*B44
 10
0.0
 20
0.0
 30
0.0
  0
INSERT
  5
3B7
100
AcDbEntity
  8
0
  6
Continuous
 62
     8
100
AcDbBlockReference
  2
*B45
 10
0.0
 20
0.0
 30
0.0
  0
INSERT
  5
3BE
100
AcDbEntity
  8
0
  6
Continuous
 62
     8
100
AcDbBlockReference
  2
*B46
 10
0.0
 20
0.0
 30
0.0
  0
INSERT
  5
3C3
100
AcDbEntity
  8
0
  6
Continuous
 62
     8
100
AcDbBlockReference
  2
*B47
 10
0.0
 20
0.0
 30
0.0
  0
INSERT
  5
3CA
100
AcDbEntity
  8
0
  6
Continuous
 62
     8
100
AcDbBlockReference
  2
*B48
 10
0.0
 20
0.0
 30
0.0
  0
INSERT
  5
3CF
100
AcDbEntity
  8
0
  6
Continuous
 62
     8
100
AcDbBlockReference
  2
*B49
 10
0.0
 20
0.0
 30
0.0
  0
INSERT
  5
3D4
100
AcDbEntity
  8
0
  6
Continuous
 62
     8
100
AcDbBlockReference
  2
*B50
 10
0.0
 20
0.0
 30
0.0
  0
INSERT
  5
3D9
100
AcDbEntity
  8
0
  6
Continuous
 62
     8
100
AcDbBlockReference
  2
*B51
 10
0.0
 20
0.0
 30
0.0
  0
INSERT
  5
3DE
100
AcDbEntity
  8
0
  6
Continuous
 62
     8
100
AcDbBlockReference
  2
*B52
 10
0.0
 20
0.0
 30
0.0
  0
INSERT
  5
3ED
100
AcDbEntity
  8
0
  6
Continuous
 62
     8
100
AcDbBlockReference
  2
*B53
 10
0.0
 20
0.0
 30
0.0
  0
INSERT
  5
3F9
100
AcDbEntity
  8
0
  6
Continuous
 62
     8
100
AcDbBlockReference
  2
*B54
 10
0.0
 20
0.0
 30
0.0
  0
INSERT
  5
3FE
100
AcDbEntity
  8
0
  6
Continuous
 62
     8
100
AcDbBlockReference
  2
*B55
 10
0.0
 20
0.0
 30
0.0
  0
INSERT
  5
403
100
AcDbEntity
  8
0
  6
Continuous
 62
     8
100
AcDbBlockReference
  2
*B56
 10
0.0
 20
0.0
 30
0.0
  0
INSERT
  5
424
100
AcDbEntity
  8
0
  6
Continuous
 62
     8
100
AcDbBlockReference
  2
*B57
 10
0.0
 20
0.0
 30
0.0
  0
INSERT
  5
42D
100
AcDbEntity
  8
0
  6
Continuous
 62
     8
100
AcDbBlockReference
  2
*B58
 10
0.0
 20
0.0
 30
0.0
  0
INSERT
  5
433
100
AcDbEntity
  8
0
  6
Continuous
 62
     6
100
AcDbBlockReference
  2
*B59
 10
0.0
 20
0.0
 30
0.0
  0
INSERT
  5
439
100
AcDbEntity
  8
0
  6
Continuous
 62
     6
100
AcDbBlockReference
  2
*B60
 10
0.0
 20
0.0
 30
0.0
  0
INSERT
  5
43F
100
AcDbEntity
  8
0
  6
Continuous
 62
     6
100
AcDbBlockReference
  2
*B61
 10
0.0
 20
0.0
 30
0.0
  0
INSERT
  5
445
100
AcDbEntity
  8
0
  6
Continuous
 62
     6
100
AcDbBlockReference
  2
*B62
 10
0.0
 20
0.0
 30
0.0
  0
INSERT
  5
44B
100
AcDbEntity
  8
0
  6
Continuous
 62
     6
100
AcDbBlockReference
  2
*B63
 10
0.0
 20
0.0
 30
0.0
  0
INSERT
  5
451
100
AcDbEntity
  8
0
  6
Continuous
 62
     6
100
AcDbBlockReference
  2
*B64
 10
0.0
 20
0.0
 30
0.0
  0
INSERT
  5
457
100
AcDbEntity
  8
0
  6
Continuous
 62
     6
100
AcDbBlockReference
  2
*B65
 10
0.0
 20
0.0
 30
0.0
  0
INSERT
  5
45D
100
AcDbEntity
  8
0
  6
Continuous
 62
     6
100
AcDbBlockReference
  2
*B66
 10
0.0
 20
0.0
 30
0.0
  0
INSERT
  5
463
100
AcDbEntity
  8
0
  6
Continuous
 62
     6
100
AcDbBlockReference
  2
*B67
 10
0.0
 20
0.0
 30
0.0
  0
INSERT
  5
468
100
AcDbEntity
  8
TEXT
  6
Continuous
 62
     0
100
AcDbBlockReference
  2
*B68
 10
0.0
 20
0.0
 30
0.0
  0
INSERT
  5
46D
100
AcDbEntity
  8
TEXT
  6
Continuous
 62
     0
100
AcDbBlockReference
  2
*B69
 10
0.0
 20
0.0
 30
0.0
  0
INSERT
  5
472
100
AcDbEntity
  8
TEXT
  6
Continuous
 62
     0
100
AcDbBlockReference
  2
*B70
 10
0.0
 20
0.0
 30
0.0
  0
INSERT
  5
477
100
AcDbEntity
  8
TEXT
  6
Continuous
 62
     0
100
AcDbBlockReference
  2
*B71
 10
0.0
 20
0.0
 30
0.0
  0
INSERT
  5
47C
100
AcDbEntity
  8
TEXT
  6
Continuous
 62
     0
100
AcDbBlockReference
  2
*B72
 10
0.0
 20
0.0
 30
0.0
  0
INSERT
  5
481
100
AcDbEntity
  8
TEXT
  6
Continuous
 62
     0
100
AcDbBlockReference
  2
*B73
 10
0.0
 20
0.0
 30
0.0
  0
INSERT
  5
486
100
AcDbEntity
  8
TEXT
  6
Continuous
 62
     0
100
AcDbBlockReference
  2
*B74
 10
0.0
 20
0.0
 30
0.0
  0
INSERT
  5
48B
100
AcDbEntity
  8
TEXT
  6
Continuous
 62
     0
100
AcDbBlockReference
  2
*B75
 10
0.0
 20
0.0
 30
0.0
  0
INSERT
  5
490
100
AcDbEntity
  8
TEXT
  6
Continuous
 62
     0
100
AcDbBlockReference
  2
*B76
 10
0.0
 20
0.0
 30
0.0
  0
INSERT
  5
495
100
AcDbEntity
  8
TEXT
  6
Continuous
 62
     0
100
AcDbBlockReference
  2
*B77
 10
0.0
 20
0.0
 30
0.0
  0
INSERT
  5
49A
100
AcDbEntity
  8
TEXT
  6
Continuous
 62
     0
100
AcDbBlockReference
  2
*B78
 10
0.0
 20
0.0
 30
0.0
  0
INSERT
  5
49F
100
AcDbEntity
  8
TEXT
  6
Continuous
 62
     0
100
AcDbBlockReference
  2
*B79
 10
0.0
 20
0.0
 30
0.0
  0
INSERT
  5
4A4
100
AcDbEntity
  8
TEXT
  6
Continuous
 62
     0
100
AcDbBlockReference
  2
*B80
 10
0.0
 20
0.0
 30
0.0
  0
INSERT
  5
4A9
100
AcDbEntity
  8
TEXT
  6
Continuous
 62
     0
100
AcDbBlockReference
  2
*B81
 10
0.0
 20
0.0
 30
0.0
  0
INSERT
  5
4AE
100
AcDbEntity
  8
TEXT
  6
Continuous
 62
     0
100
AcDbBlockReference
  2
*B82
 10
0.0
 20
0.0
 30
0.0
  0
INSERT
  5
4B3
100
AcDbEntity
  8
TEXT
  6
Continuous
 62
     0
100
AcDbBlockReference
  2
*B83
 10
0.0
 20
0.0
 30
0.0
  0
INSERT
  5
4B8
100
AcDbEntity
  8
TEXT
  6
Continuous
 62
     0
100
AcDbBlockReference
  2
*B84
 10
0.0
 20
0.0
 30
0.0
  0
INSERT
  5
4BD
100
AcDbEntity
  8
TEXT
  6
Continuous
 62
     0
100
AcDbBlockReference
  2
*B85
 10
0.0
 20
0.0
 30
0.0
  0
INSERT
  5
4C2
100
AcDbEntity
  8
TEXT
  6
Continuous
 62
     0
100
AcDbBlockReference
  2
*B86
 10
0.0
 20
0.0
 30
0.0
  0
ENDSEC
  0
SECTION
  2
OBJECTS
  0
DICTIONARY
  5
19
100
AcDbDictionary
280
     0
281
     1
  3
ACAD_GROUP
350
1A
  3
ACAD_MLINESTYLE
350
1B
  3
ACAD_LAYOUT
350
1E
  3
ACAD_PLOTSETTINGS
350
22
  3
ACAD_PLOTSTYLENAME
350
1F
  3
ACAD_WIPEOUT_VARS
350
23
  0
DICTIONARY
  5
1A
102
{ACAD_REACTORS
330
19
102
}
100
AcDbDictionary
280
     0
281
     1
  0
DICTIONARY
  5
1B
102
{ACAD_REACTORS
330
19
102
}
100
AcDbDictionary
280
     0
281
     1
  3
Standard
350
1C
  0
MLINESTYLE
  5
1C
102
{ACAD_REACTORS
330
1B
102
}
100
AcDbMlineStyle
  2
Standard
 70
     0
  3

 62
     0
 51
90.0
 52
90.0
 71
     2
 49
0.5
 62
   256
  6
BYLAYER
 49
-0.5
 62
   256
  6
BYLAYER
  0
ACDBDICTIONARYWDFLT
  5
1F
102
{ACAD_REACTORS
330
19
102
}
100
AcDbDictionary
281
     1
  3
Normal
350
1D
100
AcDbDictionaryWithDefault
340
1D
  0
ACDBPLACEHOLDER
  5
1D
102
{ACAD_REACTORS
330
1F
102
}
  0
LAYOUT
  5
20
102
{ACAD_REACTORS
330
1E
102
}
100
AcDbPlotSettings
  1

  2

  4

  6

 40
0.0
 41
0.0
 42
0.0
 43
0.0
 44
0.0
 45
0.0
 46
0.0
 47
0.0
 48
0.0
 49
0.0
140
0.0
141
0.0
142
1.0
143
1.0
 70
     0
 72
     0
 73
     0
 74
     0
  7

 75
     0
147
1.0
148
0.0
149
0.0
100
AcDbLayout
  1
Model
 70
     0
 71
     0
 10
0.0
 20
0.0
 11
0.0
 21
0.0
 12
0.0
 22
0.0
 32
0.0
 14
0.0
 24
0.0
 34
0.0
 15
0.0
 25
0.0
 35
0.0
146
0.0
 13
0.0
 23
0.0
 33
0.0
 16
0.0
 26
0.0
 36
0.0
 17
0.0
 27
0.0
 37
0.0
 76
     0
330
A
331
0
345
0
346
0
  0
LAYOUT
  5
21
102
{ACAD_REACTORS
330
1E
102
}
100
AcDbPlotSettings
  1

  2

  4

  6

 40
0.0
 41
0.0
 42
0.0
 43
0.0
 44
0.0
 45
0.0
 46
0.0
 47
0.0
 48
0.0
 49
0.0
140
0.0
141
0.0
142
1.0
143
1.0
 70
     0
 72
     0
 73
     0
 74
     0
  7

 75
     0
147
1.0
148
0.0
149
0.0
100
AcDbLayout
  1
Layout1
 70
     0
 71
     0
 10
0.0
 20
0.0
 11
0.0
 21
0.0
 12
0.0
 22
0.0
 32
0.0
 14
0.0
 24
0.0
 34
0.0
 15
0.0
 25
0.0
 35
0.0
146
0.0
 13
0.0
 23
0.0
 33
0.0
 16
0.0
 26
0.0
 36
0.0
 17
0.0
 27
0.0
 37
0.0
 76
     0
330
B
331
0
345
0
346
0
  0
DICTIONARY
  5
1E
102
{ACAD_REACTORS
330
19
102
}
100
AcDbDictionary
280
     0
281
     1
  3
Layout1
350
21
  3
Model
350
20
  0
DICTIONARY
  5
22
102
{ACAD_REACTORS
330
19
102
}
100
AcDbDictionary
280
     0
281
     1
  0
WIPEOUTVARIABLES
  5
23
100
AcDbWipeoutVariables
 70
     1
  0
ENDSEC
  0
EOF
