  0
SECTION
  2
HEADER
  9
$ACADVER
  1
AC1015
  9
$ACADMAINTVER
 70
     6
  9
$DWGCODEPAGE
  3
DOS850
  9
$INSBASE
 10
0.0
 20
0.0
 30
0.0
  9
$EXTMIN
 10
0.0
 20
0.0
 30
0.0
  9
$EXTMAX
 10
297.0
 20
210.0
 30
0.0
  9
$LIMMIN
 10
0.0
 20
0.0
  9
$LIMMAX
 10
297.0
 20
210.0
  9
$ORTHOMODE
 70
     0
  9
$REGENMODE
 70
     1
  9
$FILLMODE
 70
     1
  9
$QTEXTMODE
 70
     0
  9
$MIRRTEXT
 70
     1
  9
$LTSCALE
 40
25.4
  9
$ATTMODE
 70
     1
  9
$TEXTSIZE
 40
3.5
  9
$TRACEWID
 40
0.05
  9
$TEXTSTYLE
  7
Standard
  9
$CLAYER
  8
0
  9
$CELTYPE
  6
Continuous
  9
$CECOLOR
 62
   256
  9
$CELTSCALE
 40
1.0
  9
$DISPSILH
 70
     0
  9
$DIMSCALE
 40
1.0
  9
$DIMASZ
 40
5.0
  9
$DIMEXO
 40
3.0
  9
$DIMDLI
 40
0.38
  9
$DIMRND
 40
0.0
  9
$DIMDLE
 40
0.0
  9
$DIMEXE
 40
2.0
  9
$DIMTP
 40
0.0
  9
$DIMTM
 40
0.0
  9
$DIMTXT
 40
3.5
  9
$DIMCEN
 40
4.0
  9
$DIMTSZ
 40
0.0
  9
$DIMTOL
 70
     0
  9
$DIMLIM
 70
     0
  9
$DIMTIH
 70
     1
  9
$DIMTOH
 70
     1
  9
$DIMSE1
 70
     0
  9
$DIMSE2
 70
     0
  9
$DIMTAD
 70
     0
  9
$DIMZIN
 70
     0
  9
$DIMBLK
  1

  9
$DIMASO
 70
     1
  9
$DIMSHO
 70
     1
  9
$DIMPOST
  1

  9
$DIMAPOST
  1

  9
$DIMALT
 70
     0
  9
$DIMALTD
 70
     2
  9
$DIMALTF
 40
25.4
  9
$DIMLFAC
 40
1.0
  9
$DIMTOFL
 70
     0
  9
$DIMTVP
 40
0.0
  9
$DIMTIX
 70
     0
  9
$DIMSOXD
 70
     0
  9
$DIMSAH
 70
     0
  9
$DIMBLK1
  1

  9
$DIMBLK2
  1

  9
$DIMSTYLE
  2
Standard
  9
$DIMCLRD
 70
     0
  9
$DIMCLRE
 70
     0
  9
$DIMCLRT
 70
     0
  9
$DIMTFAC
 40
1.0
  9
$DIMGAP
 40
1.0
  9
$DIMJUST
 70
     0
  9
$DIMSD1
 70
     0
  9
$DIMSD2
 70
     0
  9
$DIMTOLJ
 70
     1
  9
$DIMTZIN
 70
     0
  9
$DIMALTZ
 70
     0
  9
$DIMALTTZ
 70
     0
  9
$DIMUPT
 70
     0
  9
$DIMDEC
 70
     4
  9
$DIMTDEC
 70
     4
  9
$DIMALTU
 70
     2
  9
$DIMALTTD
 70
     2
  9
$DIMTXSTY
  7
Standard
  9
$DIMAUNIT
 70
     0
  9
$DIMADEC
 70
     0
  9
$DIMALTRND
 40
0.0
  9
$DIMAZIN
 70
     0
  9
$DIMDSEP
 70
     0
  9
$DIMATFIT
 70
     3
  9
$DIMFRAC
 70
     0
  9
$DIMLDRBLK
  1

  9
$DIMLUNIT
 70
     2
  9
$DIMLWD
 70
     0
  9
$DIMLWE
 70
     0
  9
$DIMTMOVE
 70
     0
  9
$LUNITS
 70
     2
  9
$LUPREC
 70
     4
  9
$SKETCHINC
 40
0.1
  9
$FILLETRAD
 40
0.0
  9
$AUNITS
 70
     0
  9
$AUPREC
 70
     0
  9
$MENU
  1
acad
  9
$ELEVATION
 40
0.0
  9
$PELEVATION
 40
0.0
  9
$THICKNESS
 40
0.0
  9
$LIMCHECK
 70
     0
  9
$CHAMFERA
 40
0.0
  9
$CHAMFERB
 40
0.0
  9
$CHAMFERC
 40
0.0
  9
$CHAMFERD
 40
0.0
  9
$SKPOLY
 70
     0
  9
$TDCREATE
 40
0.000000000
  9
$TDUCREATE
 40
0.000000000
  9
$TDUPDATE
 40
0.000000000
  9
$TDUUPDATE
 40
0.000000000
  9
$TDINDWG
 40
0.0000000000
  9
$TDUSRTIMER
 40
0.0000000000
  9
$USRTIMER
 70
     1
  9
$ANGBASE
 50
0.0
  9
$ANGDIR
 70
     0
  9
$PDMODE
 70
     0
  9
$PDSIZE
 40
0.0
  9
$PLINEWID
 40
0.0
  9
$SPLFRAME
 70
     0
  9
$SPLINETYPE
 70
     6
  9
$SPLINESEGS
 70
     8
  9
$HANDSEED
  5
418
  9
$SURFTAB1
 70
     6
  9
$SURFTAB2
 70
     6
  9
$SURFTYPE
 70
     6
  9
$SURFU
 70
     6
  9
$SURFV
 70
     6
  9
$UCSBASE
  2

  9
$UCSNAME
  2

  9
$UCSORG
 10
0.0
 20
0.0
 30
0.0
  9
$UCSXDIR
 10
1.0
 20
0.0
 30
0.0
  9
$UCSYDIR
 10
0.0
 20
1.0
 30
0.0
  9
$UCSORTHOREF
  2

  9
$UCSORTHOVIEW
 70
     0
  9
$UCSORGTOP
 10
0.0
 20
0.0
 30
0.0
  9
$UCSORGBOTTOM
 10
0.0
 20
0.0
 30
0.0
  9
$UCSORGLEFT
 10
0.0
 20
0.0
 30
0.0
  9
$UCSORGRIGHT
 10
0.0
 20
0.0
 30
0.0
  9
$UCSORGFRONT
 10
0.0
 20
0.0
 30
0.0
  9
$UCSORGBACK
 10
0.0
 20
0.0
 30
0.0
  9
$PUCSBASE
  2

  9
$PUCSNAME
  2

  9
$PUCSORG
 10
0.0
 20
0.0
 30
0.0
  9
$PUCSXDIR
 10
1.0
 20
0.0
 30
0.0
  9
$PUCSYDIR
 10
0.0
 20
1.0
 30
0.0
  9
$PUCSORTHOREF
  2

  9
$PUCSORTHOVIEW
 70
     0
  9
$PUCSORGTOP
 10
0.0
 20
0.0
 30
0.0
  9
$PUCSORGBOTTOM
 10
0.0
 20
0.0
 30
0.0
  9
$PUCSORGLEFT
 10
0.0
 20
0.0
 30
0.0
  9
$PUCSORGRIGHT
 10
0.0
 20
0.0
 30
0.0
  9
$PUCSORGFRONT
 10
0.0
 20
0.0
 30
0.0
  9
$PUCSORGBACK
 10
0.0
 20
0.0
 30
0.0
  9
$USERI1
 70
     0
  9
$USERI2
 70
     0
  9
$USERI3
 70
     0
  9
$USERI4
 70
     0
  9
$USERI5
 70
     0
  9
$USERR1
 40
0.0
  9
$USERR2
 40
0.0
  9
$USERR3
 40
0.0
  9
$USERR4
 40
0.0
  9
$USERR5
 40
0.0
  9
$WORLDVIEW
 70
     1
  9
$SHADEDGE
 70
     3
  9
$SHADEDIF
 70
    70
  9
$TILEMODE
 70
     1
  9
$MAXACTVP
 70
    16
  9
$PINSBASE
 10
0.0
 20
0.0
 30
0.0
  9
$PLIMCHECK
 70
     0
  9
$PEXTMIN
 10
1.000000E+20
 20
1.000000E+20
 30
1.000000E+20
  9
$PEXTMAX
 10
-1.000000E+20
 20
-1.000000E+20
 30
-1.000000E+20
  9
$PLIMMIN
 10
0.0
 20
0.0
  9
$PLIMMAX
 10
297.0
 20
210.0
  9
$UNITMODE
 70
     0
  9
$VISRETAIN
 70
     0
  9
$PLINEGEN
 70
     1
  9
$PSLTSCALE
 70
     0
  9
$TREEDEPTH
 70
  3020
  9
$CMLSTYLE
  2
Standard
  9
$CMLJUST
 70
     0
  9
$CMLSCALE
 40
1.0
  9
$PROXYGRAPHICS
 70
     0
  9
$MEASUREMENT
 70
     0
  9
$CELWEIGHT
370
     0
  9
$ENDCAPS
280
     0
  9
$JOINSTYLE
280
     0
  9
$LWDISPLAY
290
     0
  9
$INSUNITS
 70
     0
  9
$HYPERLINKBASE
  1

  9
$XEDIT
290
     1
  9
$CEPSNTYPE
380
     0
  9
$PSTYLEMODE
290
     0
  9
$FINGERPRINTGUID
  2

  9
$VERSIONGUID
  2

  9
$EXTNAMES
290
     1
  9
$PSVPSCALE
 40
0.0
  0
ENDSEC
  0
SECTION
  2
CLASSES
  0
CLASS
  1
LWPOLYLINE
  2
AcDbPolyline
  3
"AutoCAD"
 90
        0
280
     0
281
     1
  0
CLASS
  1
IMAGE
  2
AcDbRasterImage
  3
ISM
 90
      127
280
     0
281
     1
  0
CLASS
  1
OLE2FRAME
  2
AcDbOle2Frame
  3
""
 90
        0
280
     0
281
     1
  0
CLASS
  1
HATCH
  2
AcDbHatch
  3
"ACAD_SEDONA"
 90
        0
280
     0
281
     1
  0
CLASS
  1
DICTIONARYVAR
  2
AcDbDictionaryVar
  3
"AutoCAD"
 90
        0
280
     0
281
     0
  0
CLASS
  1
RASTERVARIABLES
  2
AcDbRasterVariables
  3
ISM
 90
        0
280
     0
281
     0
  0
CLASS
  1
IMAGEDEF
  2
AcDbRasterImageDef
  3
ISM
 90
        0
280
     0
281
     0
  0
CLASS
  1
IMAGEDEF_REACTOR
  2
AcDbRasterImageDefReactor
  3
ISM
 90
        1
280
     0
281
     0
  0
CLASS
  1
IDBUFFER
  2
AcDbIdBuffer
  3
"Acad"
 90
        0
280
     0
281
     0
  0
CLASS
  1
SPATIAL_FILTER
  2
AcDbSpatialFilter
  3
"Acad"
 90
        0
280
     0
281
     0
  0
CLASS
  1
XRECORD
  2
AcDbXrecord
  3
"<Built In>"
 90
        0
280
     0
281
     0
  0
CLASS
  1
SORTENTSTABLE
  2
AcDbSortentsTable
  3
"AutoCAD"
 90
        0
280
     0
281
     0
  0
CLASS
  1
LAYER_INDEX
  2
AcDbLayerIndex
  3
"Acad"
 90
        0
280
     0
281
     0
  0
CLASS
  1
SPATIAL_INDEX
  2
AcDbSpatialIndex
  3
"Acad"
 90
        0
280
     0
281
     0
  0
CLASS
  1
OBJECT_PTR
  2
CAseDLPNTableRecord
  3
"ASE-LPNTableRecord"
 90
        1
280
     0
281
     0
  0
CLASS
  1
LAYOUT
  2
AcDbLayout
  3
"AutoCAD 2000"
 90
        1
280
     0
281
     0
  0
CLASS
  1
PLOTSETTINGS
  2
AcDbPlotSettings
  3
"AutoCAD 2000"
 90
        1
280
     0
281
     0
  0
CLASS
  1
ACDBDICTIONARYWDFLT
  2
AcDbDictionaryWithDefault
  3
"AutoCAD 2000"
 90
        1
280
     0
281
     0
  0
CLASS
  1
ACDBPLACEHOLDER
  2
AcDbPlaceHolder
  3
"AutoCAD 2000"
 90
        1
280
     0
281
     0
  0
CLASS
  1
VBA_PROJECT
  2
AcDbVbaProject
  3
"acadvba"
 90
        1
280
     0
281
     0
  0
CLASS
  1
WIPEOUT
  2
AcDbWipeout
  3
WipeOut|AutoCAD Express Tool|expresstools@autodesk.com
 90
      127
280
     0
281
     1
  0
CLASS
  1
WIPEOUTVARIABLES
  2
AcDbWipeoutVariables
  3
WipeOut|AutoCAD Express Tool|expresstools@autodesk.com
 90
        0
280
     0
281
     0
  0
CLASS
  1
RTEXT
  2
RText
  3
RText|AutoCAD Express Tool|expresstools@autodesk.com
 90
        0
280
     0
281
     1
  0
CLASS
  1
ARCALIGNEDTEXT
  2
AcDbArcAlignedText
  3
ATEXT|AutoCAD Express Tool|expresstools@autodesk.com
 90
        0
280
     0
281
     1
  0
ENDSEC
  0
SECTION
  2
TABLES
  0
TABLE
  2
VPORT
  5
7
100
AcDbSymbolTable
 70
     1
  0
VPORT
  5
15
100
AcDbSymbolTableRecord
100
AcDbViewportTableRecord
  2
*ACTIVE
 70
     0
 10
0.0
 20
0.0
 11
1.0
 21
1.0
 12
6.591288
 22
4.579184
 13
0.0
 23
0.0
 14
1.0
 24
1.0
 15
0.0
 25
0.0
 16
0.0
 26
0.0
 36
1.0
 17
0.0
 27
0.0
 37
0.0
 40
9.158369
 41
0.688564
 42
50.0
 43
0.0
 44
0.0
 50
0.0
 51
0.0
 71
     0
 72
   100
 73
     1
 74
     1
 75
     0
 76
     0
 77
     0
 78
     0
281
     0
 65
     0
110
0.0
120
0.0
130
0.0
111
1.0
121
0.0
131
0.0
112
0.0
122
1.0
132
0.0
345
0
346
0
 79
     0
146
0.0
  0
ENDTAB
  0
TABLE
  2
LTYPE
  5
4
100
AcDbSymbolTable
 70
     7
  0
LTYPE
  5
11
100
AcDbSymbolTableRecord
100
AcDbLinetypeTableRecord
  2
ByBlock
 70
    64
  3

 72
    65
 73
     0
 40
0.0
  0
LTYPE
  5
12
100
AcDbSymbolTableRecord
100
AcDbLinetypeTableRecord
  2
ByLayer
 70
    64
  3

 72
    65
 73
     0
 40
0.0
  0
LTYPE
  5
13
100
AcDbSymbolTableRecord
100
AcDbLinetypeTableRecord
  2
Continuous
 70
    64
  3
Solid line
 72
    65
 73
     0
 40
0.0
  0
LTYPE
  5
24
100
AcDbSymbolTableRecord
100
AcDbLinetypeTableRecord
  2
HIDDEN
 70
    64
  3
_ _ _ _ _ _ _ _ _ _ _ _ _ _ _ _ _ _ _ _ _ _ _ _
 72
    65
 73
     2
 40
0.1875
 49
0.125
 74
     0
 49
-0.0625
 74
     0
  0
LTYPE
  5
25
100
AcDbSymbolTableRecord
100
AcDbLinetypeTableRecord
  2
DOTTED
 70
    64
  3
...............................................
 72
    65
 73
     2
 40
0.125
 49
0.0
 74
     0
 49
-0.125
 74
     0
  0
LTYPE
  5
26
100
AcDbSymbolTableRecord
100
AcDbLinetypeTableRecord
  2
CENTER
 70
    64
  3
____ _ ____ _ ____ _ ____ _ ____ _ ____ _ ____ 
 72
    65
 73
     4
 40
1.125
 49
0.75
 74
     0
 49
-0.125
 74
     0
 49
0.125
 74
     0
 49
-0.125
 74
     0
  0
LTYPE
  5
27
100
AcDbSymbolTableRecord
100
AcDbLinetypeTableRecord
  2
PHANTOM
 70
    64
  3
______  __  __  ______  __  __  ______  __  __ 
 72
    65
 73
     6
 40
1.25
 49
0.625
 74
     0
 49
-0.125
 74
     0
 49
0.125
 74
     0
 49
-0.125
 74
     0
 49
0.125
 74
     0
 49
-0.125
 74
     0
  0
ENDTAB
  0
TABLE
  2
LAYER
  5
2
100
AcDbSymbolTable
 70
     2
  0
LAYER
  5
14
100
AcDbSymbolTableRecord
100
AcDbLayerTableRecord
  2
0
 70
     0
 62
     7
  6
Continuous
290
     1
370
    -3
390
1D
  0
LAYER
  5
28
100
AcDbSymbolTableRecord
100
AcDbLayerTableRecord
  2
TEXT
 70
     0
 62
     8
  6
Continuous
290
     1
370
    -3
390
1F
  0
ENDTAB
  0
TABLE
  2
STYLE
  5
3
100
AcDbSymbolTable
 70
     1
  0
STYLE
  5
17
100
AcDbSymbolTableRecord
100
AcDbTextStyleTableRecord
  2
Standard
 70
     0
 40
0.0
 41
1.0
 50
0.0
 71
     0
 42
0.0
  3
txt
  4

  0
ENDTAB
  0
TABLE
  2
VIEW
  5
5
100
AcDbSymbolTable
 70
     0
  0
ENDTAB
  0
TABLE
  2
UCS
  5
6
100
AcDbSymbolTable
 70
     0
  0
ENDTAB
  0
TABLE
  2
APPID
  5
8
100
AcDbSymbolTable
 70
     1
  0
APPID
  5
16
100
AcDbSymbolTableRecord
100
AcDbRegAppTableRecord
  2
ACAD
 70
     0
  0
ENDTAB
  0
TABLE
  2
DIMSTYLE
  5
9
100
AcDbSymbolTable
 70
     1
100
AcDbDimStyleTable
 71
     0
  0
DIMSTYLE
105
18
100
AcDbSymbolTableRecord
100
AcDbDimStyleTableRecord
  2
Standard
 70
     0
  3

  4

 40
1.0
 41
0.18
 42
0.0625
 43
0.38
 44
0.18
 45
0.0
 46
0.0
 47
0.0
 48
0.0
 71
     0
 72
     0
 73
     1
 74
     1
 75
     0
 76
     0
 77
     0
 78
     0
 79
     0
140
0.18
141
0.09
142
0.0
143
25.4
144
1.0
145
0.0
146
1.0
147
0.09
148
0.0
170
     0
171
     2
172
     0
173
     0
174
     0
175
     0
176
     0
177
     0
178
     0
179
     0
271
     4
272
     4
273
     2
274
     2
275
     0
276
     0
277
     2
278
    46
279
     0
280
     0
281
     0
282
     0
283
     1
284
     0
285
     0
286
     0
288
     0
340
17
341
0
342
0
343
0
344
0
371
    -2
372
    -2
  0
ENDTAB
  0
TABLE
  2
BLOCK_RECORD
  5
1
100
AcDbSymbolTable
 70
    86
  0
BLOCK_RECORD
  5
A
100
AcDbSymbolTableRecord
100
AcDbBlockTableRecord
  2
*MODEL_SPACE
340
20
  0
BLOCK_RECORD
  5
B
100
AcDbSymbolTableRecord
100
AcDbBlockTableRecord
  2
*PAPER_SPACE
340
21
  0
BLOCK_RECORD
  5
29
100
AcDbSymbolTableRecord
100
AcDbBlockTableRecord
  2
*B0
340
0
  0
BLOCK_RECORD
  5
31
100
AcDbSymbolTableRecord
100
AcDbBlockTableRecord
  2
*B1
340
0
  0
BLOCK_RECORD
  5
39
100
AcDbSymbolTableRecord
100
AcDbBlockTableRecord
  2
*B2
340
0
  0
BLOCK_RECORD
  5
FA
100
AcDbSymbolTableRecord
100
AcDbBlockTableRecord
  2
*B3
340
0
  0
BLOCK_RECORD
  5
191
100
AcDbSymbolTableRecord
100
AcDbBlockTableRecord
  2
*B4
340
0
  0
BLOCK_RECORD
  5
197
100
AcDbSymbolTableRecord
100
AcDbBlockTableRecord
  2
*B5
340
0
  0
BLOCK_RECORD
  5
1A2
100
AcDbSymbolTableRecord
100
AcDbBlockTableRecord
  2
*B6
340
0
  0
BLOCK_RECORD
  5
1A5
100
AcDbSymbolTableRecord
100
AcDbBlockTableRecord
  2
*B7
340
0
  0
BLOCK_RECORD
  5
1AC
100
AcDbSymbolTableRecord
100
AcDbBlockTableRecord
  2
*B8
340
0
  0
BLOCK_RECORD
  5
1B3
100
AcDbSymbolTableRecord
100
AcDbBlockTableRecord
  2
*B9
340
0
  0
BLOCK_RECORD
  5
1BA
100
AcDbSymbolTableRecord
100
AcDbBlockTableRecord
  2
*B10
340
0
  0
BLOCK_RECORD
  5
1C1
100
AcDbSymbolTableRecord
100
AcDbBlockTableRecord
  2
*B11
340
0
  0
BLOCK_RECORD
  5
1C8
100
AcDbSymbolTableRecord
100
AcDbBlockTableRecord
  2
*B12
340
0
  0
BLOCK_RECORD
  5
1CF
100
AcDbSymbolTableRecord
100
AcDbBlockTableRecord
  2
*B13
340
0
  0
BLOCK_RECORD
  5
1D6
100
AcDbSymbolTableRecord
100
AcDbBlockTableRecord
  2
*B14
340
0
  0
BLOCK_RECORD
  5
1DD
100
AcDbSymbolTableRecord
100
AcDbBlockTableRecord
  2
*B15
340
0
  0
BLOCK_RECORD
  5
1E4
100
AcDbSymbolTableRecord
100
AcDbBlockTableRecord
  2
*B16
340
0
  0
BLOCK_RECORD
  5
1EB
100
AcDbSymbolTableRecord
100
AcDbBlockTableRecord
  2
*B17
340
0
  0
BLOCK_RECORD
  5
1F2
100
AcDbSymbolTableRecord
100
AcDbBlockTableRecord
  2
*B18
340
0
  0
BLOCK_RECORD
  5
1F9
100
AcDbSymbolTableRecord
100
AcDbBlockTableRecord
  2
*B19
340
0
  0
BLOCK_RECORD
  5
200
100
AcDbSymbolTableRecord
100
AcDbBlockTableRecord
  2
*B20
340
0
  0
BLOCK_RECORD
  5
207
100
AcDbSymbolTableRecord
100
AcDbBlockTableRecord
  2
*B21
340
0
  0
BLOCK_RECORD
  5
20E
100
AcDbSymbolTableRecord
100
AcDbBlockTableRecord
  2
*B22
340
0
  0
BLOCK_RECORD
  5
213
100
AcDbSymbolTableRecord
100
AcDbBlockTableRecord
  2
*B23
340
0
  0
BLOCK_RECORD
  5
218
100
AcDbSymbolTableRecord
100
AcDbBlockTableRecord
  2
*B24
340
0
  0
BLOCK_RECORD
  5
21D
100
AcDbSymbolTableRecord
100
AcDbBlockTableRecord
  2
*B25
340
0
  0
BLOCK_RECORD
  5
223
100
AcDbSymbolTableRecord
100
AcDbBlockTableRecord
  2
*B26
340
0
  0
BLOCK_RECORD
  5
23B
100
AcDbSymbolTableRecord
100
AcDbBlockTableRecord
  2
*B27
340
0
  0
BLOCK_RECORD
  5
244
100
AcDbSymbolTableRecord
100
AcDbBlockTableRecord
  2
*B28
340
0
  0
BLOCK_RECORD
  5
24F
100
AcDbSymbolTableRecord
100
AcDbBlockTableRecord
  2
*B29
340
0
  0
BLOCK_RECORD
  5
258
100
AcDbSymbolTableRecord
100
AcDbBlockTableRecord
  2
*B30
340
0
  0
BLOCK_RECORD
  5
25D
100
AcDbSymbolTableRecord
100
AcDbBlockTableRecord
  2
*B31
340
0
  0
BLOCK_RECORD
  5
262
100
AcDbSymbolTableRecord
100
AcDbBlockTableRecord
  2
*B32
340
0
  0
BLOCK_RECORD
  5
26D
100
AcDbSymbolTableRecord
100
AcDbBlockTableRecord
  2
*B33
340
0
  0
BLOCK_RECORD
  5
276
100
AcDbSymbolTableRecord
100
AcDbBlockTableRecord
  2
*B34
340
0
  0
BLOCK_RECORD
  5
27B
100
AcDbSymbolTableRecord
100
AcDbBlockTableRecord
  2
*B35
340
0
  0
BLOCK_RECORD
  5
28D
100
AcDbSymbolTableRecord
100
AcDbBlockTableRecord
  2
*B36
340
0
  0
BLOCK_RECORD
  5
2B9
100
AcDbSymbolTableRecord
100
AcDbBlockTableRecord
  2
*B37
340
0
  0
BLOCK_RECORD
  5
2BE
100
AcDbSymbolTableRecord
100
AcDbBlockTableRecord
  2
*B38
340
0
  0
BLOCK_RECORD
  5
2C4
100
AcDbSymbolTableRecord
100
AcDbBlockTableRecord
  2
*B39
340
0
  0
BLOCK_RECORD
  5
2C9
100
AcDbSymbolTableRecord
100
AcDbBlockTableRecord
  2
*B40
340
0
  0
BLOCK_RECORD
  5
2DB
100
AcDbSymbolTableRecord
100
AcDbBlockTableRecord
  2
*B41
340
0
  0
BLOCK_RECORD
  5
2E0
100
AcDbSymbolTableRecord
100
AcDbBlockTableRecord
  2
*B42
340
0
  0
BLOCK_RECORD
  5
2E5
100
AcDbSymbolTableRecord
100
AcDbBlockTableRecord
  2
*B43
340
0
  0
BLOCK_RECORD
  5
2F4
100
AcDbSymbolTableRecord
100
AcDbBlockTableRecord
  2
*B44
340
0
  0
BLOCK_RECORD
  5
321
100
AcDbSymbolTableRecord
100
AcDbBlockTableRecord
  2
*B45
340
0
  0
BLOCK_RECORD
  5
330
100
AcDbSymbolTableRecord
100
AcDbBlockTableRecord
  2
*B46
340
0
  0
BLOCK_RECORD
  5
336
100
AcDbSymbolTableRecord
100
AcDbBlockTableRecord
  2
*B47
340
0
  0
BLOCK_RECORD
  5
33B
100
AcDbSymbolTableRecord
100
AcDbBlockTableRecord
  2
*B48
340
0
  0
BLOCK_RECORD
  5
340
100
AcDbSymbolTableRecord
100
AcDbBlockTableRecord
  2
*B49
340
0
  0
BLOCK_RECORD
  5
351
100
AcDbSymbolTableRecord
100
AcDbBlockTableRecord
  2
*B50
340
0
  0
BLOCK_RECORD
  5
35F
100
AcDbSymbolTableRecord
100
AcDbBlockTableRecord
  2
*B51
340
0
  0
BLOCK_RECORD
  5
364
100
AcDbSymbolTableRecord
100
AcDbBlockTableRecord
  2
*B52
340
0
  0
BLOCK_RECORD
  5
369
100
AcDbSymbolTableRecord
100
AcDbBlockTableRecord
  2
*B53
340
0
  0
BLOCK_RECORD
  5
36F
100
AcDbSymbolTableRecord
100
AcDbBlockTableRecord
  2
*B54
340
0
  0
BLOCK_RECORD
  5
375
100
AcDbSymbolTableRecord
100
AcDbBlockTableRecord
  2
*B55
340
0
  0
BLOCK_RECORD
  5
37B
100
AcDbSymbolTableRecord
100
AcDbBlockTableRecord
  2
*B56
340
0
  0
BLOCK_RECORD
  5
381
100
AcDbSymbolTableRecord
100
AcDbBlockTableRecord
  2
*B57
340
0
  0
BLOCK_RECORD
  5
387
100
AcDbSymbolTableRecord
100
AcDbBlockTableRecord
  2
*B58
340
0
  0
BLOCK_RECORD
  5
38D
100
AcDbSymbolTableRecord
100
AcDbBlockTableRecord
  2
*B59
340
0
  0
BLOCK_RECORD
  5
393
100
AcDbSymbolTableRecord
100
AcDbBlockTableRecord
  2
*B60
340
0
  0
BLOCK_RECORD
  5
399
100
AcDbSymbolTableRecord
100
AcDbBlockTableRecord
  2
*B61
340
0
  0
BLOCK_RECORD
  5
39F
100
AcDbSymbolTableRecord
100
AcDbBlockTableRecord
  2
*B62
340
0
  0
BLOCK_RECORD
  5
3A5
100
AcDbSymbolTableRecord
100
AcDbBlockTableRecord
  2
*B63
340
0
  0
BLOCK_RECORD
  5
3AA
100
AcDbSymbolTableRecord
100
AcDbBlockTableRecord
  2
*B64
340
0
  0
BLOCK_RECORD
  5
3AF
100
AcDbSymbolTableRecord
100
AcDbBlockTableRecord
  2
*B65
340
0
  0
BLOCK_RECORD
  5
3B4
100
AcDbSymbolTableRecord
100
AcDbBlockTableRecord
  2
*B66
340
0
  0
BLOCK_RECORD
  5
3B9
100
AcDbSymbolTableRecord
100
AcDbBlockTableRecord
  2
*B67
340
0
  0
BLOCK_RECORD
  5
3BE
100
AcDbSymbolTableRecord
100
AcDbBlockTableRecord
  2
*B68
340
0
  0
BLOCK_RECORD
  5
3C3
100
AcDbSymbolTableRecord
100
AcDbBlockTableRecord
  2
*B69
340
0
  0
BLOCK_RECORD
  5
3C8
100
AcDbSymbolTableRecord
100
AcDbBlockTableRecord
  2
*B70
340
0
  0
BLOCK_RECORD
  5
3CD
100
AcDbSymbolTableRecord
100
AcDbBlockTableRecord
  2
*B71
340
0
  0
BLOCK_RECORD
  5
3D2
100
AcDbSymbolTableRecord
100
AcDbBlockTableRecord
  2
*B72
340
0
  0
BLOCK_RECORD
  5
3D7
100
AcDbSymbolTableRecord
100
AcDbBlockTableRecord
  2
*B73
340
0
  0
BLOCK_RECORD
  5
3DC
100
AcDbSymbolTableRecord
100
AcDbBlockTableRecord
  2
*B74
340
0
  0
BLOCK_RECORD
  5
3E1
100
AcDbSymbolTableRecord
100
AcDbBlockTableRecord
  2
*B75
340
0
  0
BLOCK_RECORD
  5
3E6
100
AcDbSymbolTableRecord
100
AcDbBlockTableRecord
  2
*B76
340
0
  0
BLOCK_RECORD
  5
3EB
100
AcDbSymbolTableRecord
100
AcDbBlockTableRecord
  2
*B77
340
0
  0
BLOCK_RECORD
  5
3F0
100
AcDbSymbolTableRecord
100
AcDbBlockTableRecord
  2
*B78
340
0
  0
BLOCK_RECORD
  5
3F5
100
AcDbSymbolTableRecord
100
AcDbBlockTableRecord
  2
*B79
340
0
  0
BLOCK_RECORD
  5
3FA
100
AcDbSymbolTableRecord
100
AcDbBlockTableRecord
  2
*B80
340
0
  0
BLOCK_RECORD
  5
3FF
100
AcDbSymbolTableRecord
100
AcDbBlockTableRecord
  2
*B81
340
0
  0
BLOCK_RECORD
  5
404
100
AcDbSymbolTableRecord
100
AcDbBlockTableRecord
  2
*B82
340
0
  0
BLOCK_RECORD
  5
409
100
AcDbSymbolTableRecord
100
AcDbBlockTableRecord
  2
*B83
340
0
  0
BLOCK_RECORD
  5
40E
100
AcDbSymbolTableRecord
100
AcDbBlockTableRecord
  2
*B84
340
0
  0
BLOCK_RECORD
  5
413
100
AcDbSymbolTableRecord
100
AcDbBlockTableRecord
  2
*B85
340
0
  0
ENDTAB
  0
ENDSEC
  0
SECTION
  2
BLOCKS
  0
BLOCK
  5
D
100
AcDbEntity
  8
0
100
AcDbBlockBegin
  2
*MODEL_SPACE
 70
     0
 10
0.0
 20
0.0
 30
0.0
  3
*MODEL_SPACE
  1

  0
ENDBLK
  5
E
100
AcDbEntity
  8
0
100
AcDbBlockEnd
  0
BLOCK
  5
F
100
AcDbEntity
 67
     1
  8
0
100
AcDbBlockBegin
  2
*PAPER_SPACE
 70
     0
 10
0.0
 20
0.0
 30
0.0
  3
*PAPER_SPACE
  1

  0
ENDBLK
  5
10
100
AcDbEntity
 67
     1
  8
0
100
AcDbBlockEnd
  0
BLOCK
  5
2A
100
AcDbEntity
  8
0
100
AcDbBlockBegin
  2
*B0
 70
     0
 10
0.0
 20
0.0
 30
0.0
  3
*B0
  1

  0
LINE
  5
2B
100
AcDbEntity
  8
0
  6
Continuous
 62
   172
100
AcDbLine
 10
143.72
 20
40.64
 30
0.0
 11
143.72
 21
32.69
 31
0.0
  0
LINE
  5
2C
100
AcDbEntity
  8
0
  6
Continuous
 62
   172
100
AcDbLine
 10
148.22
 20
40.64
 30
0.0
 11
148.22
 21
32.69
 31
0.0
  0
LINE
  5
2D
100
AcDbEntity
  8
0
  6
Continuous
 62
   172
100
AcDbLine
 10
188.2
 20
40.64
 30
0.0
 11
188.2
 21
32.69
 31
0.0
  0
LINE
  5
2E
100
AcDbEntity
  8
0
  6
Continuous
 62
   172
100
AcDbLine
 10
183.7
 20
40.64
 30
0.0
 11
183.7
 21
32.69
 31
0.0
  0
ENDBLK
  5
2F
100
AcDbEntity
  8
0
100
AcDbBlockEnd
  0
BLOCK
  5
32
100
AcDbEntity
  8
0
100
AcDbBlockBegin
  2
*B1
 70
     0
 10
0.0
 20
0.0
 30
0.0
  3
*B1
  1

  0
LINE
  5
33
100
AcDbEntity
  8
0
  6
HIDDEN
 62
   162
100
AcDbLine
 10
143.72
 20
40.64
 30
0.0
 11
143.72
 21
54.64
 31
0.0
  0
LINE
  5
34
100
AcDbEntity
  8
0
  6
HIDDEN
 62
   162
100
AcDbLine
 10
148.22
 20
40.64
 30
0.0
 11
148.22
 21
54.64
 31
0.0
  0
LINE
  5
35
100
AcDbEntity
  8
0
  6
HIDDEN
 62
   162
100
AcDbLine
 10
183.7
 20
40.64
 30
0.0
 11
183.7
 21
54.64
 31
0.0
  0
LINE
  5
36
100
AcDbEntity
  8
0
  6
HIDDEN
 62
   162
100
AcDbLine
 10
188.2
 20
40.64
 30
0.0
 11
188.2
 21
54.64
 31
0.0
  0
ENDBLK
  5
37
100
AcDbEntity
  8
0
100
AcDbBlockEnd
  0
BLOCK
  5
3A
100
AcDbEntity
  8
0
100
AcDbBlockBegin
  2
*B2
 70
     0
 10
0.0
 20
0.0
 30
0.0
  3
*B2
  1

  0
LINE
  5
3B
100
AcDbEntity
  8
0
  6
Continuous
 62
     0
100
AcDbLine
 10
44.613873
 20
63.532583
 30
0.0
 11
47.721052
 21
63.532583
 31
0.0
  0
LINE
  5
3C
100
AcDbEntity
  8
0
  6
Continuous
 62
     0
100
AcDbLine
 10
47.721052
 20
55.618885
 30
0.0
 11
47.721052
 21
63.547233
 31
0.0
  0
LINE
  5
3D
100
AcDbEntity
  8
0
  6
Continuous
 62
     0
100
AcDbLine
 10
47.721052
 20
47.960324
 30
0.0
 11
47.721052
 21
55.618885
 31
0.0
  0
LINE
  5
3E
100
AcDbEntity
  8
0
  6
Continuous
 62
     0
100
AcDbLine
 10
55.221052
 20
45.703777
 30
0.0
 11
61.921052
 21
45.703777
 31
0.0
  0
LINE
  5
3F
100
AcDbEntity
  8
0
  6
Continuous
 62
     0
100
AcDbLine
 10
47.721052
 20
46.709318
 30
0.0
 11
47.721052
 21
47.960324
 31
0.0
  0
LINE
  5
40
100
AcDbEntity
  8
0
  6
Continuous
 62
     0
100
AcDbLine
 10
47.721052
 20
63.547233
 30
0.0
 11
47.721052
 21
64.70838
 31
0.0
  0
LINE
  5
41
100
AcDbEntity
  8
0
  6
Continuous
 62
     0
100
AcDbLine
 10
61.921052
 20
65.683777
 30
0.0
 11
55.221052
 21
65.683777
 31
0.0
  0
ARC
  5
42
100
AcDbEntity
  8
0
  6
Continuous
 62
     0
100
AcDbCircle
 10
77.921052
 20
55.693777
 30
0.0
 40
2.9
100
AcDbArc
 50
-219.062228
 51
-50.937772
  0
CIRCLE
  5
43
100
AcDbEntity
  8
0
  6
Continuous
 62
     0
100
AcDbCircle
 10
77.921052
 20
55.693777
 30
0.0
 40
3.25
  0
LINE
  5
44
100
AcDbEntity
  8
0
  6
Continuous
 62
     0
100
AcDbLine
 10
75.669313
 20
57.521252
 30
0.0
 11
79.748528
 21
53.442037
 31
0.0
  0
ARC
  5
45
100
AcDbEntity
  8
0
  6
Continuous
 62
     0
100
AcDbCircle
 10
77.921052
 20
55.693777
 30
0.0
 40
2.9
100
AcDbArc
 50
-39.062228
 51
129.062228
  0
LINE
  5
46
100
AcDbEntity
  8
0
  6
HIDDEN
 62
     0
100
AcDbLine
 10
55.221052
 20
49.766443
 30
0.0
 11
61.921052
 21
49.766443
 31
0.0
  0
LINE
  5
47
100
AcDbEntity
  8
0
  6
Continuous
 62
     0
100
AcDbLine
 10
80.172792
 20
53.866301
 30
0.0
 11
76.093577
 21
57.945516
 31
0.0
  0
LINE
  5
48
100
AcDbEntity
  8
0
  6
HIDDEN
 62
     0
100
AcDbLine
 10
142.921052
 20
67.693777
 30
0.0
 11
142.921052
 21
54.703777
 31
0.0
  0
LINE
  5
49
100
AcDbEntity
  8
0
  6
HIDDEN
 62
     0
100
AcDbLine
 10
188.921052
 20
54.703777
 30
0.0
 11
188.921052
 21
67.693777
 31
0.0
  0
LINE
  5
4A
100
AcDbEntity
  8
0
  6
HIDDEN
 62
     0
100
AcDbLine
 10
148.939166
 20
54.703777
 30
0.0
 11
145.939216
 21
54.703777
 31
0.0
  0
LINE
  5
4B
100
AcDbEntity
  8
0
  6
HIDDEN
 62
     0
100
AcDbLine
 10
55.221052
 20
45.816272
 30
0.0
 11
61.921052
 21
45.816272
 31
0.0
  0
LINE
  5
4C
100
AcDbEntity
  8
0
  6
Continuous
 62
     0
100
AcDbLine
 10
66.421052
 20
45.209343
 30
0.0
 11
66.421052
 21
48.209293
 31
0.0
  0
LINE
  5
4D
100
AcDbEntity
  8
0
  6
Continuous
 62
     0
100
AcDbLine
 10
55.221052
 20
65.581277
 30
0.0
 11
61.921052
 21
65.581277
 31
0.0
  0
LINE
  5
4E
100
AcDbEntity
  8
0
  6
Continuous
 62
     0
100
AcDbLine
 10
51.421052
 20
63.708468
 30
0.0
 11
51.421052
 21
47.709231
 31
0.0
  0
LINE
  5
4F
100
AcDbEntity
  8
0
  6
Continuous
 62
     0
100
AcDbLine
 10
145.939216
 20
32.693777
 30
0.0
 11
142.939266
 21
32.693777
 31
0.0
  0
LINE
  5
50
100
AcDbEntity
  8
0
  6
HIDDEN
 62
     0
100
AcDbLine
 10
145.939216
 20
67.693777
 30
0.0
 11
140.939228
 21
67.693777
 31
0.0
  0
LINE
  5
51
100
AcDbEntity
  8
0
  6
HIDDEN
 62
     0
100
AcDbLine
 10
140.921052
 20
70.693777
 30
0.0
 11
140.921052
 21
67.693777
 31
0.0
  0
LINE
  5
52
100
AcDbEntity
  8
0
  6
Continuous
 62
     0
100
AcDbLine
 10
66.421052
 20
48.193777
 30
0.0
 11
89.421052
 21
48.193777
 31
0.0
  0
LINE
  5
53
100
AcDbEntity
  8
0
  6
Continuous
 62
     0
100
AcDbLine
 10
140.939228
 20
72.493777
 30
0.0
 11
150.939203
 21
72.493777
 31
0.0
  0
LINE
  5
54
100
AcDbEntity
  8
0
  6
HIDDEN
 62
     0
100
AcDbLine
 10
185.939115
 20
72.493777
 30
0.0
 11
190.939102
 21
72.493777
 31
0.0
  0
LINE
  5
55
100
AcDbEntity
  8
0
  6
Continuous
 62
     0
100
AcDbLine
 10
92.439117
 20
48.193777
 30
0.0
 11
89.439167
 21
48.193777
 31
0.0
  0
LINE
  5
56
100
AcDbEntity
  8
0
  6
HIDDEN
 62
     0
100
AcDbLine
 10
188.939065
 20
54.703777
 30
0.0
 11
185.939115
 21
54.703777
 31
0.0
  0
LINE
  5
57
100
AcDbEntity
  8
0
  6
Continuous
 62
     0
100
AcDbLine
 10
66.421052
 20
63.208405
 30
0.0
 11
66.421052
 21
66.208143
 31
0.0
  0
LINE
  5
58
100
AcDbEntity
  8
0
  6
Continuous
 62
     0
100
AcDbLine
 10
66.439268
 20
63.193777
 30
0.0
 11
63.439318
 21
63.193777
 31
0.0
  0
LINE
  5
59
100
AcDbEntity
  8
0
  6
HIDDEN
 62
     0
100
AcDbLine
 10
55.221052
 20
54.198001
 30
0.0
 11
61.921052
 21
54.198001
 31
0.0
  0
LINE
  5
5A
100
AcDbEntity
  8
0
  6
Continuous
 62
     0
100
AcDbLine
 10
142.921052
 20
40.693777
 30
0.0
 11
142.921052
 21
32.693777
 31
0.0
  0
LINE
  5
5B
100
AcDbEntity
  8
0
  6
Continuous
 62
     0
100
AcDbLine
 10
188.921052
 20
32.693777
 30
0.0
 11
188.921052
 21
40.693777
 31
0.0
  0
LINE
  5
5C
100
AcDbEntity
  8
0
  6
Continuous
 62
     0
100
AcDbLine
 10
148.939166
 20
32.693777
 30
0.0
 11
145.939216
 21
32.693777
 31
0.0
  0
LINE
  5
5D
100
AcDbEntity
  8
0
  6
Continuous
 62
     0
100
AcDbLine
 10
61.921052
 20
47.709231
 30
0.0
 11
61.921052
 21
47.660159
 31
0.0
  0
LINE
  5
5E
100
AcDbEntity
  8
0
  6
Continuous
 62
     0
100
AcDbLine
 10
190.921052
 20
70.693777
 30
0.0
 11
190.921052
 21
72.493777
 31
0.0
  0
LINE
  5
5F
100
AcDbEntity
  8
0
  6
Continuous
 62
     0
100
AcDbLine
 10
103.421052
 20
58.601095
 30
0.0
 11
103.421052
 21
52.786458
 31
0.0
  0
LINE
  5
60
100
AcDbEntity
  8
0
  6
Continuous
 62
     0
100
AcDbLine
 10
89.421052
 20
48.193777
 30
0.0
 11
89.421052
 21
63.193777
 31
0.0
  0
LINE
  5
61
100
AcDbEntity
  8
0
  6
Continuous
 62
     0
100
AcDbLine
 10
180.939127
 20
72.493777
 30
0.0
 11
190.939102
 21
72.493777
 31
0.0
  0
LINE
  5
62
100
AcDbEntity
  8
0
  6
HIDDEN
 62
     0
100
AcDbLine
 10
182.921052
 20
67.693777
 30
0.0
 11
182.921052
 21
54.703777
 31
0.0
  0
LINE
  5
63
100
AcDbEntity
  8
0
  6
HIDDEN
 62
     0
100
AcDbLine
 10
145.939216
 20
54.693777
 30
0.0
 11
142.939266
 21
54.693777
 31
0.0
  0
ARC
  5
64
100
AcDbEntity
  8
0
  6
Continuous
 62
     0
100
AcDbCircle
 10
66.421052
 20
48.193777
 30
0.0
 40
3.0
100
AcDbArc
 50
-180.0
 51
-90.0
  0
LINE
  5
65
100
AcDbEntity
  8
0
  6
Continuous
 62
     0
100
AcDbLine
 10
185.939115
 20
32.693777
 30
0.0
 11
182.939165
 21
32.693777
 31
0.0
  0
LINE
  5
66
100
AcDbEntity
  8
0
  6
HIDDEN
 62
     0
100
AcDbLine
 10
150.939203
 20
67.693777
 30
0.0
 11
145.939216
 21
67.693777
 31
0.0
  0
ARC
  5
67
100
AcDbEntity
  8
0
  6
Continuous
 62
     0
100
AcDbCircle
 10
149.721052
 20
72.493777
 30
0.0
 40
1.2
100
AcDbArc
 50
0.0
 51
90.0
  0
LINE
  5
68
100
AcDbEntity
  8
0
  6
HIDDEN
 62
     0
100
AcDbLine
 10
150.921052
 20
67.693777
 30
0.0
 11
150.921052
 21
70.693777
 31
0.0
  0
LINE
  5
69
100
AcDbEntity
  8
0
  6
Continuous
 62
     0
100
AcDbLine
 10
149.739181
 20
73.693777
 30
0.0
 11
142.139251
 21
73.693777
 31
0.0
  0
ARC
  5
6A
100
AcDbEntity
  8
0
  6
Continuous
 62
     0
100
AcDbCircle
 10
103.921052
 20
55.693777
 30
0.0
 40
2.95
100
AcDbArc
 50
-80.241743
 51
80.241743
  0
LINE
  5
6B
100
AcDbEntity
  8
0
  6
HIDDEN
 62
     0
100
AcDbLine
 10
55.221052
 20
61.62111
 30
0.0
 11
61.921052
 21
61.62111
 31
0.0
  0
LINE
  5
6C
100
AcDbEntity
  8
0
  6
Continuous
 62
     0
100
AcDbLine
 10
89.421052
 20
45.209343
 30
0.0
 11
89.421052
 21
48.209293
 31
0.0
  0
LINE
  5
6D
100
AcDbEntity
  8
0
  6
Continuous
 62
     0
100
AcDbLine
 10
148.921052
 20
32.693777
 30
0.0
 11
148.921052
 21
40.693777
 31
0.0
  0
LINE
  5
6E
100
AcDbEntity
  8
0
  6
HIDDEN
 62
     0
100
AcDbLine
 10
188.921052
 20
40.693777
 30
0.0
 11
188.921052
 21
54.693777
 31
0.0
  0
LINE
  5
6F
100
AcDbEntity
  8
0
  6
HIDDEN
 62
     0
100
AcDbLine
 10
61.921052
 20
49.775334
 30
0.0
 11
61.921052
 21
47.709231
 31
0.0
  0
LINE
  5
70
100
AcDbEntity
  8
0
  6
HIDDEN
 62
     0
100
AcDbLine
 10
185.939115
 20
67.693777
 30
0.0
 11
180.939127
 21
67.693777
 31
0.0
  0
LINE
  5
71
100
AcDbEntity
  8
0
  6
HIDDEN
 62
     0
100
AcDbLine
 10
61.921052
 20
57.204469
 30
0.0
 11
61.921052
 21
54.213229
 31
0.0
  0
LINE
  5
72
100
AcDbEntity
  8
0
  6
Continuous
 62
     0
100
AcDbLine
 10
66.421052
 20
66.193777
 30
0.0
 11
89.421052
 21
66.193777
 31
0.0
  0
ARC
  5
73
100
AcDbEntity
  8
0
  6
Continuous
 62
     0
100
AcDbCircle
 10
142.121052
 20
72.493777
 30
0.0
 40
1.2
100
AcDbArc
 50
-270.0
 51
-180.0
  0
LINE
  5
74
100
AcDbEntity
  8
0
  6
Continuous
 62
     0
100
AcDbLine
 10
180.921052
 20
72.493777
 30
0.0
 11
180.921052
 21
70.693777
 31
0.0
  0
LINE
  5
75
100
AcDbEntity
  8
0
  6
Continuous
 62
     0
100
AcDbLine
 10
51.421052
 20
62.193777
 30
0.0
 11
48.421052
 21
62.193777
 31
0.0
  0
LINE
  5
76
100
AcDbEntity
  8
0
  6
Continuous
 62
     0
100
AcDbLine
 10
55.221052
 20
47.652208
 30
0.0
 11
61.921052
 21
47.652208
 31
0.0
  0
ARC
  5
77
100
AcDbEntity
  8
0
  6
Continuous
 62
     0
100
AcDbCircle
 10
89.421052
 20
48.193777
 30
0.0
 40
3.0
100
AcDbArc
 50
-90.0
 51
0.0
  0
LINE
  5
78
100
AcDbEntity
  8
0
  6
HIDDEN
 62
     0
100
AcDbLine
 10
148.939166
 20
54.693777
 30
0.0
 11
145.939216
 21
54.693777
 31
0.0
  0
LINE
  5
79
100
AcDbEntity
  8
0
  6
HIDDEN
 62
     0
100
AcDbLine
 10
55.221052
 20
63.742968
 30
0.0
 11
61.921052
 21
63.742968
 31
0.0
  0
LINE
  5
7A
100
AcDbEntity
  8
0
  6
HIDDEN
 62
     0
100
AcDbLine
 10
55.221052
 20
57.189552
 30
0.0
 11
61.921052
 21
57.189552
 31
0.0
  0
LINE
  5
7B
100
AcDbEntity
  8
0
  6
Continuous
 62
     0
100
AcDbLine
 10
89.421052
 20
45.193777
 30
0.0
 11
66.421052
 21
45.193777
 31
0.0
  0
LINE
  5
7C
100
AcDbEntity
  8
0
  6
Continuous
 62
     0
100
AcDbLine
 10
188.939065
 20
32.693777
 30
0.0
 11
185.939115
 21
32.693777
 31
0.0
  0
LINE
  5
7D
100
AcDbEntity
  8
0
  6
HIDDEN
 62
     0
100
AcDbLine
 10
190.939102
 20
67.693777
 30
0.0
 11
185.939115
 21
67.693777
 31
0.0
  0
ARC
  5
7E
100
AcDbEntity
  8
0
  6
Continuous
 62
     0
100
AcDbCircle
 10
189.721052
 20
72.493777
 30
0.0
 40
1.2
100
AcDbArc
 50
0.0
 51
90.0
  0
LINE
  5
7F
100
AcDbEntity
  8
0
  6
Continuous
 62
     0
100
AcDbLine
 10
63.421052
 20
48.193777
 30
0.0
 11
63.421052
 21
49.448779
 31
0.0
  0
LINE
  5
80
100
AcDbEntity
  8
0
  6
Continuous
 62
     0
100
AcDbLine
 10
150.921052
 20
70.693777
 30
0.0
 11
150.921052
 21
72.493777
 31
0.0
  0
CIRCLE
  5
81
100
AcDbEntity
  8
0
  6
Continuous
 62
     0
100
AcDbCircle
 10
103.921052
 20
55.693777
 30
0.0
 40
3.0
  0
LINE
  5
82
100
AcDbEntity
  8
0
  6
HIDDEN
 62
     0
100
AcDbLine
 10
55.221052
 20
54.198787
 30
0.0
 11
61.921052
 21
54.198787
 31
0.0
  0
LINE
  5
83
100
AcDbEntity
  8
0
  6
Continuous
 62
     0
100
AcDbLine
 10
89.439167
 20
63.193777
 30
0.0
 11
92.439117
 21
63.193777
 31
0.0
  0
LINE
  5
84
100
AcDbEntity
  8
0
  6
HIDDEN
 62
     0
100
AcDbLine
 10
55.221052
 20
61.627622
 30
0.0
 11
61.921052
 21
61.627622
 31
0.0
  0
LINE
  5
85
100
AcDbEntity
  8
0
  6
HIDDEN
 62
     0
100
AcDbLine
 10
185.939115
 20
54.693777
 30
0.0
 11
182.939165
 21
54.693777
 31
0.0
  0
ARC
  5
86
100
AcDbEntity
  8
0
  6
Continuous
 62
     0
100
AcDbCircle
 10
66.421052
 20
63.193777
 30
0.0
 40
3.0
100
AcDbArc
 50
-270.0
 51
-180.0
  0
LINE
  5
87
100
AcDbEntity
  8
0
  6
Continuous
 62
     0
100
AcDbLine
 10
63.439318
 20
48.193777
 30
0.0
 11
66.439268
 21
48.193777
 31
0.0
  0
LINE
  5
88
100
AcDbEntity
  8
0
  6
Continuous
 62
     0
100
AcDbLine
 10
55.221052
 20
47.644585
 30
0.0
 11
61.921052
 21
47.644585
 31
0.0
  0
LINE
  5
89
100
AcDbEntity
  8
0
  6
HIDDEN
 62
     0
100
AcDbLine
 10
148.921052
 20
40.693777
 30
0.0
 11
148.921052
 21
54.693777
 31
0.0
  0
LINE
  5
8A
100
AcDbEntity
  8
0
  6
HIDDEN
 62
     0
100
AcDbLine
 10
182.921052
 20
54.693777
 30
0.0
 11
182.921052
 21
40.693777
 31
0.0
  0
LINE
  5
8B
100
AcDbEntity
  8
0
  6
HIDDEN
 62
     0
100
AcDbLine
 10
162.939215
 20
40.703777
 30
0.0
 11
168.939115
 21
40.703777
 31
0.0
  0
LINE
  5
8C
100
AcDbEntity
  8
0
  6
HIDDEN
 62
     0
100
AcDbLine
 10
180.921052
 20
70.693777
 30
0.0
 11
180.921052
 21
67.693777
 31
0.0
  0
LINE
  5
8D
100
AcDbEntity
  8
0
  6
HIDDEN
 62
     0
100
AcDbLine
 10
140.939228
 20
72.493777
 30
0.0
 11
145.939216
 21
72.493777
 31
0.0
  0
LINE
  5
8E
100
AcDbEntity
  8
0
  6
Continuous
 62
     0
100
AcDbLine
 10
48.421052
 20
49.193777
 30
0.0
 11
51.421052
 21
49.193777
 31
0.0
  0
LINE
  5
8F
100
AcDbEntity
  8
0
  6
HIDDEN
 62
     0
100
AcDbLine
 10
148.921052
 20
54.703777
 30
0.0
 11
148.921052
 21
67.693777
 31
0.0
  0
ARC
  5
90
100
AcDbEntity
  8
0
  6
Continuous
 62
     0
100
AcDbCircle
 10
89.421052
 20
63.193777
 30
0.0
 40
3.0
100
AcDbArc
 50
0.0
 51
90.0
  0
LINE
  5
91
100
AcDbEntity
  8
0
  6
HIDDEN
 62
     0
100
AcDbLine
 10
188.939065
 20
54.693777
 30
0.0
 11
185.939115
 21
54.693777
 31
0.0
  0
LINE
  5
92
100
AcDbEntity
  8
0
  6
Continuous
 62
     0
100
AcDbLine
 10
89.421052
 20
63.193777
 30
0.0
 11
66.421052
 21
63.193777
 31
0.0
  0
LINE
  5
93
100
AcDbEntity
  8
0
  6
HIDDEN
 62
     0
100
AcDbLine
 10
55.221052
 20
57.188766
 30
0.0
 11
61.921052
 21
57.188766
 31
0.0
  0
LINE
  5
94
100
AcDbEntity
  8
0
  6
HIDDEN
 62
     0
100
AcDbLine
 10
61.921052
 20
63.708468
 30
0.0
 11
61.921052
 21
61.642365
 31
0.0
  0
ARC
  5
95
100
AcDbEntity
  8
0
  6
Continuous
 62
     0
100
AcDbCircle
 10
182.121052
 20
72.493777
 30
0.0
 40
1.2
100
AcDbArc
 50
-270.0
 51
-180.0
  0
LINE
  5
96
100
AcDbEntity
  8
0
  6
Continuous
 62
     0
100
AcDbLine
 10
140.921052
 20
72.493777
 30
0.0
 11
140.921052
 21
70.693777
 31
0.0
  0
LINE
  5
97
100
AcDbEntity
  8
0
  6
Continuous
 62
     0
100
AcDbLine
 10
189.739079
 20
73.693777
 30
0.0
 11
182.13915
 21
73.693777
 31
0.0
  0
LINE
  5
98
100
AcDbEntity
  8
0
  6
HIDDEN
 62
     0
100
AcDbLine
 10
180.939127
 20
72.493777
 30
0.0
 11
185.939115
 21
72.493777
 31
0.0
  0
LINE
  5
99
100
AcDbEntity
  8
0
  6
Continuous
 62
     0
100
AcDbLine
 10
104.421052
 20
58.601095
 30
0.0
 11
104.421052
 21
52.786458
 31
0.0
  0
LINE
  5
9A
100
AcDbEntity
  8
0
  6
Continuous
 62
     0
100
AcDbLine
 10
89.421052
 20
63.208405
 30
0.0
 11
89.421052
 21
66.208143
 31
0.0
  0
LINE
  5
9B
100
AcDbEntity
  8
0
  6
HIDDEN
 62
     0
100
AcDbLine
 10
55.221052
 20
65.571282
 30
0.0
 11
61.921052
 21
65.571282
 31
0.0
  0
LINE
  5
9C
100
AcDbEntity
  8
0
  6
HIDDEN
 62
     0
100
AcDbLine
 10
145.939216
 20
54.703777
 30
0.0
 11
142.939266
 21
54.703777
 31
0.0
  0
LINE
  5
9D
100
AcDbEntity
  8
0
  6
HIDDEN
 62
     0
100
AcDbLine
 10
185.939115
 20
54.703777
 30
0.0
 11
182.939165
 21
54.703777
 31
0.0
  0
LINE
  5
9E
100
AcDbEntity
  8
0
  6
Continuous
 62
     0
100
AcDbLine
 10
55.221052
 20
63.735345
 30
0.0
 11
61.921052
 21
63.735345
 31
0.0
  0
LINE
  5
9F
100
AcDbEntity
  8
0
  6
Continuous
 62
     0
100
AcDbLine
 10
92.421052
 20
63.193777
 30
0.0
 11
92.421052
 21
48.193777
 31
0.0
  0
LINE
  5
A0
100
AcDbEntity
  8
0
  6
HIDDEN
 62
     0
100
AcDbLine
 10
142.921052
 20
54.693777
 30
0.0
 11
142.921052
 21
40.693777
 31
0.0
  0
LINE
  5
A1
100
AcDbEntity
  8
0
  6
Continuous
 62
     0
100
AcDbLine
 10
182.921052
 20
40.693777
 30
0.0
 11
182.921052
 21
32.693777
 31
0.0
  0
LINE
  5
A2
100
AcDbEntity
  8
0
  6
Continuous
 62
     0
100
AcDbLine
 10
61.921052
 20
45.821782
 30
0.0
 11
61.921052
 21
45.709406
 31
0.0
  0
LINE
  5
A3
100
AcDbEntity
  8
0
  6
Continuous
 62
     0
100
AcDbLine
 10
61.921052
 20
63.75754
 30
0.0
 11
61.921052
 21
63.708468
 31
0.0
  0
LINE
  5
A4
100
AcDbEntity
  8
0
  6
Continuous
 62
     0
100
AcDbLine
 10
61.921052
 20
65.708293
 30
0.0
 11
61.921052
 21
65.595705
 31
0.0
  0
LINE
  5
A5
100
AcDbEntity
  8
0
  6
HIDDEN
 62
     0
100
AcDbLine
 10
190.921052
 20
67.693777
 30
0.0
 11
190.921052
 21
70.693777
 31
0.0
  0
ARC
  5
A6
100
AcDbEntity
  8
0
  6
Continuous
 62
     0
100
AcDbCircle
 10
103.921052
 20
55.693777
 30
0.0
 40
2.95
100
AcDbArc
 50
-260.241743
 51
-99.758257
  0
LINE
  5
A7
100
AcDbEntity
  8
0
  6
HIDDEN
 62
     0
100
AcDbLine
 10
145.939216
 20
72.493777
 30
0.0
 11
150.939203
 21
72.493777
 31
0.0
  0
LINE
  5
A8
100
AcDbEntity
  8
0
  6
Continuous
 62
     0
100
AcDbLine
 10
92.921052
 20
70.693777
 30
0.0
 11
92.921052
 21
40.693777
 31
0.0
  0
LINE
  5
A9
100
AcDbEntity
  8
0
  6
Continuous
 62
     0
100
AcDbLine
 10
66.421052
 20
55.693777
 30
0.0
 11
66.421052
 21
48.193777
 31
0.0
  0
LINE
  5
AA
100
AcDbEntity
  8
0
  6
Continuous
 62
     0
100
AcDbLine
 10
55.221052
 20
47.660159
 30
0.0
 11
55.221052
 21
45.821782
 31
0.0
  0
LINE
  5
AB
100
AcDbEntity
  8
0
  6
Continuous
 62
     0
100
AcDbLine
 10
108.921052
 20
70.693777
 30
0.0
 11
108.921052
 21
40.693777
 31
0.0
  0
LINE
  5
AC
100
AcDbEntity
  8
0
  6
HIDDEN
 62
     0
100
AcDbLine
 10
62.921052
 20
47.693777
 30
0.0
 11
62.921052
 21
63.693777
 31
0.0
  0
LINE
  5
AD
100
AcDbEntity
  8
0
  6
Continuous
 62
     0
100
AcDbLine
 10
55.221052
 20
65.595705
 30
0.0
 11
55.221052
 21
63.75754
 31
0.0
  0
LWPOLYLINE
  5
AE
100
AcDbEntity
  8
0
  6
Continuous
 62
     0
100
AcDbPolyline
 90
        9
 70
   128
 10
44.613873
 20
47.944904
 10
44.317098
 20
48.959702
 10
44.097389
 20
49.988803
 10
43.969423
 20
51.053299
 10
43.949429
 20
52.123233
 10
44.01658
 20
52.998034
 10
44.153565
 20
53.866825
 10
44.356647
 20
54.740637
 10
44.613873
 20
55.603843
  0
LINE
  5
AF
100
AcDbEntity
  8
0
  6
Continuous
 62
     0
100
AcDbLine
 10
43.921052
 20
60.340371
 30
0.0
 11
43.921052
 21
58.796055
 31
0.0
  0
LINE
  5
B0
100
AcDbEntity
  8
0
  6
Continuous
 62
     0
100
AcDbLine
 10
63.421052
 20
61.938774
 30
0.0
 11
63.421052
 21
63.193777
 31
0.0
  0
LINE
  5
B1
100
AcDbEntity
  8
0
  6
Continuous
 62
     0
100
AcDbLine
 10
55.221052
 20
45.821782
 30
0.0
 11
55.221052
 21
45.71939
 31
0.0
  0
LINE
  5
B2
100
AcDbEntity
  8
0
  6
HIDDEN
 62
     0
100
AcDbLine
 10
63.421052
 20
61.953363
 30
0.0
 11
63.421052
 21
49.464123
 31
0.0
  0
CIRCLE
  5
B3
100
AcDbEntity
  8
0
  6
Continuous
 62
     0
100
AcDbCircle
 10
129.921052
 20
55.693777
 30
0.0
 40
9.4
  0
LINE
  5
B4
100
AcDbEntity
  8
0
  6
Continuous
 62
     0
100
AcDbLine
 10
55.221052
 20
65.698309
 30
0.0
 11
55.221052
 21
65.595705
 31
0.0
  0
LINE
  5
B5
100
AcDbEntity
  8
0
  6
HIDDEN
 62
     0
100
AcDbLine
 10
55.221052
 20
54.213866
 30
0.0
 11
55.221052
 21
54.213229
 31
0.0
  0
LWPOLYLINE
  5
B6
100
AcDbEntity
  8
0
  6
Continuous
 62
     0
100
AcDbPolyline
 90
        5
 70
   128
 10
43.921052
 20
60.340371
 10
44.013424
 20
61.144606
 10
44.163277
 20
61.942432
 10
44.366675
 20
62.742107
 10
44.613873
 20
63.532583
  0
LINE
  5
B7
100
AcDbEntity
  8
0
  6
Continuous
 62
     0
100
AcDbLine
 10
62.921052
 20
66.693777
 30
0.0
 11
92.921052
 21
66.693777
 31
0.0
  0
LINE
  5
B8
100
AcDbEntity
  8
0
  6
Continuous
 62
     0
100
AcDbLine
 10
92.921052
 20
40.693777
 30
0.0
 11
108.921052
 21
40.693777
 31
0.0
  0
LINE
  5
B9
100
AcDbEntity
  8
0
  6
HIDDEN
 62
     0
100
AcDbLine
 10
55.221052
 20
57.204469
 30
0.0
 11
55.221052
 21
57.203832
 31
0.0
  0
LINE
  5
BA
100
AcDbEntity
  8
0
  6
Continuous
 62
     0
100
AcDbLine
 10
108.921052
 20
70.693777
 30
0.0
 11
222.921052
 21
70.693777
 31
0.0
  0
LINE
  5
BB
100
AcDbEntity
  8
0
  6
HIDDEN
 62
     0
100
AcDbLine
 10
134.189235
 20
40.713777
 30
0.0
 11
157.689197
 21
40.713777
 31
0.0
  0
ARC
  5
BC
100
AcDbEntity
  8
0
  6
Continuous
 62
     0
100
AcDbCircle
 10
201.921052
 20
55.693777
 30
0.0
 40
10.48
100
AcDbArc
 50
-285.0
 51
15.0
  0
LINE
  5
BD
100
AcDbEntity
  8
0
  6
HIDDEN
 62
     0
100
AcDbLine
 10
148.921052
 20
40.693777
 30
0.0
 11
148.921052
 21
67.693777
 31
0.0
  0
LINE
  5
BE
100
AcDbEntity
  8
0
  6
Continuous
 62
     0
100
AcDbLine
 10
55.221052
 20
47.709231
 30
0.0
 11
55.221052
 21
47.667807
 31
0.0
  0
LINE
  5
BF
100
AcDbEntity
  8
0
  6
Continuous
 62
     0
100
AcDbLine
 10
48.421052
 20
64.70838
 30
0.0
 11
48.421052
 21
46.709318
 31
0.0
  0
LINE
  5
C0
100
AcDbEntity
  8
0
  6
Continuous
 62
     0
100
AcDbLine
 10
108.921052
 20
40.693777
 30
0.0
 11
222.921052
 21
40.693777
 31
0.0
  0
LWPOLYLINE
  5
C1
100
AcDbEntity
  8
0
  6
Continuous
 62
     0
100
AcDbPolyline
 90
       12
 70
   128
 10
66.421052
 20
55.693777
 10
66.41171
 20
55.678521
 10
65.884346
 20
54.815378
 10
65.366548
 20
53.954435
 10
64.872276
 20
53.104233
 10
64.491233
 20
52.414855
 10
64.143837
 20
51.737752
 10
63.84469
 20
51.082087
 10
63.671892
 20
50.639418
 10
63.537257
 20
50.212531
 10
63.450378
 20
49.808158
 10
63.421052
 20
49.448779
  0
LINE
  5
C2
100
AcDbEntity
  8
0
  6
Continuous
 62
     0
100
AcDbLine
 10
55.221052
 20
45.806277
 30
0.0
 11
61.921052
 21
45.806277
 31
0.0
  0
LINE
  5
C3
100
AcDbEntity
  8
0
  6
HIDDEN
 62
     0
100
AcDbLine
 10
150.921052
 20
67.693777
 30
0.0
 11
150.921052
 21
70.693777
 31
0.0
  0
LINE
  5
C4
100
AcDbEntity
  8
0
  6
HIDDEN
 62
     0
100
AcDbLine
 10
142.921052
 20
67.693777
 30
0.0
 11
142.921052
 21
40.693777
 31
0.0
  0
LINE
  5
C5
100
AcDbEntity
  8
0
  6
HIDDEN
 62
     0
100
AcDbLine
 10
61.921052
 20
45.831978
 30
0.0
 11
61.921052
 21
45.821782
 31
0.0
  0
LINE
  5
C6
100
AcDbEntity
  8
0
  6
Continuous
 62
     0
100
AcDbLine
 10
55.221052
 20
63.742968
 30
0.0
 11
61.921052
 21
63.742968
 31
0.0
  0
LWPOLYLINE
  5
C7
100
AcDbEntity
  8
0
  6
Continuous
 62
     0
100
AcDbPolyline
 90
        5
 70
   128
 10
44.613873
 20
63.532583
 10
44.328738
 20
63.532583
 10
44.115332
 20
63.532583
 10
43.983439
 20
63.532583
 10
43.943457
 20
63.532583
  0
LINE
  5
C8
100
AcDbEntity
  8
0
  6
Continuous
 62
     0
100
AcDbLine
 10
55.221052
 20
63.75754
 30
0.0
 11
55.221052
 21
63.749892
 31
0.0
  0
LWPOLYLINE
  5
C9
100
AcDbEntity
  8
0
  6
Continuous
 62
     0
100
AcDbPolyline
 90
       13
 70
   128
 10
63.421052
 20
61.938774
 10
63.460291
 20
61.518846
 10
63.567759
 20
61.067284
 10
63.753465
 20
60.529449
 10
63.993723
 20
59.966665
 10
64.274653
 20
59.388045
 10
64.611434
 20
58.750514
 10
64.976439
 20
58.099977
 10
65.361519
 20
57.441438
 10
65.758523
 20
56.7799
 10
66.08386
 20
56.244952
 10
66.41171
 20
55.709032
 10
66.421052
 20
55.693777
  0
LINE
  5
CA
100
AcDbEntity
  8
0
  6
HIDDEN
 62
     0
100
AcDbLine
 10
61.921052
 20
65.595705
 30
0.0
 11
61.921052
 21
65.58572
 31
0.0
  0
LINE
  5
CB
100
AcDbEntity
  8
0
  6
HIDDEN
 62
     0
100
AcDbLine
 10
171.189184
 20
40.703777
 30
0.0
 11
200.689258
 21
40.703777
 31
0.0
  0
LINE
  5
CC
100
AcDbEntity
  8
0
  6
HIDDEN
 62
     0
100
AcDbLine
 10
140.921052
 20
70.693777
 30
0.0
 11
140.921052
 21
67.693777
 31
0.0
  0
LINE
  5
CD
100
AcDbEntity
  8
0
  6
HIDDEN
 62
     0
100
AcDbLine
 10
61.921052
 20
61.642365
 30
0.0
 11
61.921052
 21
61.635779
 31
0.0
  0
LINE
  5
CE
100
AcDbEntity
  8
0
  6
HIDDEN
 62
     0
100
AcDbLine
 10
55.221052
 20
49.781919
 30
0.0
 11
55.221052
 21
47.709231
 31
0.0
  0
LINE
  5
CF
100
AcDbEntity
  8
0
  6
HIDDEN
 62
     0
100
AcDbLine
 10
55.221052
 20
49.759931
 30
0.0
 11
61.921052
 21
49.759931
 31
0.0
  0
LINE
  5
D0
100
AcDbEntity
  8
0
  6
HIDDEN
 62
     0
100
AcDbLine
 10
55.221052
 20
61.642365
 30
0.0
 11
55.221052
 21
57.204469
 31
0.0
  0
LINE
  5
D1
100
AcDbEntity
  8
0
  6
Continuous
 62
     0
100
AcDbLine
 10
43.921052
 20
58.810872
 30
0.0
 11
43.921052
 21
47.960324
 31
0.0
  0
LINE
  5
D2
100
AcDbEntity
  8
0
  6
Continuous
 62
     0
100
AcDbLine
 10
108.921052
 20
70.693777
 30
0.0
 11
108.921052
 21
40.693777
 31
0.0
  0
LINE
  5
D3
100
AcDbEntity
  8
0
  6
HIDDEN
 62
     0
100
AcDbLine
 10
55.221052
 20
57.189552
 30
0.0
 11
61.921052
 21
57.189552
 31
0.0
  0
ARC
  5
D4
100
AcDbEntity
  8
0
  6
Continuous
 62
     0
100
AcDbCircle
 10
129.921052
 20
55.693777
 30
0.0
 40
10.48
100
AcDbArc
 50
-285.0
 51
15.0
  0
LINE
  5
D5
100
AcDbEntity
  8
0
  6
HIDDEN
 62
     0
100
AcDbLine
 10
131.189285
 20
40.703777
 30
0.0
 11
160.689147
 21
40.703777
 31
0.0
  0
LINE
  5
D6
100
AcDbEntity
  8
0
  6
HIDDEN
 62
     0
100
AcDbLine
 10
55.221052
 20
54.213229
 30
0.0
 11
55.221052
 21
49.775334
 31
0.0
  0
LINE
  5
D7
100
AcDbEntity
  8
0
  6
Continuous
 62
     0
100
AcDbLine
 10
44.613873
 20
55.603843
 30
0.0
 11
47.721052
 21
55.603843
 31
0.0
  0
LINE
  5
D8
100
AcDbEntity
  8
0
  6
Continuous
 62
     0
100
AcDbLine
 10
55.221052
 20
47.667807
 30
0.0
 11
55.221052
 21
47.660159
 31
0.0
  0
LINE
  5
D9
100
AcDbEntity
  8
0
  6
Continuous
 62
     0
100
AcDbLine
 10
222.921052
 20
70.693777
 30
0.0
 11
222.921052
 21
40.693777
 31
0.0
  0
LINE
  5
DA
100
AcDbEntity
  8
0
  6
Continuous
 62
     0
100
AcDbLine
 10
63.461995
 20
63.693777
 30
0.0
 11
51.421052
 21
63.693777
 31
0.0
  0
LINE
  5
DB
100
AcDbEntity
  8
0
  6
HIDDEN
 62
     0
100
AcDbLine
 10
55.221052
 20
57.203832
 30
0.0
 11
55.221052
 21
54.213866
 31
0.0
  0
LINE
  5
DC
100
AcDbEntity
  8
0
  6
Continuous
 62
     0
100
AcDbLine
 10
47.721052
 20
46.693777
 30
0.0
 11
48.421052
 21
46.693777
 31
0.0
  0
LINE
  5
DD
100
AcDbEntity
  8
0
  6
HIDDEN
 62
     0
100
AcDbLine
 10
179.939215
 20
40.723777
 30
0.0
 11
191.939227
 21
40.723777
 31
0.0
  0
LINE
  5
DE
100
AcDbEntity
  8
0
  6
Continuous
 62
     0
100
AcDbLine
 10
43.921052
 20
63.508358
 30
0.0
 11
43.921052
 21
60.355245
 31
0.0
  0
LINE
  5
DF
100
AcDbEntity
  8
0
  6
Continuous
 62
     0
100
AcDbLine
 10
44.613873
 20
47.944904
 30
0.0
 11
47.721052
 21
47.944904
 31
0.0
  0
LINE
  5
E0
100
AcDbEntity
  8
0
  6
Continuous
 62
     0
100
AcDbLine
 10
51.421052
 20
47.693777
 30
0.0
 11
63.463013
 21
47.693777
 31
0.0
  0
LINE
  5
E1
100
AcDbEntity
  8
0
  6
Continuous
 62
     0
100
AcDbLine
 10
62.921052
 20
44.693777
 30
0.0
 11
92.921052
 21
44.693777
 31
0.0
  0
LINE
  5
E2
100
AcDbEntity
  8
0
  6
Continuous
 62
     0
100
AcDbLine
 10
48.421052
 20
64.693777
 30
0.0
 11
47.721052
 21
64.693777
 31
0.0
  0
LINE
  5
E3
100
AcDbEntity
  8
0
  6
HIDDEN
 62
     0
100
AcDbLine
 10
61.921052
 20
49.781919
 30
0.0
 11
61.921052
 21
49.775334
 31
0.0
  0
LINE
  5
E4
100
AcDbEntity
  8
0
  6
Continuous
 62
     0
100
AcDbLine
 10
43.943457
 20
63.532583
 30
0.0
 11
43.921052
 21
63.493777
 31
0.0
  0
CIRCLE
  5
E5
100
AcDbEntity
  8
0
  6
Continuous
 62
     0
100
AcDbCircle
 10
201.921052
 20
55.693777
 30
0.0
 40
9.4
  0
LWPOLYLINE
  5
E6
100
AcDbEntity
  8
0
  6
Continuous
 62
     0
100
AcDbPolyline
 90
        5
 70
   128
 10
44.613873
 20
55.603843
 10
44.369418
 20
56.384707
 10
44.167615
 20
57.174556
 10
44.014928
 20
57.982009
 10
43.921052
 20
58.796055
  0
LINE
  5
E7
100
AcDbEntity
  8
0
  6
HIDDEN
 62
     0
100
AcDbLine
 10
190.921052
 20
67.693777
 30
0.0
 11
190.921052
 21
70.693777
 31
0.0
  0
LINE
  5
E8
100
AcDbEntity
  8
0
  6
HIDDEN
 62
     0
100
AcDbLine
 10
55.221052
 20
63.708468
 30
0.0
 11
55.221052
 21
61.635779
 31
0.0
  0
LINE
  5
E9
100
AcDbEntity
  8
0
  6
Continuous
 62
     0
100
AcDbLine
 10
66.421052
 20
63.193777
 30
0.0
 11
66.421052
 21
55.693777
 31
0.0
  0
LINE
  5
EA
100
AcDbEntity
  8
0
  6
HIDDEN
 62
     0
100
AcDbLine
 10
150.939203
 20
67.693777
 30
0.0
 11
140.939228
 21
67.693777
 31
0.0
  0
LINE
  5
EB
100
AcDbEntity
  8
0
  6
HIDDEN
 62
     0
100
AcDbLine
 10
174.189134
 20
40.713777
 30
0.0
 11
197.689095
 21
40.713777
 31
0.0
  0
LINE
  5
EC
100
AcDbEntity
  8
0
  6
HIDDEN
 62
     0
100
AcDbLine
 10
180.921052
 20
70.693777
 30
0.0
 11
180.921052
 21
67.693777
 31
0.0
  0
LINE
  5
ED
100
AcDbEntity
  8
0
  6
Continuous
 62
     0
100
AcDbLine
 10
62.921052
 20
65.693777
 30
0.0
 11
61.921052
 21
65.693777
 31
0.0
  0
LINE
  5
EE
100
AcDbEntity
  8
0
  6
HIDDEN
 62
     0
100
AcDbLine
 10
190.939102
 20
67.693777
 30
0.0
 11
180.939127
 21
67.693777
 31
0.0
  0
LINE
  5
EF
100
AcDbEntity
  8
0
  6
HIDDEN
 62
     0
100
AcDbLine
 10
188.921052
 20
40.693777
 30
0.0
 11
188.921052
 21
67.693777
 31
0.0
  0
LINE
  5
F0
100
AcDbEntity
  8
0
  6
Continuous
 62
     0
100
AcDbLine
 10
62.921052
 20
44.693777
 30
0.0
 11
62.921052
 21
47.693777
 31
0.0
  0
LINE
  5
F1
100
AcDbEntity
  8
0
  6
Continuous
 62
     0
100
AcDbLine
 10
92.921052
 20
70.693777
 30
0.0
 11
108.921052
 21
70.693777
 31
0.0
  0
LINE
  5
F2
100
AcDbEntity
  8
0
  6
Continuous
 62
     0
100
AcDbLine
 10
55.221052
 20
63.749892
 30
0.0
 11
55.221052
 21
63.708468
 31
0.0
  0
LINE
  5
F3
100
AcDbEntity
  8
0
  6
HIDDEN
 62
     0
100
AcDbLine
 10
139.939103
 20
40.723777
 30
0.0
 11
151.939116
 21
40.723777
 31
0.0
  0
LINE
  5
F4
100
AcDbEntity
  8
0
  6
Continuous
 62
     0
100
AcDbLine
 10
62.921052
 20
63.693777
 30
0.0
 11
62.921052
 21
66.693777
 31
0.0
  0
LINE
  5
F5
100
AcDbEntity
  8
0
  6
Continuous
 62
     0
100
AcDbLine
 10
61.921052
 20
45.693777
 30
0.0
 11
62.921052
 21
45.693777
 31
0.0
  0
LINE
  5
F6
100
AcDbEntity
  8
0
  6
HIDDEN
 62
     0
100
AcDbLine
 10
182.921052
 20
67.693777
 30
0.0
 11
182.921052
 21
40.693777
 31
0.0
  0
LWPOLYLINE
  5
F7
100
AcDbEntity
  8
0
  6
Continuous
 62
     0
100
AcDbPolyline
 90
        4
 70
   128
 10
43.921052
 20
47.944904
 10
44.062261
 20
47.944904
 10
44.308733
 20
47.944904
 10
44.613873
 20
47.944904
  0
ENDBLK
  5
F8
100
AcDbEntity
  8
0
100
AcDbBlockEnd
  0
BLOCK
  5
FB
100
AcDbEntity
  8
0
100
AcDbBlockBegin
  2
*B3
 70
     0
 10
0.0
 20
0.0
 30
0.0
  3
*B3
  1

  0
LINE
  5
FC
100
AcDbEntity
  8
0
  6
HIDDEN
 62
     0
100
AcDbLine
 10
44.613873
 20
176.185767
 30
0.0
 11
47.721052
 21
176.185767
 31
0.0
  0
LINE
  5
FD
100
AcDbEntity
  8
0
  6
HIDDEN
 62
     0
100
AcDbLine
 10
44.613873
 20
185.029548
 30
0.0
 11
47.721052
 21
185.029548
 31
0.0
  0
LINE
  5
FE
100
AcDbEntity
  8
0
  6
Continuous
 62
     0
100
AcDbLine
 10
61.921052
 20
152.597657
 30
0.0
 11
55.221052
 21
152.597657
 31
0.0
  0
LINE
  5
FF
100
AcDbEntity
  8
0
  6
Continuous
 62
     0
100
AcDbLine
 10
47.721052
 20
189.614595
 30
0.0
 11
47.721052
 21
189.615232
 31
0.0
  0
LINE
  5
100
100
AcDbEntity
  8
0
  6
Continuous
 62
     0
100
AcDbLine
 10
47.721052
 20
185.193057
 30
0.0
 11
47.721052
 21
189.614595
 31
0.0
  0
LINE
  5
101
100
AcDbEntity
  8
0
  6
Continuous
 62
     0
100
AcDbLine
 10
47.721052
 20
176.038345
 30
0.0
 11
47.721052
 21
185.193057
 31
0.0
  0
LINE
  5
102
100
AcDbEntity
  8
0
  6
Continuous
 62
     0
100
AcDbLine
 10
47.721052
 20
171.616595
 30
0.0
 11
47.721052
 21
176.038345
 31
0.0
  0
LINE
  5
103
100
AcDbEntity
  8
0
  6
Continuous
 62
     0
100
AcDbLine
 10
47.721052
 20
171.61617
 30
0.0
 11
47.721052
 21
171.616595
 31
0.0
  0
LINE
  5
104
100
AcDbEntity
  8
0
  6
HIDDEN
 62
     0
100
AcDbLine
 10
81.189199
 20
188.587657
 30
0.0
 11
74.689236
 21
188.587657
 31
0.0
  0
LINE
  5
105
100
AcDbEntity
  8
0
  6
Continuous
 62
     0
100
AcDbLine
 10
55.221052
 20
141.112668
 30
0.0
 11
61.921052
 21
141.112668
 31
0.0
  0
LINE
  5
106
100
AcDbEntity
  8
0
  6
Continuous
 62
     0
100
AcDbLine
 10
55.221052
 20
150.649226
 30
0.0
 11
61.921052
 21
150.649226
 31
0.0
  0
LINE
  5
107
100
AcDbEntity
  8
0
  6
HIDDEN
 62
     0
100
AcDbLine
 10
55.221052
 20
148.534991
 30
0.0
 11
61.921052
 21
148.534991
 31
0.0
  0
LINE
  5
108
100
AcDbEntity
  8
0
  6
HIDDEN
 62
     0
100
AcDbLine
 10
55.221052
 20
152.485162
 30
0.0
 11
61.921052
 21
152.485162
 31
0.0
  0
ARC
  5
109
100
AcDbEntity
  8
0
  6
Continuous
 62
     0
100
AcDbCircle
 10
89.421052
 20
185.607657
 30
0.0
 40
3.0
100
AcDbArc
 50
0.0
 51
90.0
  0
LINE
  5
10A
100
AcDbEntity
  8
0
  6
Continuous
 62
     0
100
AcDbLine
 10
55.221052
 20
141.111882
 30
0.0
 11
61.921052
 21
141.111882
 31
0.0
  0
LINE
  5
10B
100
AcDbEntity
  8
0
  6
Continuous
 62
     0
100
AcDbLine
 10
55.221052
 20
144.102647
 30
0.0
 11
61.921052
 21
144.102647
 31
0.0
  0
LINE
  5
10C
100
AcDbEntity
  8
0
  6
Continuous
 62
     0
100
AcDbLine
 10
55.221052
 20
152.495157
 30
0.0
 11
61.921052
 21
152.495157
 31
0.0
  0
LINE
  5
10D
100
AcDbEntity
  8
0
  6
HIDDEN
 62
     0
100
AcDbLine
 10
104.421052
 20
172.607657
 30
0.0
 11
104.421052
 21
172.587657
 31
0.0
  0
LINE
  5
10E
100
AcDbEntity
  8
0
  6
HIDDEN
 62
     0
100
AcDbLine
 10
66.421052
 20
185.607657
 30
0.0
 11
89.421052
 21
185.607657
 31
0.0
  0
LINE
  5
10F
100
AcDbEntity
  8
0
  6
Continuous
 62
     0
100
AcDbLine
 10
63.421052
 20
159.607657
 30
0.0
 11
63.421052
 21
177.823775
 31
0.0
  0
LINE
  5
110
100
AcDbEntity
  8
0
  6
Continuous
 62
     0
100
AcDbLine
 10
92.921052
 20
172.607657
 30
0.0
 11
108.921052
 21
172.607657
 31
0.0
  0
LINE
  5
111
100
AcDbEntity
  8
0
  6
Continuous
 62
     0
100
AcDbLine
 10
48.421052
 20
189.607657
 30
0.0
 11
47.721052
 21
189.607657
 31
0.0
  0
LINE
  5
112
100
AcDbEntity
  8
0
  6
Continuous
 62
     0
100
AcDbLine
 10
62.921052
 20
152.607657
 30
0.0
 11
61.921052
 21
152.607657
 31
0.0
  0
LINE
  5
113
100
AcDbEntity
  8
0
  6
HIDDEN
 62
     0
100
AcDbLine
 10
192.521052
 20
172.607657
 30
0.0
 11
192.521052
 21
156.607657
 31
0.0
  0
LINE
  5
114
100
AcDbEntity
  8
0
  6
Continuous
 62
     0
100
AcDbLine
 10
55.221052
 20
144.113584
 30
0.0
 11
55.221052
 21
144.112734
 31
0.0
  0
LINE
  5
115
100
AcDbEntity
  8
0
  6
HIDDEN
 62
     0
100
AcDbLine
 10
89.421052
 20
185.61537
 30
0.0
 11
89.421052
 21
188.615107
 31
0.0
  0
LINE
  5
116
100
AcDbEntity
  8
0
  6
HIDDEN
 62
     0
100
AcDbLine
 10
66.421052
 20
185.61537
 30
0.0
 11
66.421052
 21
188.615107
 31
0.0
  0
CIRCLE
  5
117
100
AcDbEntity
  8
0
  6
HIDDEN
 62
     0
100
AcDbCircle
 10
185.921052
 20
165.107657
 30
0.0
 40
2.9
  0
LINE
  5
118
100
AcDbEntity
  8
0
  6
Continuous
 62
     0
100
AcDbLine
 10
51.421052
 20
188.615107
 30
0.0
 11
51.421052
 21
172.616082
 31
0.0
  0
LINE
  5
119
100
AcDbEntity
  8
0
  6
Continuous
 62
     0
100
AcDbLine
 10
92.421052
 20
185.607657
 30
0.0
 11
92.421052
 21
159.607657
 31
0.0
  0
LINE
  5
11A
100
AcDbEntity
  8
0
  6
Continuous
 62
     0
100
AcDbLine
 10
61.921052
 20
132.730896
 30
0.0
 11
61.921052
 21
132.618308
 31
0.0
  0
LINE
  5
11B
100
AcDbEntity
  8
0
  6
HIDDEN
 62
     0
100
AcDbLine
 10
61.921052
 20
136.690822
 30
0.0
 11
61.921052
 21
136.684236
 31
0.0
  0
CIRCLE
  5
11C
100
AcDbEntity
  8
0
  6
HIDDEN
 62
     0
100
AcDbCircle
 10
145.921052
 20
120.107657
 30
0.0
 40
2.9
  0
LINE
  5
11D
100
AcDbEntity
  8
0
  6
HIDDEN
 62
     0
100
AcDbLine
 10
66.439268
 20
185.607657
 30
0.0
 11
63.439318
 21
185.607657
 31
0.0
  0
ARC
  5
11E
100
AcDbEntity
  8
0
  6
Continuous
 62
     0
100
AcDbCircle
 10
66.421052
 20
185.607657
 30
0.0
 40
3.0
100
AcDbArc
 50
-270.0
 51
-180.0
  0
LINE
  5
11F
100
AcDbEntity
  8
0
  6
Continuous
 62
     0
100
AcDbLine
 10
55.221052
 20
148.541503
 30
0.0
 11
61.921052
 21
148.541503
 31
0.0
  0
LINE
  5
120
100
AcDbEntity
  8
0
  6
HIDDEN
 62
     0
100
AcDbLine
 10
106.939229
 20
172.587657
 30
0.0
 11
100.939117
 21
172.587657
 31
0.0
  0
CIRCLE
  5
121
100
AcDbEntity
  8
0
  6
HIDDEN
 62
     0
100
AcDbCircle
 10
185.921052
 20
165.107657
 30
0.0
 40
3.8
  0
LINE
  5
122
100
AcDbEntity
  8
0
  6
Continuous
 62
     0
100
AcDbLine
 10
47.721052
 20
171.607657
 30
0.0
 11
48.421052
 21
171.607657
 31
0.0
  0
LINE
  5
123
100
AcDbEntity
  8
0
  6
Continuous
 62
     0
100
AcDbLine
 10
55.221052
 20
136.673812
 30
0.0
 11
61.921052
 21
136.673812
 31
0.0
  0
LINE
  5
124
100
AcDbEntity
  8
0
  6
Continuous
 62
     0
100
AcDbLine
 10
55.221052
 20
144.103433
 30
0.0
 11
61.921052
 21
144.103433
 31
0.0
  0
LINE
  5
125
100
AcDbEntity
  8
0
  6
HIDDEN
 62
     0
100
AcDbLine
 10
191.441052
 20
172.607657
 30
0.0
 11
191.441052
 21
158.607657
 31
0.0
  0
LINE
  5
126
100
AcDbEntity
  8
0
  6
HIDDEN
 62
     0
100
AcDbLine
 10
212.419058
 20
158.607657
 30
0.0
 11
191.459133
 21
158.607657
 31
0.0
  0
CIRCLE
  5
127
100
AcDbEntity
  8
0
  6
Continuous
 62
     0
100
AcDbCircle
 10
165.921052
 20
120.107657
 30
0.0
 40
3.0
  0
LINE
  5
128
100
AcDbEntity
  8
0
  6
Continuous
 62
     0
100
AcDbLine
 10
61.921052
 20
144.113584
 30
0.0
 11
61.921052
 21
141.122131
 31
0.0
  0
LINE
  5
129
100
AcDbEntity
  8
0
  6
HIDDEN
 62
     0
100
AcDbLine
 10
89.421052
 20
185.607657
 30
0.0
 11
89.421052
 21
159.607657
 31
0.0
  0
LINE
  5
12A
100
AcDbEntity
  8
0
  6
Continuous
 62
     0
100
AcDbLine
 10
48.421052
 20
189.615232
 30
0.0
 11
48.421052
 21
171.61617
 31
0.0
  0
LINE
  5
12B
100
AcDbEntity
  8
0
  6
Continuous
 62
     0
100
AcDbLine
 10
62.921052
 20
131.607657
 30
0.0
 11
62.921052
 21
159.607657
 31
0.0
  0
LINE
  5
12C
100
AcDbEntity
  8
0
  6
Continuous
 62
     0
100
AcDbLine
 10
55.221052
 20
144.112734
 30
0.0
 11
55.221052
 21
141.122981
 31
0.0
  0
LINE
  5
12D
100
AcDbEntity
  8
0
  6
Continuous
 62
     0
100
AcDbLine
 10
55.221052
 20
152.607211
 30
0.0
 11
55.221052
 21
152.504819
 31
0.0
  0
LINE
  5
12E
100
AcDbEntity
  8
0
  6
Continuous
 62
     0
100
AcDbLine
 10
55.221052
 20
134.569061
 30
0.0
 11
55.221052
 21
132.730896
 31
0.0
  0
LINE
  5
12F
100
AcDbEntity
  8
0
  6
Continuous
 62
     0
100
AcDbLine
 10
55.221052
 20
132.730896
 30
0.0
 11
55.221052
 21
132.628292
 31
0.0
  0
LINE
  5
130
100
AcDbEntity
  8
0
  6
Continuous
 62
     0
100
AcDbLine
 10
55.221052
 20
132.720157
 30
0.0
 11
61.921052
 21
132.720157
 31
0.0
  0
CIRCLE
  5
131
100
AcDbEntity
  8
0
  6
Continuous
 62
     0
100
AcDbCircle
 10
145.921052
 20
142.607657
 30
0.0
 40
6.0
  0
LINE
  5
132
100
AcDbEntity
  8
0
  6
HIDDEN
 62
     0
100
AcDbLine
 10
55.221052
 20
150.656849
 30
0.0
 11
61.921052
 21
150.656849
 31
0.0
  0
LINE
  5
133
100
AcDbEntity
  8
0
  6
Continuous
 62
     0
100
AcDbLine
 10
92.439117
 20
185.607657
 30
0.0
 11
89.439167
 21
185.607657
 31
0.0
  0
LINE
  5
134
100
AcDbEntity
  8
0
  6
HIDDEN
 62
     0
100
AcDbLine
 10
55.221052
 20
136.680324
 30
0.0
 11
61.921052
 21
136.680324
 31
0.0
  0
LINE
  5
135
100
AcDbEntity
  8
0
  6
Continuous
 62
     0
100
AcDbLine
 10
66.439268
 20
185.607657
 30
0.0
 11
63.439318
 21
185.607657
 31
0.0
  0
LINE
  5
136
100
AcDbEntity
  8
0
  6
Continuous
 62
     0
100
AcDbLine
 10
61.921052
 20
152.617195
 30
0.0
 11
61.921052
 21
152.504819
 31
0.0
  0
LINE
  5
137
100
AcDbEntity
  8
0
  6
Continuous
 62
     0
100
AcDbLine
 10
51.421052
 20
187.107657
 30
0.0
 11
48.421052
 21
187.107657
 31
0.0
  0
LINE
  5
138
100
AcDbEntity
  8
0
  6
Continuous
 62
     0
100
AcDbLine
 10
62.921052
 20
131.607657
 30
0.0
 11
92.921052
 21
131.607657
 31
0.0
  0
LINE
  5
139
100
AcDbEntity
  8
0
  6
Continuous
 62
     0
100
AcDbLine
 10
63.421052
 20
183.39154
 30
0.0
 11
63.421052
 21
185.607657
 31
0.0
  0
LINE
  5
13A
100
AcDbEntity
  8
0
  6
HIDDEN
 62
     0
100
AcDbLine
 10
61.921052
 20
148.551267
 30
0.0
 11
61.921052
 21
148.544894
 31
0.0
  0
LINE
  5
13B
100
AcDbEntity
  8
0
  6
Continuous
 62
     0
100
AcDbLine
 10
222.921052
 20
112.607657
 30
0.0
 11
108.921052
 21
112.607657
 31
0.0
  0
LINE
  5
13C
100
AcDbEntity
  8
0
  6
Continuous
 62
     0
100
AcDbLine
 10
92.921052
 20
112.607657
 30
0.0
 11
92.921052
 21
172.607657
 31
0.0
  0
LINE
  5
13D
100
AcDbEntity
  8
0
  6
Continuous
 62
     0
100
AcDbLine
 10
55.221052
 20
136.690822
 30
0.0
 11
55.221052
 21
134.576709
 31
0.0
  0
CIRCLE
  5
13E
100
AcDbEntity
  8
0
  6
HIDDEN
 62
     0
100
AcDbCircle
 10
145.921052
 20
120.107657
 30
0.0
 40
5.0
  0
LINE
  5
13F
100
AcDbEntity
  8
0
  6
HIDDEN
 62
     0
100
AcDbLine
 10
211.321052
 20
156.607657
 30
0.0
 11
211.321052
 21
172.607657
 31
0.0
  0
LINE
  5
140
100
AcDbEntity
  8
0
  6
HIDDEN
 62
     0
100
AcDbLine
 10
212.401052
 20
158.607657
 30
0.0
 11
212.401052
 21
172.607657
 31
0.0
  0
LINE
  5
141
100
AcDbEntity
  8
0
  6
Continuous
 62
     0
100
AcDbLine
 10
55.221052
 20
152.504819
 30
0.0
 11
55.221052
 21
150.666442
 31
0.0
  0
LINE
  5
142
100
AcDbEntity
  8
0
  6
HIDDEN
 62
     0
100
AcDbLine
 10
92.439117
 20
185.607657
 30
0.0
 11
89.439167
 21
185.607657
 31
0.0
  0
LINE
  5
143
100
AcDbEntity
  8
0
  6
Continuous
 62
     0
100
AcDbLine
 10
89.421052
 20
185.61537
 30
0.0
 11
89.421052
 21
188.615107
 31
0.0
  0
LINE
  5
144
100
AcDbEntity
  8
0
  6
Continuous
 62
     0
100
AcDbLine
 10
66.421052
 20
185.61537
 30
0.0
 11
66.421052
 21
188.615107
 31
0.0
  0
LINE
  5
145
100
AcDbEntity
  8
0
  6
HIDDEN
 62
     0
100
AcDbLine
 10
55.221052
 20
144.103433
 30
0.0
 11
61.921052
 21
144.103433
 31
0.0
  0
LINE
  5
146
100
AcDbEntity
  8
0
  6
Continuous
 62
     0
100
AcDbLine
 10
66.421052
 20
185.607657
 30
0.0
 11
66.421052
 21
159.607657
 31
0.0
  0
LINE
  5
147
100
AcDbEntity
  8
0
  6
Continuous
 62
     0
100
AcDbLine
 10
89.421052
 20
159.607657
 30
0.0
 11
89.421052
 21
185.607657
 31
0.0
  0
LINE
  5
148
100
AcDbEntity
  8
0
  6
HIDDEN
 62
     0
100
AcDbLine
 10
66.421052
 20
159.607657
 30
0.0
 11
66.421052
 21
185.607657
 31
0.0
  0
LINE
  5
149
100
AcDbEntity
  8
0
  6
Continuous
 62
     0
100
AcDbLine
 10
66.421052
 20
188.607657
 30
0.0
 11
89.421052
 21
188.607657
 31
0.0
  0
CIRCLE
  5
14A
100
AcDbEntity
  8
0
  6
HIDDEN
 62
     0
100
AcDbCircle
 10
145.921052
 20
120.107657
 30
0.0
 40
3.8
  0
LINE
  5
14B
100
AcDbEntity
  8
0
  6
Continuous
 62
     0
100
AcDbLine
 10
62.921052
 20
159.607657
 30
0.0
 11
92.921052
 21
159.607657
 31
0.0
  0
LINE
  5
14C
100
AcDbEntity
  8
0
  6
Continuous
 62
     0
100
AcDbLine
 10
222.921052
 20
172.607657
 30
0.0
 11
222.921052
 21
112.607657
 31
0.0
  0
LINE
  5
14D
100
AcDbEntity
  8
0
  6
Continuous
 62
     0
100
AcDbLine
 10
108.921052
 20
112.607657
 30
0.0
 11
92.921052
 21
112.607657
 31
0.0
  0
LINE
  5
14E
100
AcDbEntity
  8
0
  6
Continuous
 62
     0
100
AcDbLine
 10
51.421052
 20
172.607657
 30
0.0
 11
63.421052
 21
172.607657
 31
0.0
  0
LINE
  5
14F
100
AcDbEntity
  8
0
  6
HIDDEN
 62
     0
100
AcDbLine
 10
55.221052
 20
132.730152
 30
0.0
 11
61.921052
 21
132.730152
 31
0.0
  0
LINE
  5
150
100
AcDbEntity
  8
0
  6
HIDDEN
 62
     0
100
AcDbLine
 10
103.421052
 20
172.607657
 30
0.0
 11
103.421052
 21
172.587657
 31
0.0
  0
LINE
  5
151
100
AcDbEntity
  8
0
  6
Continuous
 62
     0
100
AcDbLine
 10
89.421052
 20
185.607657
 30
0.0
 11
66.421052
 21
185.607657
 31
0.0
  0
CIRCLE
  5
152
100
AcDbEntity
  8
0
  6
Continuous
 62
     0
100
AcDbCircle
 10
145.921052
 20
120.107657
 30
0.0
 40
3.0
  0
CIRCLE
  5
153
100
AcDbEntity
  8
0
  6
Continuous
 62
     0
100
AcDbCircle
 10
185.921052
 20
165.107657
 30
0.0
 40
3.0
  0
LINE
  5
154
100
AcDbEntity
  8
0
  6
Continuous
 62
     0
100
AcDbLine
 10
61.921052
 20
136.684236
 30
0.0
 11
61.921052
 21
134.569061
 31
0.0
  0
LINE
  5
155
100
AcDbEntity
  8
0
  6
HIDDEN
 62
     0
100
AcDbLine
 10
61.921052
 20
132.74088
 30
0.0
 11
61.921052
 21
132.730896
 31
0.0
  0
LINE
  5
156
100
AcDbEntity
  8
0
  6
Continuous
 62
     0
100
AcDbLine
 10
48.421052
 20
174.107657
 30
0.0
 11
51.421052
 21
174.107657
 31
0.0
  0
LINE
  5
157
100
AcDbEntity
  8
0
  6
Continuous
 62
     0
100
AcDbLine
 10
108.921052
 20
172.607657
 30
0.0
 11
222.921052
 21
172.607657
 31
0.0
  0
LINE
  5
158
100
AcDbEntity
  8
0
  6
Continuous
 62
     0
100
AcDbLine
 10
108.921052
 20
172.607657
 30
0.0
 11
108.921052
 21
112.607657
 31
0.0
  0
LWPOLYLINE
  5
159
100
AcDbEntity
  8
0
  6
HIDDEN
 62
     0
100
AcDbPolyline
 90
        7
 70
   128
 10
63.421052
 20
177.823775
 10
63.434768
 20
178.77196
 10
63.455815
 20
179.763835
 10
63.460793
 20
181.06904
 10
63.435796
 20
182.398168
 10
63.425592
 20
182.898565
 10
63.421052
 20
183.39154
  0
LWPOLYLINE
  5
15A
100
AcDbEntity
  8
0
  6
Continuous
 62
     0
100
AcDbPolyline
 90
        7
 70
   128
 10
63.421052
 20
183.39154
 10
63.428266
 20
182.749607
 10
63.450666
 20
181.688544
 10
63.463013
 20
180.607657
 10
63.444324
 20
179.27462
 10
63.421569
 20
177.978621
 10
63.421052
 20
177.823775
  0
LINE
  5
15B
100
AcDbEntity
  8
0
  6
Continuous
 62
     0
100
AcDbLine
 10
61.921052
 20
132.607657
 30
0.0
 11
62.921052
 21
132.607657
 31
0.0
  0
LINE
  5
15C
100
AcDbEntity
  8
0
  6
Continuous
 62
     0
100
AcDbLine
 10
55.221052
 20
134.558466
 30
0.0
 11
61.921052
 21
134.558466
 31
0.0
  0
LINE
  5
15D
100
AcDbEntity
  8
0
  6
Continuous
 62
     0
100
AcDbLine
 10
55.221052
 20
134.566089
 30
0.0
 11
61.921052
 21
134.566089
 31
0.0
  0
LINE
  5
15E
100
AcDbEntity
  8
0
  6
Continuous
 62
     0
100
AcDbLine
 10
61.921052
 20
150.666442
 30
0.0
 11
61.921052
 21
148.551267
 31
0.0
  0
CIRCLE
  5
15F
100
AcDbEntity
  8
0
  6
HIDDEN
 62
     0
100
AcDbCircle
 10
145.921052
 20
120.107657
 30
0.0
 40
5.0
  0
CIRCLE
  5
160
100
AcDbEntity
  8
0
  6
HIDDEN
 62
     0
100
AcDbCircle
 10
185.921052
 20
165.107657
 30
0.0
 40
5.0
  0
LINE
  5
161
100
AcDbEntity
  8
0
  6
HIDDEN
 62
     0
100
AcDbLine
 10
61.921052
 20
152.504819
 30
0.0
 11
61.921052
 21
152.494835
 31
0.0
  0
LINE
  5
162
100
AcDbEntity
  8
0
  6
Continuous
 62
     0
100
AcDbLine
 10
108.921052
 20
112.607657
 30
0.0
 11
108.921052
 21
172.607657
 31
0.0
  0
LINE
  5
163
100
AcDbEntity
  8
0
  6
Continuous
 62
     0
100
AcDbLine
 10
66.421052
 20
188.607657
 30
0.0
 11
51.421052
 21
188.607657
 31
0.0
  0
LINE
  5
164
100
AcDbEntity
  8
0
  6
Continuous
 62
     0
100
AcDbLine
 10
55.221052
 20
141.122981
 30
0.0
 11
55.221052
 21
141.122131
 31
0.0
  0
LINE
  5
165
100
AcDbEntity
  8
0
  6
Continuous
 62
     0
100
AcDbLine
 10
55.221052
 20
150.659007
 30
0.0
 11
55.221052
 21
148.544894
 31
0.0
  0
LINE
  5
166
100
AcDbEntity
  8
0
  6
Continuous
 62
     0
100
AcDbLine
 10
55.221052
 20
150.666442
 30
0.0
 11
55.221052
 21
150.659007
 31
0.0
  0
LINE
  5
167
100
AcDbEntity
  8
0
  6
Continuous
 62
     0
100
AcDbLine
 10
55.221052
 20
141.122131
 30
0.0
 11
55.221052
 21
136.684236
 31
0.0
  0
LINE
  5
168
100
AcDbEntity
  8
0
  6
Continuous
 62
     0
100
AcDbLine
 10
55.221052
 20
134.576709
 30
0.0
 11
55.221052
 21
134.569061
 31
0.0
  0
LINE
  5
169
100
AcDbEntity
  8
0
  6
Continuous
 62
     0
100
AcDbLine
 10
55.221052
 20
150.656849
 30
0.0
 11
61.921052
 21
150.656849
 31
0.0
  0
LWPOLYLINE
  5
16A
100
AcDbEntity
  8
0
  6
HIDDEN
 62
     0
100
AcDbPolyline
 90
        8
 70
   128
 10
44.613873
 20
185.029548
 10
44.328738
 20
183.910291
 10
44.115332
 20
182.787195
 10
43.983439
 20
181.651921
 10
43.9445
 20
180.481182
 10
44.004925
 20
179.31133
 10
44.236459
 20
177.741678
 10
44.613873
 20
176.185767
  0
LINE
  5
16B
100
AcDbEntity
  8
0
  6
HIDDEN
 62
     0
100
AcDbLine
 10
139.321052
 20
156.607657
 30
0.0
 11
139.321052
 21
172.607657
 31
0.0
  0
CIRCLE
  5
16C
100
AcDbEntity
  8
0
  6
HIDDEN
 62
     0
100
AcDbCircle
 10
185.921052
 20
165.107657
 30
0.0
 40
5.0
  0
LINE
  5
16D
100
AcDbEntity
  8
0
  6
Continuous
 62
     0
100
AcDbLine
 10
55.221052
 20
132.617657
 30
0.0
 11
61.921052
 21
132.617657
 31
0.0
  0
LINE
  5
16E
100
AcDbEntity
  8
0
  6
HIDDEN
 62
     0
100
AcDbLine
 10
140.419197
 20
158.607657
 30
0.0
 11
119.459272
 21
158.607657
 31
0.0
  0
LWPOLYLINE
  5
16F
100
AcDbEntity
  8
0
  6
Continuous
 62
     0
100
AcDbPolyline
 90
        9
 70
   128
 10
44.613873
 20
185.185317
 10
44.317098
 20
185.771211
 10
44.097389
 20
186.365363
 10
43.969423
 20
186.97995
 10
43.949429
 20
187.597677
 10
44.01658
 20
188.102743
 10
44.153565
 20
188.60434
 10
44.356647
 20
189.108836
 10
44.613873
 20
189.607208
  0
LINE
  5
170
100
AcDbEntity
  8
0
  6
Continuous
 62
     0
100
AcDbLine
 10
44.58406
 20
171.659295
 30
0.0
 11
44.613873
 21
171.608107
 31
0.0
  0
CIRCLE
  5
171
100
AcDbEntity
  8
0
  6
Continuous
 62
     0
100
AcDbCircle
 10
145.921052
 20
142.607657
 30
0.0
 40
11.75
  0
LINE
  5
172
100
AcDbEntity
  8
0
  6
Continuous
 62
     0
100
AcDbLine
 10
44.613873
 20
189.607208
 30
0.0
 11
44.584053
 21
189.556008
 31
0.0
  0
LWPOLYLINE
  5
173
100
AcDbEntity
  8
0
  6
Continuous
 62
     0
100
AcDbPolyline
 90
        9
 70
   128
 10
44.613873
 20
171.608107
 10
44.317098
 20
172.194001
 10
44.097389
 20
172.788152
 10
43.969423
 20
173.402739
 10
43.949429
 20
174.020467
 10
44.01658
 20
174.525533
 10
44.153565
 20
175.02713
 10
44.356647
 20
175.531625
 10
44.613873
 20
176.029998
  0
LINE
  5
174
100
AcDbEntity
  8
0
  6
HIDDEN
 62
     0
100
AcDbLine
 10
140.401052
 20
158.607657
 30
0.0
 11
140.401052
 21
172.607657
 31
0.0
  0
LWPOLYLINE
  5
175
100
AcDbEntity
  8
0
  6
Continuous
 62
     0
100
AcDbPolyline
 90
        4
 70
   128
 10
43.921052
 20
181.499269
 10
44.062261
 20
182.768733
 10
44.308733
 20
184.03125
 10
44.613873
 20
185.185317
  0
LWPOLYLINE
  5
176
100
AcDbEntity
  8
0
  6
Continuous
 62
     0
100
AcDbPolyline
 90
        4
 70
   128
 10
44.613873
 20
176.029998
 10
44.192533
 20
177.717766
 10
43.940732
 20
179.455322
 10
43.921052
 20
179.716046
  0
LINE
  5
177
100
AcDbEntity
  8
0
  6
Continuous
 62
     0
100
AcDbLine
 10
44.613873
 20
185.185317
 30
0.0
 11
47.721052
 21
185.185317
 31
0.0
  0
LINE
  5
178
100
AcDbEntity
  8
0
  6
HIDDEN
 62
     0
100
AcDbLine
 10
119.441052
 20
172.607657
 30
0.0
 11
119.441052
 21
158.607657
 31
0.0
  0
LINE
  5
179
100
AcDbEntity
  8
0
  6
Continuous
 62
     0
100
AcDbLine
 10
55.221052
 20
148.551267
 30
0.0
 11
55.221052
 21
144.113584
 31
0.0
  0
LINE
  5
17A
100
AcDbEntity
  8
0
  6
HIDDEN
 62
     0
100
AcDbLine
 10
120.521052
 20
172.607657
 30
0.0
 11
120.521052
 21
156.607657
 31
0.0
  0
LINE
  5
17B
100
AcDbEntity
  8
0
  6
Continuous
 62
     0
100
AcDbLine
 10
43.921052
 20
181.499269
 30
0.0
 11
43.921052
 21
179.716046
 31
0.0
  0
LINE
  5
17C
100
AcDbEntity
  8
0
  6
HIDDEN
 62
     0
100
AcDbLine
 10
76.093577
 20
188.607657
 30
0.0
 11
76.093577
 21
188.587657
 31
0.0
  0
CIRCLE
  5
17D
100
AcDbEntity
  8
0
  6
Continuous
 62
     0
100
AcDbCircle
 10
145.921052
 20
142.607657
 30
0.0
 40
14.75
  0
LINE
  5
17E
100
AcDbEntity
  8
0
  6
Continuous
 62
     0
100
AcDbLine
 10
44.613873
 20
176.029998
 30
0.0
 11
47.721052
 21
176.029998
 31
0.0
  0
LINE
  5
17F
100
AcDbEntity
  8
0
  6
HIDDEN
 62
     0
100
AcDbLine
 10
211.339059
 20
156.607657
 30
0.0
 11
192.539132
 21
156.607657
 31
0.0
  0
LINE
  5
180
100
AcDbEntity
  8
0
  6
Continuous
 62
     0
100
AcDbLine
 10
43.921052
 20
172.807657
 30
0.0
 11
44.584881
 21
171.657873
 31
0.0
  0
LINE
  5
181
100
AcDbEntity
  8
0
  6
Continuous
 62
     0
100
AcDbLine
 10
43.921052
 20
188.41521
 30
0.0
 11
43.921052
 21
181.507168
 31
0.0
  0
LINE
  5
182
100
AcDbEntity
  8
0
  6
Continuous
 62
     0
100
AcDbLine
 10
44.613873
 20
171.608107
 30
0.0
 11
47.721052
 21
171.608107
 31
0.0
  0
LINE
  5
183
100
AcDbEntity
  8
0
  6
HIDDEN
 62
     0
100
AcDbLine
 10
75.669313
 20
188.607657
 30
0.0
 11
75.669313
 21
188.587657
 31
0.0
  0
LWPOLYLINE
  5
184
100
AcDbEntity
  8
0
  6
HIDDEN
 62
     0
100
AcDbPolyline
 90
        4
 70
   128
 10
43.921052
 20
186.872572
 10
44.013077
 20
186.409138
 10
44.163277
 20
185.947622
 10
44.613873
 20
185.029548
  0
LINE
  5
185
100
AcDbEntity
  8
0
  6
Continuous
 62
     0
100
AcDbLine
 10
44.584862
 20
189.55741
 30
0.0
 11
43.921052
 21
188.407657
 31
0.0
  0
LINE
  5
186
100
AcDbEntity
  8
0
  6
HIDDEN
 62
     0
100
AcDbLine
 10
80.172792
 20
188.607657
 30
0.0
 11
80.172792
 21
188.587657
 31
0.0
  0
LINE
  5
187
100
AcDbEntity
  8
0
  6
Continuous
 62
     0
100
AcDbLine
 10
44.613873
 20
189.607208
 30
0.0
 11
47.721052
 21
189.607208
 31
0.0
  0
CIRCLE
  5
188
100
AcDbEntity
  8
0
  6
Continuous
 62
     0
100
AcDbCircle
 10
185.921052
 20
142.607657
 30
0.0
 40
11.75
  0
LINE
  5
189
100
AcDbEntity
  8
0
  6
HIDDEN
 62
     0
100
AcDbLine
 10
139.339198
 20
156.607657
 30
0.0
 11
120.539271
 21
156.607657
 31
0.0
  0
CIRCLE
  5
18A
100
AcDbEntity
  8
0
  6
Continuous
 62
     0
100
AcDbCircle
 10
185.921052
 20
142.607657
 30
0.0
 40
14.75
  0
CIRCLE
  5
18B
100
AcDbEntity
  8
0
  6
Continuous
 62
     0
100
AcDbCircle
 10
185.921052
 20
142.607657
 30
0.0
 40
6.0
  0
LINE
  5
18C
100
AcDbEntity
  8
0
  6
HIDDEN
 62
     0
100
AcDbLine
 10
79.748528
 20
188.607657
 30
0.0
 11
79.748528
 21
188.587657
 31
0.0
  0
LINE
  5
18D
100
AcDbEntity
  8
0
  6
Continuous
 62
     0
100
AcDbLine
 10
43.921052
 20
179.724022
 30
0.0
 11
43.921052
 21
172.816192
 31
0.0
  0
LWPOLYLINE
  5
18E
100
AcDbEntity
  8
0
  6
HIDDEN
 62
     0
100
AcDbPolyline
 90
        4
 70
   128
 10
44.613873
 20
176.185767
 10
44.167615
 20
175.278915
 10
44.015061
 20
174.813668
 10
43.921052
 20
174.342743
  0
ENDBLK
  5
18F
100
AcDbEntity
  8
0
100
AcDbBlockEnd
  0
BLOCK
  5
192
100
AcDbEntity
  8
0
100
AcDbBlockBegin
  2
*B4
 70
     0
 10
0.0
 20
0.0
 30
0.0
  3
*B4
  1

  0
LINE
  5
193
100
AcDbEntity
  8
0
  6
Continuous
 62
   172
100
AcDbLine
 10
88.253014
 20
137.158355
 30
0.0
 11
70.561565
 21
107.073402
 31
0.0
  0
LINE
  5
194
100
AcDbEntity
  8
0
  6
Continuous
 62
   172
100
AcDbLine
 10
70.561565
 20
107.073402
 30
0.0
 11
62.153014
 21
107.073402
 31
0.0
  0
ENDBLK
  5
195
100
AcDbEntity
  8
0
100
AcDbBlockEnd
  0
BLOCK
  5
198
100
AcDbEntity
  8
0
100
AcDbBlockBegin
  2
*B5
 70
     0
 10
0.0
 20
0.0
 30
0.0
  3
*B5
  1

  0
LINE
  5
199
100
AcDbEntity
  8
0
  6
Continuous
 62
   172
100
AcDbLine
 10
68.814409
 20
108.896959
 30
0.0
 11
67.014409
 21
109.558355
 31
0.0
  0
LINE
  5
19A
100
AcDbEntity
  8
0
  6
Continuous
 62
   172
100
AcDbLine
 10
68.814409
 20
108.896959
 30
0.0
 11
67.014409
 21
108.358355
 31
0.0
  0
LINE
  5
19B
100
AcDbEntity
  8
0
  6
Continuous
 62
   172
100
AcDbLine
 10
67.614409
 20
108.896959
 30
0.0
 11
68.814409
 21
108.896959
 31
0.0
  0
LINE
  5
19C
100
AcDbEntity
  8
0
  6
Continuous
 62
   172
100
AcDbLine
 10
68.814409
 20
119.21975
 30
0.0
 11
67.014409
 21
118.558355
 31
0.0
  0
LINE
  5
19D
100
AcDbEntity
  8
0
  6
Continuous
 62
   172
100
AcDbLine
 10
68.814409
 20
119.21975
 30
0.0
 11
67.014409
 21
119.758355
 31
0.0
  0
LINE
  5
19E
100
AcDbEntity
  8
0
  6
Continuous
 62
   172
100
AcDbLine
 10
67.614409
 20
119.21975
 30
0.0
 11
68.814409
 21
119.21975
 31
0.0
  0
ARC
  5
19F
100
AcDbEntity
  8
0
  6
Continuous
 62
   172
100
AcDbCircle
 10
67.614409
 20
114.058355
 30
0.0
 40
5.161395
100
AcDbArc
 50
-270.0
 51
-90.0
  0
ENDBLK
  5
1A0
100
AcDbEntity
  8
0
100
AcDbBlockEnd
  0
BLOCK
  5
1A3
100
AcDbEntity
  8
0
100
AcDbBlockBegin
  2
*B6
 70
     0
 10
0.0
 20
0.0
 30
0.0
  3
*B6
  1

  0
ENDBLK
  5
1A4
100
AcDbEntity
  8
0
100
AcDbBlockEnd
  0
BLOCK
  5
1A6
100
AcDbEntity
  8
0
100
AcDbBlockBegin
  2
*B7
 70
     0
 10
0.0
 20
0.0
 30
0.0
  3
*B7
  1

  0
LINE
  5
1A7
100
AcDbEntity
  8
0
  6
Continuous
 62
     0
100
AcDbLine
 10
237.018137
 20
165.11642
 30
0.0
 11
237.018137
 21
120.119083
 31
0.0
  0
SOLID
  5
1A8
100
AcDbEntity
  8
0
  6
Continuous
 62
     0
100
AcDbTrace
 10
237.618042
 20
161.61662
 30
0.0
 11
237.018137
 21
165.11642
 31
0.0
 12
236.41802
 22
161.61662
 32
0.0
 13
236.41802
 23
161.61662
 33
0.0
  0
SOLID
  5
1A9
100
AcDbEntity
  8
0
  6
Continuous
 62
     0
100
AcDbTrace
 10
236.41802
 20
123.618883
 30
0.0
 11
237.018137
 21
120.119083
 31
0.0
 12
237.618042
 22
123.618883
 32
0.0
 13
237.618042
 23
123.618883
 33
0.0
  0
ENDBLK
  5
1AA
100
AcDbEntity
  8
0
100
AcDbBlockEnd
  0
BLOCK
  5
1AD
100
AcDbEntity
  8
0
100
AcDbBlockBegin
  2
*B8
 70
     0
 10
0.0
 20
0.0
 30
0.0
  3
*B8
  1

  0
LINE
  5
1AE
100
AcDbEntity
  8
0
  6
Continuous
 62
     0
100
AcDbLine
 10
249.01815
 20
112.619421
 30
0.0
 11
249.01815
 21
172.616082
 31
0.0
  0
SOLID
  5
1AF
100
AcDbEntity
  8
0
  6
Continuous
 62
     0
100
AcDbTrace
 10
248.418032
 20
116.11922
 30
0.0
 11
249.01815
 21
112.619421
 31
0.0
 12
249.618055
 22
116.11922
 32
0.0
 13
249.618055
 23
116.11922
 33
0.0
  0
SOLID
  5
1B0
100
AcDbEntity
  8
0
  6
Continuous
 62
     0
100
AcDbTrace
 10
249.618055
 20
169.116282
 30
0.0
 11
249.01815
 21
172.616082
 31
0.0
 12
248.418032
 22
169.116282
 32
0.0
 13
248.418032
 23
169.116282
 33
0.0
  0
ENDBLK
  5
1B1
100
AcDbEntity
  8
0
100
AcDbBlockEnd
  0
BLOCK
  5
1B4
100
AcDbEntity
  8
0
100
AcDbBlockBegin
  2
*B9
 70
     0
 10
0.0
 20
0.0
 30
0.0
  3
*B9
  1

  0
LINE
  5
1B5
100
AcDbEntity
  8
0
  6
Continuous
 62
     0
100
AcDbLine
 10
145.939216
 20
98.012668
 30
0.0
 11
108.939267
 21
98.012668
 31
0.0
  0
SOLID
  5
1B6
100
AcDbEntity
  8
0
  6
Continuous
 62
     0
100
AcDbTrace
 10
142.439203
 20
97.412763
 30
0.0
 11
145.939216
 21
98.012668
 31
0.0
 12
142.439203
 22
98.612573
 32
0.0
 13
142.439203
 23
98.612573
 33
0.0
  0
SOLID
  5
1B7
100
AcDbEntity
  8
0
  6
Continuous
 62
     0
100
AcDbTrace
 10
112.439279
 20
98.612573
 30
0.0
 11
108.939267
 21
98.012668
 31
0.0
 12
112.439279
 22
97.412763
 32
0.0
 13
112.439279
 23
97.412763
 33
0.0
  0
ENDBLK
  5
1B8
100
AcDbEntity
  8
0
100
AcDbBlockEnd
  0
BLOCK
  5
1BB
100
AcDbEntity
  8
0
100
AcDbBlockBegin
  2
*B10
 70
     0
 10
0.0
 20
0.0
 30
0.0
  3
*B10
  1

  0
LINE
  5
1BC
100
AcDbEntity
  8
0
  6
Continuous
 62
     0
100
AcDbLine
 10
145.939216
 20
98.012668
 30
0.0
 11
185.939115
 21
98.012668
 31
0.0
  0
SOLID
  5
1BD
100
AcDbEntity
  8
0
  6
Continuous
 62
     0
100
AcDbTrace
 10
149.439228
 20
98.612573
 30
0.0
 11
145.939216
 21
98.012668
 31
0.0
 12
149.439228
 22
97.412763
 32
0.0
 13
149.439228
 23
97.412763
 33
0.0
  0
SOLID
  5
1BE
100
AcDbEntity
  8
0
  6
Continuous
 62
     0
100
AcDbTrace
 10
182.439102
 20
97.412763
 30
0.0
 11
185.939115
 21
98.012668
 31
0.0
 12
182.439102
 22
98.612573
 32
0.0
 13
182.439102
 23
98.612573
 33
0.0
  0
ENDBLK
  5
1BF
100
AcDbEntity
  8
0
100
AcDbBlockEnd
  0
BLOCK
  5
1C2
100
AcDbEntity
  8
0
100
AcDbBlockBegin
  2
*B11
 70
     0
 10
0.0
 20
0.0
 30
0.0
  3
*B11
  1

  0
LINE
  5
1C3
100
AcDbEntity
  8
0
  6
Continuous
 62
     0
100
AcDbLine
 10
185.939115
 20
98.012668
 30
0.0
 11
222.939064
 21
98.012668
 31
0.0
  0
SOLID
  5
1C4
100
AcDbEntity
  8
0
  6
Continuous
 62
     0
100
AcDbTrace
 10
189.439127
 20
98.612573
 30
0.0
 11
185.939115
 21
98.012668
 31
0.0
 12
189.439127
 22
97.412763
 32
0.0
 13
189.439127
 23
97.412763
 33
0.0
  0
SOLID
  5
1C5
100
AcDbEntity
  8
0
  6
Continuous
 62
     0
100
AcDbTrace
 10
219.439051
 20
97.412763
 30
0.0
 11
222.939064
 21
98.012668
 31
0.0
 12
219.439051
 22
98.612573
 32
0.0
 13
219.439051
 23
98.612573
 33
0.0
  0
ENDBLK
  5
1C6
100
AcDbEntity
  8
0
100
AcDbBlockEnd
  0
BLOCK
  5
1C9
100
AcDbEntity
  8
0
100
AcDbBlockBegin
  2
*B12
 70
     0
 10
0.0
 20
0.0
 30
0.0
  3
*B12
  1

  0
LINE
  5
1CA
100
AcDbEntity
  8
0
  6
Continuous
 62
     0
100
AcDbLine
 10
129.939129
 20
85.013381
 30
0.0
 11
201.939202
 21
85.013381
 31
0.0
  0
SOLID
  5
1CB
100
AcDbEntity
  8
0
  6
Continuous
 62
     0
100
AcDbTrace
 10
133.439141
 20
85.613286
 30
0.0
 11
129.939129
 21
85.013381
 31
0.0
 12
133.439141
 22
84.413476
 32
0.0
 13
133.439141
 23
84.413476
 33
0.0
  0
SOLID
  5
1CC
100
AcDbEntity
  8
0
  6
Continuous
 62
     0
100
AcDbTrace
 10
198.439189
 20
84.413476
 30
0.0
 11
201.939202
 21
85.013381
 31
0.0
 12
198.439189
 22
85.613286
 32
0.0
 13
198.439189
 23
85.613286
 33
0.0
  0
ENDBLK
  5
1CD
100
AcDbEntity
  8
0
100
AcDbBlockEnd
  0
BLOCK
  5
1D0
100
AcDbEntity
  8
0
100
AcDbBlockBegin
  2
*B13
 70
     0
 10
0.0
 20
0.0
 30
0.0
  3
*B13
  1

  0
LINE
  5
1D1
100
AcDbEntity
  8
0
  6
Continuous
 62
     0
100
AcDbLine
 10
249.01815
 20
40.709631
 30
0.0
 11
249.01815
 21
70.708068
 31
0.0
  0
SOLID
  5
1D2
100
AcDbEntity
  8
0
  6
Continuous
 62
     0
100
AcDbTrace
 10
248.418032
 20
44.209431
 30
0.0
 11
249.01815
 21
40.709631
 31
0.0
 12
249.618055
 22
44.209431
 32
0.0
 13
249.618055
 23
44.209431
 33
0.0
  0
SOLID
  5
1D3
100
AcDbEntity
  8
0
  6
Continuous
 62
     0
100
AcDbTrace
 10
249.618055
 20
67.208268
 30
0.0
 11
249.01815
 21
70.708068
 31
0.0
 12
248.418032
 22
67.208268
 32
0.0
 13
248.418032
 23
67.208268
 33
0.0
  0
ENDBLK
  5
1D4
100
AcDbEntity
  8
0
100
AcDbBlockEnd
  0
BLOCK
  5
1D7
100
AcDbEntity
  8
0
100
AcDbBlockBegin
  2
*B14
 70
     0
 10
0.0
 20
0.0
 30
0.0
  3
*B14
  1

  0
LINE
  5
1D8
100
AcDbEntity
  8
0
  6
Continuous
 62
     0
100
AcDbLine
 10
236.018013
 20
47.709231
 30
0.0
 11
236.018013
 21
25.710518
 31
0.0
  0
SOLID
  5
1D9
100
AcDbEntity
  8
0
  6
Continuous
 62
     0
100
AcDbTrace
 10
235.418108
 20
44.209431
 30
0.0
 11
236.018013
 21
40.709631
 31
0.0
 12
236.61813
 22
44.209431
 32
0.0
 13
236.61813
 23
44.209431
 33
0.0
  0
SOLID
  5
1DA
100
AcDbEntity
  8
0
  6
Continuous
 62
     0
100
AcDbTrace
 10
236.61813
 20
29.210318
 30
0.0
 11
236.018013
 21
32.710118
 31
0.0
 12
235.418108
 22
29.210318
 32
0.0
 13
235.418108
 23
29.210318
 33
0.0
  0
ENDBLK
  5
1DB
100
AcDbEntity
  8
0
100
AcDbBlockEnd
  0
BLOCK
  5
1DE
100
AcDbEntity
  8
0
100
AcDbBlockBegin
  2
*B15
 70
     0
 10
0.0
 20
0.0
 30
0.0
  3
*B15
  1

  0
LINE
  5
1DF
100
AcDbEntity
  8
0
  6
Continuous
 62
     0
100
AcDbLine
 10
113.539247
 20
184.007905
 30
0.0
 11
146.339223
 21
184.007905
 31
0.0
  0
SOLID
  5
1E0
100
AcDbEntity
  8
0
  6
Continuous
 62
     0
100
AcDbTrace
 10
117.039259
 20
183.407787
 30
0.0
 11
120.539271
 21
184.007905
 31
0.0
 12
117.039259
 22
184.60781
 32
0.0
 13
117.039259
 23
184.60781
 33
0.0
  0
SOLID
  5
1E1
100
AcDbEntity
  8
0
  6
Continuous
 62
     0
100
AcDbTrace
 10
142.839211
 20
184.60781
 30
0.0
 11
139.339198
 21
184.007905
 31
0.0
 12
142.839211
 22
183.407787
 32
0.0
 13
142.839211
 23
183.407787
 33
0.0
  0
ENDBLK
  5
1E2
100
AcDbEntity
  8
0
100
AcDbBlockEnd
  0
BLOCK
  5
1E5
100
AcDbEntity
  8
0
100
AcDbBlockBegin
  2
*B16
 70
     0
 10
0.0
 20
0.0
 30
0.0
  3
*B16
  1

  0
LINE
  5
1E6
100
AcDbEntity
  8
0
  6
Continuous
 62
     0
100
AcDbLine
 10
175.93914
 20
21.017069
 30
0.0
 11
201.285976
 21
21.017069
 31
0.0
  0
SOLID
  5
1E7
100
AcDbEntity
  8
0
  6
Continuous
 62
     0
100
AcDbTrace
 10
179.439152
 20
20.416951
 30
0.0
 11
182.939165
 21
21.017069
 31
0.0
 12
179.439152
 22
21.616974
 32
0.0
 13
179.439152
 23
21.616974
 33
0.0
  0
SOLID
  5
1E8
100
AcDbEntity
  8
0
  6
Continuous
 62
     0
100
AcDbTrace
 10
192.439077
 20
21.616974
 30
0.0
 11
188.939065
 21
21.017069
 31
0.0
 12
192.439077
 22
20.416951
 32
0.0
 13
192.439077
 23
20.416951
 33
0.0
  0
ENDBLK
  5
1E9
100
AcDbEntity
  8
0
100
AcDbBlockEnd
  0
BLOCK
  5
1EC
100
AcDbEntity
  8
0
100
AcDbBlockBegin
  2
*B17
 70
     0
 10
0.0
 20
0.0
 30
0.0
  3
*B17
  1

  0
LINE
  5
1ED
100
AcDbEntity
  8
0
  6
Continuous
 62
     0
100
AcDbLine
 10
201.939202
 20
85.013381
 30
0.0
 11
222.939064
 21
85.013381
 31
0.0
  0
SOLID
  5
1EE
100
AcDbEntity
  8
0
  6
Continuous
 62
     0
100
AcDbTrace
 10
205.439214
 20
85.613286
 30
0.0
 11
201.939202
 21
85.013381
 31
0.0
 12
205.439214
 22
84.413476
 32
0.0
 13
205.439214
 23
84.413476
 33
0.0
  0
SOLID
  5
1EF
100
AcDbEntity
  8
0
  6
Continuous
 62
     0
100
AcDbTrace
 10
219.439051
 20
84.413476
 30
0.0
 11
222.939064
 21
85.013381
 31
0.0
 12
219.439051
 22
85.613286
 32
0.0
 13
219.439051
 23
85.613286
 33
0.0
  0
ENDBLK
  5
1F0
100
AcDbEntity
  8
0
100
AcDbBlockEnd
  0
BLOCK
  5
1F3
100
AcDbEntity
  8
0
100
AcDbBlockBegin
  2
*B18
 70
     0
 10
0.0
 20
0.0
 30
0.0
  3
*B18
  1

  0
LINE
  5
1F4
100
AcDbEntity
  8
0
  6
Continuous
 62
     0
100
AcDbLine
 10
34.018268
 20
189.614595
 30
0.0
 11
34.018268
 21
112.619421
 31
0.0
  0
SOLID
  5
1F5
100
AcDbEntity
  8
0
  6
Continuous
 62
     0
100
AcDbTrace
 10
34.618173
 20
186.115007
 30
0.0
 11
34.018268
 21
189.614595
 31
0.0
 12
33.418151
 22
186.115007
 32
0.0
 13
33.418151
 23
186.115007
 33
0.0
  0
SOLID
  5
1F6
100
AcDbEntity
  8
0
  6
Continuous
 62
     0
100
AcDbTrace
 10
33.418151
 20
116.11922
 30
0.0
 11
34.018268
 21
112.619421
 31
0.0
 12
34.618173
 22
116.11922
 32
0.0
 13
34.618173
 23
116.11922
 33
0.0
  0
ENDBLK
  5
1F7
100
AcDbEntity
  8
0
100
AcDbBlockEnd
  0
BLOCK
  5
1FA
100
AcDbEntity
  8
0
100
AcDbBlockBegin
  2
*B19
 70
     0
 10
0.0
 20
0.0
 30
0.0
  3
*B19
  1

  0
LINE
  5
1FB
100
AcDbEntity
  8
0
  6
Continuous
 62
     0
100
AcDbLine
 10
92.93918
 20
199.007017
 30
0.0
 11
222.939064
 21
199.007017
 31
0.0
  0
SOLID
  5
1FC
100
AcDbEntity
  8
0
  6
Continuous
 62
     0
100
AcDbTrace
 10
96.439192
 20
199.606922
 30
0.0
 11
92.93918
 21
199.007017
 31
0.0
 12
96.439192
 22
198.4069
 32
0.0
 13
96.439192
 23
198.4069
 33
0.0
  0
SOLID
  5
1FD
100
AcDbEntity
  8
0
  6
Continuous
 62
     0
100
AcDbTrace
 10
219.439051
 20
198.4069
 30
0.0
 11
222.939064
 21
199.007017
 31
0.0
 12
219.439051
 22
199.606922
 32
0.0
 13
219.439051
 23
199.606922
 33
0.0
  0
ENDBLK
  5
1FE
100
AcDbEntity
  8
0
100
AcDbBlockEnd
  0
BLOCK
  5
201
100
AcDbEntity
  8
0
100
AcDbBlockBegin
  2
*B20
 70
     0
 10
0.0
 20
0.0
 30
0.0
  3
*B20
  1

  0
LINE
  5
202
100
AcDbEntity
  8
0
  6
Continuous
 62
     0
100
AcDbLine
 10
92.93918
 20
199.007017
 30
0.0
 11
43.939219
 21
199.007017
 31
0.0
  0
SOLID
  5
203
100
AcDbEntity
  8
0
  6
Continuous
 62
     0
100
AcDbTrace
 10
89.439167
 20
198.4069
 30
0.0
 11
92.93918
 21
199.007017
 31
0.0
 12
89.439167
 22
199.606922
 32
0.0
 13
89.439167
 23
199.606922
 33
0.0
  0
SOLID
  5
204
100
AcDbEntity
  8
0
  6
Continuous
 62
     0
100
AcDbTrace
 10
47.439231
 20
199.606922
 30
0.0
 11
43.939219
 21
199.007017
 31
0.0
 12
47.439231
 22
198.4069
 32
0.0
 13
47.439231
 23
198.4069
 33
0.0
  0
ENDBLK
  5
205
100
AcDbEntity
  8
0
100
AcDbBlockEnd
  0
BLOCK
  5
208
100
AcDbEntity
  8
0
100
AcDbBlockBegin
  2
*B21
 70
     0
 10
0.0
 20
0.0
 30
0.0
  3
*B21
  1

  0
LINE
  5
209
100
AcDbEntity
  8
0
  6
Continuous
 62
     0
100
AcDbLine
 10
108.939267
 20
85.013381
 30
0.0
 11
129.939129
 21
85.013381
 31
0.0
  0
SOLID
  5
20A
100
AcDbEntity
  8
0
  6
Continuous
 62
     0
100
AcDbTrace
 10
112.439279
 20
85.613286
 30
0.0
 11
108.939267
 21
85.013381
 31
0.0
 12
112.439279
 22
84.413476
 32
0.0
 13
112.439279
 23
84.413476
 33
0.0
  0
SOLID
  5
20B
100
AcDbEntity
  8
0
  6
Continuous
 62
     0
100
AcDbTrace
 10
126.439116
 20
84.413476
 30
0.0
 11
129.939129
 21
85.013381
 31
0.0
 12
126.439116
 22
85.613286
 32
0.0
 13
126.439116
 23
85.613286
 33
0.0
  0
ENDBLK
  5
20C
100
AcDbEntity
  8
0
100
AcDbBlockEnd
  0
BLOCK
  5
20F
100
AcDbEntity
  8
0
100
AcDbBlockBegin
  2
*B22
 70
     0
 10
0.0
 20
0.0
 30
0.0
  3
*B22
  1

  0
LINE
  5
210
100
AcDbEntity
  8
0
  6
Continuous
 62
     8
100
AcDbLine
 10
92.93918
 20
173.615995
 30
0.0
 11
92.93918
 21
201.006842
 31
0.0
  0
ENDBLK
  5
211
100
AcDbEntity
  8
0
100
AcDbBlockEnd
  0
BLOCK
  5
214
100
AcDbEntity
  8
0
100
AcDbBlockBegin
  2
*B23
 70
     0
 10
0.0
 20
0.0
 30
0.0
  3
*B23
  1

  0
LINE
  5
215
100
AcDbEntity
  8
0
  6
Continuous
 62
     8
100
AcDbLine
 10
182.939165
 20
19.017031
 30
0.0
 11
182.939165
 21
31.710206
 31
0.0
  0
ENDBLK
  5
216
100
AcDbEntity
  8
0
100
AcDbBlockEnd
  0
BLOCK
  5
219
100
AcDbEntity
  8
0
100
AcDbBlockBegin
  2
*B24
 70
     0
 10
0.0
 20
0.0
 30
0.0
  3
*B24
  1

  0
LINE
  5
21A
100
AcDbEntity
  8
0
  6
Continuous
 62
     8
100
AcDbLine
 10
222.939064
 20
71.70798
 30
0.0
 11
222.939064
 21
87.013206
 31
0.0
  0
ENDBLK
  5
21B
100
AcDbEntity
  8
0
100
AcDbBlockEnd
  0
BLOCK
  5
21E
100
AcDbEntity
  8
0
100
AcDbBlockBegin
  2
*B25
 70
     0
 10
0.0
 20
0.0
 30
0.0
  3
*B25
  1

  0
LINE
  5
21F
100
AcDbEntity
  8
0
  6
Continuous
 62
     8
100
AcDbLine
 10
222.939064
 20
96.012843
 30
0.0
 11
222.939064
 21
111.619508
 31
0.0
  0
LINE
  5
220
100
AcDbEntity
  8
0
  6
Continuous
 62
     8
100
AcDbLine
 10
222.939064
 20
173.615995
 30
0.0
 11
222.939064
 21
201.006842
 31
0.0
  0
ENDBLK
  5
221
100
AcDbEntity
  8
0
100
AcDbBlockEnd
  0
BLOCK
  5
224
100
AcDbEntity
  8
0
100
AcDbBlockBegin
  2
*B26
 70
     0
 10
0.0
 20
0.0
 30
0.0
  3
*B26
  1

  0
LINE
  5
225
100
AcDbEntity
  8
0
  6
Continuous
 62
     8
100
AcDbLine
 10
235.0181
 20
120.119083
 30
0.0
 11
239.017962
 21
120.119083
 31
0.0
  0
LINE
  5
226
100
AcDbEntity
  8
0
  6
Continuous
 62
     8
100
AcDbLine
 10
137.939278
 20
120.119083
 30
0.0
 11
144.439241
 21
120.119083
 31
0.0
  0
LINE
  5
227
100
AcDbEntity
  8
0
  6
Continuous
 62
     8
100
AcDbLine
 10
147.439191
 20
120.119083
 30
0.0
 11
154.439215
 21
120.119083
 31
0.0
  0
LINE
  5
228
100
AcDbEntity
  8
0
  6
Continuous
 62
     8
100
AcDbLine
 10
155.439128
 20
120.119083
 30
0.0
 11
156.439253
 21
120.119083
 31
0.0
  0
LINE
  5
229
100
AcDbEntity
  8
0
  6
Continuous
 62
     8
100
AcDbLine
 10
157.439165
 20
120.119083
 30
0.0
 11
164.43919
 21
120.119083
 31
0.0
  0
LINE
  5
22A
100
AcDbEntity
  8
0
  6
Continuous
 62
     8
100
AcDbLine
 10
167.43914
 20
120.119083
 30
0.0
 11
173.261448
 21
120.119083
 31
0.0
  0
LINE
  5
22B
100
AcDbEntity
  8
0
  6
Continuous
 62
     8
100
AcDbLine
 10
174.261573
 20
120.119083
 30
0.0
 11
175.261485
 21
120.119083
 31
0.0
  0
LINE
  5
22C
100
AcDbEntity
  8
0
  6
Continuous
 62
     8
100
AcDbLine
 10
176.26161
 20
120.119083
 30
0.0
 11
182.083918
 21
120.119083
 31
0.0
  0
LINE
  5
22D
100
AcDbEntity
  8
0
  6
Continuous
 62
     8
100
AcDbLine
 10
183.08383
 20
120.119083
 30
0.0
 11
184.083955
 21
120.119083
 31
0.0
  0
LINE
  5
22E
100
AcDbEntity
  8
0
  6
Continuous
 62
     8
100
AcDbLine
 10
185.083868
 20
120.119083
 30
0.0
 11
190.906175
 21
120.119083
 31
0.0
  0
LINE
  5
22F
100
AcDbEntity
  8
0
  6
Continuous
 62
     8
100
AcDbLine
 10
191.9063
 20
120.119083
 30
0.0
 11
192.906213
 21
120.119083
 31
0.0
  0
LINE
  5
230
100
AcDbEntity
  8
0
  6
Continuous
 62
     8
100
AcDbLine
 10
193.906337
 20
120.119083
 30
0.0
 11
199.728645
 21
120.119083
 31
0.0
  0
LINE
  5
231
100
AcDbEntity
  8
0
  6
Continuous
 62
     8
100
AcDbLine
 10
200.728558
 20
120.119083
 30
0.0
 11
201.728683
 21
120.119083
 31
0.0
  0
LINE
  5
232
100
AcDbEntity
  8
0
  6
Continuous
 62
     8
100
AcDbLine
 10
202.728595
 20
120.119083
 30
0.0
 11
208.550903
 21
120.119083
 31
0.0
  0
LINE
  5
233
100
AcDbEntity
  8
0
  6
Continuous
 62
     8
100
AcDbLine
 10
209.551028
 20
120.119083
 30
0.0
 11
210.55094
 21
120.119083
 31
0.0
  0
LINE
  5
234
100
AcDbEntity
  8
0
  6
Continuous
 62
     8
100
AcDbLine
 10
211.551065
 20
120.119083
 30
0.0
 11
217.373373
 21
120.119083
 31
0.0
  0
LINE
  5
235
100
AcDbEntity
  8
0
  6
Continuous
 62
     8
100
AcDbLine
 10
218.373285
 20
120.119083
 30
0.0
 11
219.37341
 21
120.119083
 31
0.0
  0
LINE
  5
236
100
AcDbEntity
  8
0
  6
Continuous
 62
     8
100
AcDbLine
 10
220.373322
 20
120.119083
 30
0.0
 11
226.19563
 21
120.119083
 31
0.0
  0
LINE
  5
237
100
AcDbEntity
  8
0
  6
Continuous
 62
     8
100
AcDbLine
 10
227.195755
 20
120.119083
 30
0.0
 11
228.195668
 21
120.119083
 31
0.0
  0
LINE
  5
238
100
AcDbEntity
  8
0
  6
Continuous
 62
     8
100
AcDbLine
 10
229.195792
 20
120.119083
 30
0.0
 11
235.0181
 21
120.119083
 31
0.0
  0
ENDBLK
  5
239
100
AcDbEntity
  8
0
100
AcDbBlockEnd
  0
BLOCK
  5
23C
100
AcDbEntity
  8
0
100
AcDbBlockBegin
  2
*B27
 70
     0
 10
0.0
 20
0.0
 30
0.0
  3
*B27
  1

  0
LINE
  5
23D
100
AcDbEntity
  8
0
  6
Continuous
 62
     8
100
AcDbLine
 10
44.439281
 20
180.615595
 30
0.0
 11
50.772485
 21
180.615595
 31
0.0
  0
LINE
  5
23E
100
AcDbEntity
  8
0
  6
Continuous
 62
     8
100
AcDbLine
 10
51.77261
 20
180.615595
 30
0.0
 11
52.772522
 21
180.615595
 31
0.0
  0
LINE
  5
23F
100
AcDbEntity
  8
0
  6
Continuous
 62
     8
100
AcDbLine
 10
53.772647
 20
180.615595
 30
0.0
 11
60.105851
 21
180.615595
 31
0.0
  0
LINE
  5
240
100
AcDbEntity
  8
0
  6
Continuous
 62
     8
100
AcDbLine
 10
61.105976
 20
180.615595
 30
0.0
 11
62.105889
 21
180.615595
 31
0.0
  0
LINE
  5
241
100
AcDbEntity
  8
0
  6
Continuous
 62
     8
100
AcDbLine
 10
63.105801
 20
180.615595
 30
0.0
 11
69.439218
 21
180.615595
 31
0.0
  0
ENDBLK
  5
242
100
AcDbEntity
  8
0
100
AcDbBlockEnd
  0
BLOCK
  5
245
100
AcDbEntity
  8
0
100
AcDbBlockBegin
  2
*B28
 70
     0
 10
0.0
 20
0.0
 30
0.0
  3
*B28
  1

  0
LINE
  5
246
100
AcDbEntity
  8
0
  6
Continuous
 62
     8
100
AcDbLine
 10
201.939202
 20
83.013556
 30
0.0
 11
201.939202
 21
87.013206
 31
0.0
  0
LINE
  5
247
100
AcDbEntity
  8
0
  6
Continuous
 62
     8
100
AcDbLine
 10
201.939202
 20
43.309573
 30
0.0
 11
201.939202
 21
54.208981
 31
0.0
  0
LINE
  5
248
100
AcDbEntity
  8
0
  6
Continuous
 62
     8
100
AcDbLine
 10
201.939202
 20
57.208718
 30
0.0
 11
201.939202
 21
63.810435
 31
0.0
  0
LINE
  5
249
100
AcDbEntity
  8
0
  6
Continuous
 62
     8
100
AcDbLine
 10
201.939202
 20
64.810347
 30
0.0
 11
201.939202
 21
65.81026
 31
0.0
  0
LINE
  5
24A
100
AcDbEntity
  8
0
  6
Continuous
 62
     8
100
AcDbLine
 10
201.939202
 20
66.810172
 30
0.0
 11
201.939202
 21
73.411889
 31
0.0
  0
LINE
  5
24B
100
AcDbEntity
  8
0
  6
Continuous
 62
     8
100
AcDbLine
 10
201.939202
 20
74.412014
 30
0.0
 11
201.939202
 21
75.411927
 31
0.0
  0
LINE
  5
24C
100
AcDbEntity
  8
0
  6
Continuous
 62
     8
100
AcDbLine
 10
201.939202
 20
76.411839
 30
0.0
 11
201.939202
 21
83.013556
 31
0.0
  0
ENDBLK
  5
24D
100
AcDbEntity
  8
0
100
AcDbBlockEnd
  0
BLOCK
  5
250
100
AcDbEntity
  8
0
100
AcDbBlockBegin
  2
*B29
 70
     0
 10
0.0
 20
0.0
 30
0.0
  3
*B29
  1

  0
LINE
  5
251
100
AcDbEntity
  8
0
  6
Continuous
 62
     8
100
AcDbLine
 10
201.939202
 20
153.617108
 30
0.0
 11
201.939202
 21
158.950187
 31
0.0
  0
LINE
  5
252
100
AcDbEntity
  8
0
  6
Continuous
 62
     8
100
AcDbLine
 10
201.939202
 20
159.950099
 30
0.0
 11
201.939202
 21
160.950012
 31
0.0
  0
LINE
  5
253
100
AcDbEntity
  8
0
  6
Continuous
 62
     8
100
AcDbLine
 10
201.939202
 20
161.950137
 30
0.0
 11
201.939202
 21
167.283003
 31
0.0
  0
LINE
  5
254
100
AcDbEntity
  8
0
  6
Continuous
 62
     8
100
AcDbLine
 10
201.939202
 20
168.283128
 30
0.0
 11
201.939202
 21
169.283041
 31
0.0
  0
LINE
  5
255
100
AcDbEntity
  8
0
  6
Continuous
 62
     8
100
AcDbLine
 10
201.939202
 20
170.282953
 30
0.0
 11
201.939202
 21
175.616032
 31
0.0
  0
ENDBLK
  5
256
100
AcDbEntity
  8
0
100
AcDbBlockEnd
  0
BLOCK
  5
259
100
AcDbEntity
  8
0
100
AcDbBlockBegin
  2
*B30
 70
     0
 10
0.0
 20
0.0
 30
0.0
  3
*B30
  1

  0
LINE
  5
25A
100
AcDbEntity
  8
0
  6
Continuous
 62
     8
100
AcDbLine
 10
120.539271
 20
173.615995
 30
0.0
 11
120.539271
 21
186.00773
 31
0.0
  0
ENDBLK
  5
25B
100
AcDbEntity
  8
0
100
AcDbBlockEnd
  0
BLOCK
  5
25E
100
AcDbEntity
  8
0
100
AcDbBlockBegin
  2
*B31
 70
     0
 10
0.0
 20
0.0
 30
0.0
  3
*B31
  1

  0
LINE
  5
25F
100
AcDbEntity
  8
0
  6
Continuous
 62
     8
100
AcDbLine
 10
32.018231
 20
189.614595
 30
0.0
 11
43.632043
 21
189.614595
 31
0.0
  0
ENDBLK
  5
260
100
AcDbEntity
  8
0
100
AcDbBlockEnd
  0
BLOCK
  5
263
100
AcDbEntity
  8
0
100
AcDbBlockBegin
  2
*B32
 70
     0
 10
0.0
 20
0.0
 30
0.0
  3
*B32
  1

  0
LINE
  5
264
100
AcDbEntity
  8
0
  6
Continuous
 62
     8
100
AcDbLine
 10
129.939129
 20
83.013556
 30
0.0
 11
129.939129
 21
87.013206
 31
0.0
  0
LINE
  5
265
100
AcDbEntity
  8
0
  6
Continuous
 62
     8
100
AcDbLine
 10
129.939129
 20
43.309573
 30
0.0
 11
129.939129
 21
54.208981
 31
0.0
  0
LINE
  5
266
100
AcDbEntity
  8
0
  6
Continuous
 62
     8
100
AcDbLine
 10
129.939129
 20
57.208718
 30
0.0
 11
129.939129
 21
63.810435
 31
0.0
  0
LINE
  5
267
100
AcDbEntity
  8
0
  6
Continuous
 62
     8
100
AcDbLine
 10
129.939129
 20
64.810347
 30
0.0
 11
129.939129
 21
65.81026
 31
0.0
  0
LINE
  5
268
100
AcDbEntity
  8
0
  6
Continuous
 62
     8
100
AcDbLine
 10
129.939129
 20
66.810172
 30
0.0
 11
129.939129
 21
73.411889
 31
0.0
  0
LINE
  5
269
100
AcDbEntity
  8
0
  6
Continuous
 62
     8
100
AcDbLine
 10
129.939129
 20
74.412014
 30
0.0
 11
129.939129
 21
75.411927
 31
0.0
  0
LINE
  5
26A
100
AcDbEntity
  8
0
  6
Continuous
 62
     8
100
AcDbLine
 10
129.939129
 20
76.411839
 30
0.0
 11
129.939129
 21
83.013556
 31
0.0
  0
ENDBLK
  5
26B
100
AcDbEntity
  8
0
100
AcDbBlockEnd
  0
BLOCK
  5
26E
100
AcDbEntity
  8
0
100
AcDbBlockBegin
  2
*B33
 70
     0
 10
0.0
 20
0.0
 30
0.0
  3
*B33
  1

  0
LINE
  5
26F
100
AcDbEntity
  8
0
  6
Continuous
 62
     8
100
AcDbLine
 10
129.939129
 20
153.617108
 30
0.0
 11
129.939129
 21
158.950187
 31
0.0
  0
LINE
  5
270
100
AcDbEntity
  8
0
  6
Continuous
 62
     8
100
AcDbLine
 10
129.939129
 20
159.950099
 30
0.0
 11
129.939129
 21
160.950012
 31
0.0
  0
LINE
  5
271
100
AcDbEntity
  8
0
  6
Continuous
 62
     8
100
AcDbLine
 10
129.939129
 20
161.950137
 30
0.0
 11
129.939129
 21
167.283003
 31
0.0
  0
LINE
  5
272
100
AcDbEntity
  8
0
  6
Continuous
 62
     8
100
AcDbLine
 10
129.939129
 20
168.283128
 30
0.0
 11
129.939129
 21
169.283041
 31
0.0
  0
LINE
  5
273
100
AcDbEntity
  8
0
  6
Continuous
 62
     8
100
AcDbLine
 10
129.939129
 20
170.282953
 30
0.0
 11
129.939129
 21
175.616032
 31
0.0
  0
ENDBLK
  5
274
100
AcDbEntity
  8
0
100
AcDbBlockEnd
  0
BLOCK
  5
277
100
AcDbEntity
  8
0
100
AcDbBlockBegin
  2
*B34
 70
     0
 10
0.0
 20
0.0
 30
0.0
  3
*B34
  1

  0
LINE
  5
278
100
AcDbEntity
  8
0
  6
Continuous
 62
     8
100
AcDbLine
 10
139.339198
 20
173.615995
 30
0.0
 11
139.339198
 21
186.00773
 31
0.0
  0
ENDBLK
  5
279
100
AcDbEntity
  8
0
100
AcDbBlockEnd
  0
BLOCK
  5
27C
100
AcDbEntity
  8
0
100
AcDbBlockBegin
  2
*B35
 70
     0
 10
0.0
 20
0.0
 30
0.0
  3
*B35
  1

  0
LINE
  5
27D
100
AcDbEntity
  8
0
  6
Continuous
 62
     8
100
AcDbLine
 10
165.939165
 20
109.619683
 30
0.0
 11
165.939165
 21
118.619108
 31
0.0
  0
LINE
  5
27E
100
AcDbEntity
  8
0
  6
Continuous
 62
     8
100
AcDbLine
 10
165.939165
 20
121.619058
 30
0.0
 11
165.939165
 21
126.761586
 31
0.0
  0
LINE
  5
27F
100
AcDbEntity
  8
0
  6
Continuous
 62
     8
100
AcDbLine
 10
165.939165
 20
127.761499
 30
0.0
 11
165.939165
 21
128.761411
 31
0.0
  0
LINE
  5
280
100
AcDbEntity
  8
0
  6
Continuous
 62
     8
100
AcDbLine
 10
165.939165
 20
129.761324
 30
0.0
 11
165.939165
 21
134.903852
 31
0.0
  0
LINE
  5
281
100
AcDbEntity
  8
0
  6
Continuous
 62
     8
100
AcDbLine
 10
165.939165
 20
135.903977
 30
0.0
 11
165.939165
 21
136.90389
 31
0.0
  0
LINE
  5
282
100
AcDbEntity
  8
0
  6
Continuous
 62
     8
100
AcDbLine
 10
165.939165
 20
137.903802
 30
0.0
 11
165.939165
 21
143.046331
 31
0.0
  0
LINE
  5
283
100
AcDbEntity
  8
0
  6
Continuous
 62
     8
100
AcDbLine
 10
165.939165
 20
144.046243
 30
0.0
 11
165.939165
 21
145.046156
 31
0.0
  0
LINE
  5
284
100
AcDbEntity
  8
0
  6
Continuous
 62
     8
100
AcDbLine
 10
165.939165
 20
146.046281
 30
0.0
 11
165.939165
 21
151.188809
 31
0.0
  0
LINE
  5
285
100
AcDbEntity
  8
0
  6
Continuous
 62
     8
100
AcDbLine
 10
165.939165
 20
152.188722
 30
0.0
 11
165.939165
 21
153.188634
 31
0.0
  0
LINE
  5
286
100
AcDbEntity
  8
0
  6
Continuous
 62
     8
100
AcDbLine
 10
165.939165
 20
154.188547
 30
0.0
 11
165.939165
 21
159.331075
 31
0.0
  0
LINE
  5
287
100
AcDbEntity
  8
0
  6
Continuous
 62
     8
100
AcDbLine
 10
165.939165
 20
160.330988
 30
0.0
 11
165.939165
 21
161.331113
 31
0.0
  0
LINE
  5
288
100
AcDbEntity
  8
0
  6
Continuous
 62
     8
100
AcDbLine
 10
165.939165
 20
162.331025
 30
0.0
 11
165.939165
 21
167.473554
 31
0.0
  0
LINE
  5
289
100
AcDbEntity
  8
0
  6
Continuous
 62
     8
100
AcDbLine
 10
165.939165
 20
168.473466
 30
0.0
 11
165.939165
 21
169.473379
 31
0.0
  0
LINE
  5
28A
100
AcDbEntity
  8
0
  6
Continuous
 62
     8
100
AcDbLine
 10
165.939165
 20
170.473291
 30
0.0
 11
165.939165
 21
175.616032
 31
0.0
  0
ENDBLK
  5
28B
100
AcDbEntity
  8
0
100
AcDbBlockEnd
  0
BLOCK
  5
28E
100
AcDbEntity
  8
0
100
AcDbBlockBegin
  2
*B36
 70
     0
 10
0.0
 20
0.0
 30
0.0
  3
*B36
  1

  0
LINE
  5
28F
100
AcDbEntity
  8
0
  6
Continuous
 62
     8
100
AcDbLine
 10
44.439281
 20
55.708743
 30
0.0
 11
50.18915
 21
55.708743
 31
0.0
  0
LINE
  5
290
100
AcDbEntity
  8
0
  6
Continuous
 62
     8
100
AcDbLine
 10
51.189275
 20
55.708743
 30
0.0
 11
52.189187
 21
55.708743
 31
0.0
  0
LINE
  5
291
100
AcDbEntity
  8
0
  6
Continuous
 62
     8
100
AcDbLine
 10
53.189312
 20
55.708743
 30
0.0
 11
58.939181
 21
55.708743
 31
0.0
  0
LINE
  5
292
100
AcDbEntity
  8
0
  6
Continuous
 62
     8
100
AcDbLine
 10
59.939306
 20
55.708743
 30
0.0
 11
60.939218
 21
55.708743
 31
0.0
  0
LINE
  5
293
100
AcDbEntity
  8
0
  6
Continuous
 62
     8
100
AcDbLine
 10
61.939131
 20
55.708743
 30
0.0
 11
67.689212
 21
55.708743
 31
0.0
  0
LINE
  5
294
100
AcDbEntity
  8
0
  6
Continuous
 62
     8
100
AcDbLine
 10
68.689124
 20
55.708743
 30
0.0
 11
69.689249
 21
55.708743
 31
0.0
  0
LINE
  5
295
100
AcDbEntity
  8
0
  6
Continuous
 62
     8
100
AcDbLine
 10
70.689162
 20
55.708743
 30
0.0
 11
76.439243
 21
55.708743
 31
0.0
  0
LINE
  5
296
100
AcDbEntity
  8
0
  6
Continuous
 62
     8
100
AcDbLine
 10
79.439193
 20
55.708743
 30
0.0
 11
85.105788
 21
55.708743
 31
0.0
  0
LINE
  5
297
100
AcDbEntity
  8
0
  6
Continuous
 62
     8
100
AcDbLine
 10
86.105913
 20
55.708743
 30
0.0
 11
87.105826
 21
55.708743
 31
0.0
  0
LINE
  5
298
100
AcDbEntity
  8
0
  6
Continuous
 62
     8
100
AcDbLine
 10
88.105951
 20
55.708743
 30
0.0
 11
93.772546
 21
55.708743
 31
0.0
  0
LINE
  5
299
100
AcDbEntity
  8
0
  6
Continuous
 62
     8
100
AcDbLine
 10
94.772459
 20
55.708743
 30
0.0
 11
95.772584
 21
55.708743
 31
0.0
  0
LINE
  5
29A
100
AcDbEntity
  8
0
  6
Continuous
 62
     8
100
AcDbLine
 10
96.772496
 20
55.708743
 30
0.0
 11
102.439304
 21
55.708743
 31
0.0
  0
LINE
  5
29B
100
AcDbEntity
  8
0
  6
Continuous
 62
     8
100
AcDbLine
 10
103.439217
 20
55.708743
 30
0.0
 11
104.439129
 21
55.708743
 31
0.0
  0
LINE
  5
29C
100
AcDbEntity
  8
0
  6
Continuous
 62
     8
100
AcDbLine
 10
105.439254
 20
55.708743
 30
0.0
 11
111.10585
 21
55.708743
 31
0.0
  0
LINE
  5
29D
100
AcDbEntity
  8
0
  6
Continuous
 62
     8
100
AcDbLine
 10
112.105762
 20
55.708743
 30
0.0
 11
113.105887
 21
55.708743
 31
0.0
  0
LINE
  5
29E
100
AcDbEntity
  8
0
  6
Continuous
 62
     8
100
AcDbLine
 10
114.1058
 20
55.708743
 30
0.0
 11
119.772608
 21
55.708743
 31
0.0
  0
LINE
  5
29F
100
AcDbEntity
  8
0
  6
Continuous
 62
     8
100
AcDbLine
 10
120.772521
 20
55.708743
 30
0.0
 11
121.772433
 21
55.708743
 31
0.0
  0
LINE
  5
2A0
100
AcDbEntity
  8
0
  6
Continuous
 62
     8
100
AcDbLine
 10
122.772558
 20
55.708743
 30
0.0
 11
128.439154
 21
55.708743
 31
0.0
  0
LINE
  5
2A1
100
AcDbEntity
  8
0
  6
Continuous
 62
     8
100
AcDbLine
 10
131.439104
 20
55.708743
 30
0.0
 11
136.439091
 21
55.708743
 31
0.0
  0
LINE
  5
2A2
100
AcDbEntity
  8
0
  6
Continuous
 62
     8
100
AcDbLine
 10
137.439216
 20
55.708743
 30
0.0
 11
138.439128
 21
55.708743
 31
0.0
  0
LINE
  5
2A3
100
AcDbEntity
  8
0
  6
Continuous
 62
     8
100
AcDbLine
 10
139.439253
 20
55.708743
 30
0.0
 11
144.439241
 21
55.708743
 31
0.0
  0
LINE
  5
2A4
100
AcDbEntity
  8
0
  6
Continuous
 62
     8
100
AcDbLine
 10
145.439153
 20
55.708743
 30
0.0
 11
146.439278
 21
55.708743
 31
0.0
  0
LINE
  5
2A5
100
AcDbEntity
  8
0
  6
Continuous
 62
     8
100
AcDbLine
 10
147.439191
 20
55.708743
 30
0.0
 11
152.439178
 21
55.708743
 31
0.0
  0
LINE
  5
2A6
100
AcDbEntity
  8
0
  6
Continuous
 62
     8
100
AcDbLine
 10
153.43909
 20
55.708743
 30
0.0
 11
154.439215
 21
55.708743
 31
0.0
  0
LINE
  5
2A7
100
AcDbEntity
  8
0
  6
Continuous
 62
     8
100
AcDbLine
 10
155.439128
 20
55.708743
 30
0.0
 11
160.439115
 21
55.708743
 31
0.0
  0
LINE
  5
2A8
100
AcDbEntity
  8
0
  6
Continuous
 62
     8
100
AcDbLine
 10
161.43924
 20
55.708743
 30
0.0
 11
162.439153
 21
55.708743
 31
0.0
  0
LINE
  5
2A9
100
AcDbEntity
  8
0
  6
Continuous
 62
     8
100
AcDbLine
 10
163.439065
 20
55.708743
 30
0.0
 11
168.439265
 21
55.708743
 31
0.0
  0
LINE
  5
2AA
100
AcDbEntity
  8
0
  6
Continuous
 62
     8
100
AcDbLine
 10
169.439178
 20
55.708743
 30
0.0
 11
170.43909
 21
55.708743
 31
0.0
  0
LINE
  5
2AB
100
AcDbEntity
  8
0
  6
Continuous
 62
     8
100
AcDbLine
 10
171.439215
 20
55.708743
 30
0.0
 11
176.439202
 21
55.708743
 31
0.0
  0
LINE
  5
2AC
100
AcDbEntity
  8
0
  6
Continuous
 62
     8
100
AcDbLine
 10
177.439115
 20
55.708743
 30
0.0
 11
178.43924
 21
55.708743
 31
0.0
  0
LINE
  5
2AD
100
AcDbEntity
  8
0
  6
Continuous
 62
     8
100
AcDbLine
 10
179.439152
 20
55.708743
 30
0.0
 11
184.43914
 21
55.708743
 31
0.0
  0
LINE
  5
2AE
100
AcDbEntity
  8
0
  6
Continuous
 62
     8
100
AcDbLine
 10
185.439052
 20
55.708743
 30
0.0
 11
186.439177
 21
55.708743
 31
0.0
  0
LINE
  5
2AF
100
AcDbEntity
  8
0
  6
Continuous
 62
     8
100
AcDbLine
 10
187.43909
 20
55.708743
 30
0.0
 11
192.439077
 21
55.708743
 31
0.0
  0
LINE
  5
2B0
100
AcDbEntity
  8
0
  6
Continuous
 62
     8
100
AcDbLine
 10
193.439202
 20
55.708743
 30
0.0
 11
194.439114
 21
55.708743
 31
0.0
  0
LINE
  5
2B1
100
AcDbEntity
  8
0
  6
Continuous
 62
     8
100
AcDbLine
 10
195.439239
 20
55.708743
 30
0.0
 11
200.439227
 21
55.708743
 31
0.0
  0
LINE
  5
2B2
100
AcDbEntity
  8
0
  6
Continuous
 62
     8
100
AcDbLine
 10
203.439177
 20
55.708743
 30
0.0
 11
208.939226
 21
55.708743
 31
0.0
  0
LINE
  5
2B3
100
AcDbEntity
  8
0
  6
Continuous
 62
     8
100
AcDbLine
 10
209.939139
 20
55.708743
 30
0.0
 11
210.939051
 21
55.708743
 31
0.0
  0
LINE
  5
2B4
100
AcDbEntity
  8
0
  6
Continuous
 62
     8
100
AcDbLine
 10
211.939176
 20
55.708743
 30
0.0
 11
217.439226
 21
55.708743
 31
0.0
  0
LINE
  5
2B5
100
AcDbEntity
  8
0
  6
Continuous
 62
     8
100
AcDbLine
 10
218.439139
 20
55.708743
 30
0.0
 11
219.439051
 21
55.708743
 31
0.0
  0
LINE
  5
2B6
100
AcDbEntity
  8
0
  6
Continuous
 62
     8
100
AcDbLine
 10
220.439176
 20
55.708743
 30
0.0
 11
225.939226
 21
55.708743
 31
0.0
  0
ENDBLK
  5
2B7
100
AcDbEntity
  8
0
100
AcDbBlockEnd
  0
BLOCK
  5
2BA
100
AcDbEntity
  8
0
100
AcDbBlockBegin
  2
*B37
 70
     0
 10
0.0
 20
0.0
 30
0.0
  3
*B37
  1

  0
LINE
  5
2BB
100
AcDbEntity
  8
0
  6
Continuous
 62
     8
100
AcDbLine
 10
108.939267
 20
71.70798
 30
0.0
 11
108.939267
 21
87.013206
 31
0.0
  0
ENDBLK
  5
2BC
100
AcDbEntity
  8
0
100
AcDbBlockEnd
  0
BLOCK
  5
2BF
100
AcDbEntity
  8
0
100
AcDbBlockBegin
  2
*B38
 70
     0
 10
0.0
 20
0.0
 30
0.0
  3
*B38
  1

  0
LINE
  5
2C0
100
AcDbEntity
  8
0
  6
Continuous
 62
     8
100
AcDbLine
 10
77.939218
 20
49.459237
 30
0.0
 11
77.939218
 21
54.208981
 31
0.0
  0
LINE
  5
2C1
100
AcDbEntity
  8
0
  6
Continuous
 62
     8
100
AcDbLine
 10
77.939218
 20
57.208718
 30
0.0
 11
77.939218
 21
61.958462
 31
0.0
  0
ENDBLK
  5
2C2
100
AcDbEntity
  8
0
100
AcDbBlockEnd
  0
BLOCK
  5
2C5
100
AcDbEntity
  8
0
100
AcDbBlockBegin
  2
*B39
 70
     0
 10
0.0
 20
0.0
 30
0.0
  3
*B39
  1

  0
LINE
  5
2C6
100
AcDbEntity
  8
0
  6
Continuous
 62
     8
100
AcDbLine
 10
43.939219
 20
189.415122
 30
0.0
 11
43.939219
 21
201.006842
 31
0.0
  0
ENDBLK
  5
2C7
100
AcDbEntity
  8
0
100
AcDbBlockEnd
  0
BLOCK
  5
2CA
100
AcDbEntity
  8
0
100
AcDbBlockBegin
  2
*B40
 70
     0
 10
0.0
 20
0.0
 30
0.0
  3
*B40
  1

  0
LINE
  5
2CB
100
AcDbEntity
  8
0
  6
Continuous
 62
     8
100
AcDbLine
 10
185.939115
 20
96.012843
 30
0.0
 11
185.939115
 21
100.012493
 31
0.0
  0
LINE
  5
2CC
100
AcDbEntity
  8
0
  6
Continuous
 62
     8
100
AcDbLine
 10
185.939115
 20
100.012493
 30
0.0
 11
185.939115
 21
105.833739
 31
0.0
  0
LINE
  5
2CD
100
AcDbEntity
  8
0
  6
Continuous
 62
     8
100
AcDbLine
 10
185.939115
 20
106.833651
 30
0.0
 11
185.939115
 21
107.833564
 31
0.0
  0
LINE
  5
2CE
100
AcDbEntity
  8
0
  6
Continuous
 62
     8
100
AcDbLine
 10
185.939115
 20
108.833476
 30
0.0
 11
185.939115
 21
114.654721
 31
0.0
  0
LINE
  5
2CF
100
AcDbEntity
  8
0
  6
Continuous
 62
     8
100
AcDbLine
 10
185.939115
 20
115.654634
 30
0.0
 11
185.939115
 21
116.654759
 31
0.0
  0
LINE
  5
2D0
100
AcDbEntity
  8
0
  6
Continuous
 62
     8
100
AcDbLine
 10
185.939115
 20
117.654671
 30
0.0
 11
185.939115
 21
123.475917
 31
0.0
  0
LINE
  5
2D1
100
AcDbEntity
  8
0
  6
Continuous
 62
     8
100
AcDbLine
 10
185.939115
 20
124.475829
 30
0.0
 11
185.939115
 21
125.475742
 31
0.0
  0
LINE
  5
2D2
100
AcDbEntity
  8
0
  6
Continuous
 62
     8
100
AcDbLine
 10
185.939115
 20
126.475654
 30
0.0
 11
185.939115
 21
132.2969
 31
0.0
  0
LINE
  5
2D3
100
AcDbEntity
  8
0
  6
Continuous
 62
     8
100
AcDbLine
 10
185.939115
 20
133.296812
 30
0.0
 11
185.939115
 21
134.296725
 31
0.0
  0
LINE
  5
2D4
100
AcDbEntity
  8
0
  6
Continuous
 62
     8
100
AcDbLine
 10
185.939115
 20
135.296637
 30
0.0
 11
185.939115
 21
141.117883
 31
0.0
  0
LINE
  5
2D5
100
AcDbEntity
  8
0
  6
Continuous
 62
     8
100
AcDbLine
 10
185.939115
 20
144.11762
 30
0.0
 11
185.939115
 21
152.367164
 31
0.0
  0
LINE
  5
2D6
100
AcDbEntity
  8
0
  6
Continuous
 62
     8
100
AcDbLine
 10
185.939115
 20
153.367289
 30
0.0
 11
185.939115
 21
154.367201
 31
0.0
  0
LINE
  5
2D7
100
AcDbEntity
  8
0
  6
Continuous
 62
     8
100
AcDbLine
 10
185.939115
 20
155.367114
 30
0.0
 11
185.939115
 21
163.616657
 31
0.0
  0
LINE
  5
2D8
100
AcDbEntity
  8
0
  6
Continuous
 62
     8
100
AcDbLine
 10
185.939115
 20
166.616395
 30
0.0
 11
185.939115
 21
173.116145
 31
0.0
  0
ENDBLK
  5
2D9
100
AcDbEntity
  8
0
100
AcDbBlockEnd
  0
BLOCK
  5
2DC
100
AcDbEntity
  8
0
100
AcDbBlockBegin
  2
*B41
 70
     0
 10
0.0
 20
0.0
 30
0.0
  3
*B41
  1

  0
LINE
  5
2DD
100
AcDbEntity
  8
0
  6
Continuous
 62
     8
100
AcDbLine
 10
188.939065
 20
19.017031
 30
0.0
 11
188.939065
 21
31.710206
 31
0.0
  0
ENDBLK
  5
2DE
100
AcDbEntity
  8
0
100
AcDbBlockEnd
  0
BLOCK
  5
2E1
100
AcDbEntity
  8
0
100
AcDbBlockBegin
  2
*B42
 70
     0
 10
0.0
 20
0.0
 30
0.0
  3
*B42
  1

  0
LINE
  5
2E2
100
AcDbEntity
  8
0
  6
Continuous
 62
     8
100
AcDbLine
 10
189.939189
 20
32.710118
 30
0.0
 11
238.01805
 21
32.710118
 31
0.0
  0
ENDBLK
  5
2E3
100
AcDbEntity
  8
0
100
AcDbBlockEnd
  0
BLOCK
  5
2E6
100
AcDbEntity
  8
0
100
AcDbBlockBegin
  2
*B43
 70
     0
 10
0.0
 20
0.0
 30
0.0
  3
*B43
  1

  0
LINE
  5
2E7
100
AcDbEntity
  8
0
  6
Continuous
 62
     8
100
AcDbLine
 10
145.939216
 20
29.710381
 30
0.0
 11
145.939216
 21
35.043247
 31
0.0
  0
LINE
  5
2E8
100
AcDbEntity
  8
0
  6
Continuous
 62
     8
100
AcDbLine
 10
145.939216
 20
36.043372
 30
0.0
 11
145.939216
 21
37.043285
 31
0.0
  0
LINE
  5
2E9
100
AcDbEntity
  8
0
  6
Continuous
 62
     8
100
AcDbLine
 10
145.939216
 20
38.043197
 30
0.0
 11
145.939216
 21
43.376276
 31
0.0
  0
LINE
  5
2EA
100
AcDbEntity
  8
0
  6
Continuous
 62
     8
100
AcDbLine
 10
145.939216
 20
44.376189
 30
0.0
 11
145.939216
 21
45.376101
 31
0.0
  0
LINE
  5
2EB
100
AcDbEntity
  8
0
  6
Continuous
 62
     8
100
AcDbLine
 10
145.939216
 20
46.376014
 30
0.0
 11
145.939216
 21
51.709093
 31
0.0
  0
LINE
  5
2EC
100
AcDbEntity
  8
0
  6
Continuous
 62
     8
100
AcDbLine
 10
145.939216
 20
52.709006
 30
0.0
 11
145.939216
 21
53.708918
 31
0.0
  0
LINE
  5
2ED
100
AcDbEntity
  8
0
  6
Continuous
 62
     8
100
AcDbLine
 10
145.939216
 20
54.708831
 30
0.0
 11
145.939216
 21
60.04191
 31
0.0
  0
LINE
  5
2EE
100
AcDbEntity
  8
0
  6
Continuous
 62
     8
100
AcDbLine
 10
145.939216
 20
61.041822
 30
0.0
 11
145.939216
 21
62.041735
 31
0.0
  0
LINE
  5
2EF
100
AcDbEntity
  8
0
  6
Continuous
 62
     8
100
AcDbLine
 10
145.939216
 20
63.041647
 30
0.0
 11
145.939216
 21
68.374726
 31
0.0
  0
LINE
  5
2F0
100
AcDbEntity
  8
0
  6
Continuous
 62
     8
100
AcDbLine
 10
145.939216
 20
69.374639
 30
0.0
 11
145.939216
 21
70.374764
 31
0.0
  0
LINE
  5
2F1
100
AcDbEntity
  8
0
  6
Continuous
 62
     8
100
AcDbLine
 10
145.939216
 20
71.374676
 30
0.0
 11
145.939216
 21
76.707543
 31
0.0
  0
ENDBLK
  5
2F2
100
AcDbEntity
  8
0
100
AcDbBlockEnd
  0
BLOCK
  5
2F5
100
AcDbEntity
  8
0
100
AcDbBlockBegin
  2
*B44
 70
     0
 10
0.0
 20
0.0
 30
0.0
  3
*B44
  1

  0
LINE
  5
2F6
100
AcDbEntity
  8
0
  6
Continuous
 62
     8
100
AcDbLine
 10
52.239321
 20
142.617858
 30
0.0
 11
57.172605
 21
142.617858
 31
0.0
  0
LINE
  5
2F7
100
AcDbEntity
  8
0
  6
Continuous
 62
     8
100
AcDbLine
 10
58.172517
 20
142.617858
 30
0.0
 11
59.172642
 21
142.617858
 31
0.0
  0
LINE
  5
2F8
100
AcDbEntity
  8
0
  6
Continuous
 62
     8
100
AcDbLine
 10
60.172555
 20
142.617858
 30
0.0
 11
65.105839
 21
142.617858
 31
0.0
  0
LINE
  5
2F9
100
AcDbEntity
  8
0
  6
Continuous
 62
     8
100
AcDbLine
 10
66.105964
 20
142.617858
 30
0.0
 11
67.105876
 21
142.617858
 31
0.0
  0
LINE
  5
2FA
100
AcDbEntity
  8
0
  6
Continuous
 62
     8
100
AcDbLine
 10
68.105789
 20
142.617858
 30
0.0
 11
73.039285
 21
142.617858
 31
0.0
  0
LINE
  5
2FB
100
AcDbEntity
  8
0
  6
Continuous
 62
     8
100
AcDbLine
 10
74.039198
 20
142.617858
 30
0.0
 11
75.03911
 21
142.617858
 31
0.0
  0
LINE
  5
2FC
100
AcDbEntity
  8
0
  6
Continuous
 62
     8
100
AcDbLine
 10
76.039235
 20
142.617858
 30
0.0
 11
80.972519
 21
142.617858
 31
0.0
  0
LINE
  5
2FD
100
AcDbEntity
  8
0
  6
Continuous
 62
     8
100
AcDbLine
 10
81.972432
 20
142.617858
 30
0.0
 11
82.972557
 21
142.617858
 31
0.0
  0
LINE
  5
2FE
100
AcDbEntity
  8
0
  6
Continuous
 62
     8
100
AcDbLine
 10
83.972469
 20
142.617858
 30
0.0
 11
88.905966
 21
142.617858
 31
0.0
  0
LINE
  5
2FF
100
AcDbEntity
  8
0
  6
Continuous
 62
     8
100
AcDbLine
 10
89.905878
 20
142.617858
 30
0.0
 11
90.905791
 21
142.617858
 31
0.0
  0
LINE
  5
300
100
AcDbEntity
  8
0
  6
Continuous
 62
     8
100
AcDbLine
 10
91.905915
 20
142.617858
 30
0.0
 11
96.8392
 21
142.617858
 31
0.0
  0
LINE
  5
301
100
AcDbEntity
  8
0
  6
Continuous
 62
     8
100
AcDbLine
 10
97.839112
 20
142.617858
 30
0.0
 11
98.839237
 21
142.617858
 31
0.0
  0
LINE
  5
302
100
AcDbEntity
  8
0
  6
Continuous
 62
     8
100
AcDbLine
 10
99.839149
 20
142.617858
 30
0.0
 11
104.772434
 21
142.617858
 31
0.0
  0
LINE
  5
303
100
AcDbEntity
  8
0
  6
Continuous
 62
     8
100
AcDbLine
 10
105.772558
 20
142.617858
 30
0.0
 11
106.772471
 21
142.617858
 31
0.0
  0
LINE
  5
304
100
AcDbEntity
  8
0
  6
Continuous
 62
     8
100
AcDbLine
 10
107.772596
 20
142.617858
 30
0.0
 11
112.70588
 21
142.617858
 31
0.0
  0
LINE
  5
305
100
AcDbEntity
  8
0
  6
Continuous
 62
     8
100
AcDbLine
 10
113.705792
 20
142.617858
 30
0.0
 11
114.705917
 21
142.617858
 31
0.0
  0
LINE
  5
306
100
AcDbEntity
  8
0
  6
Continuous
 62
     8
100
AcDbLine
 10
115.70583
 20
142.617858
 30
0.0
 11
120.639114
 21
142.617858
 31
0.0
  0
LINE
  5
307
100
AcDbEntity
  8
0
  6
Continuous
 62
     8
100
AcDbLine
 10
121.639239
 20
142.617858
 30
0.0
 11
122.639151
 21
142.617858
 31
0.0
  0
LINE
  5
308
100
AcDbEntity
  8
0
  6
Continuous
 62
     8
100
AcDbLine
 10
123.639276
 20
142.617858
 30
0.0
 11
128.57256
 21
142.617858
 31
0.0
  0
LINE
  5
309
100
AcDbEntity
  8
0
  6
Continuous
 62
     8
100
AcDbLine
 10
129.572473
 20
142.617858
 30
0.0
 11
130.572598
 21
142.617858
 31
0.0
  0
LINE
  5
30A
100
AcDbEntity
  8
0
  6
Continuous
 62
     8
100
AcDbLine
 10
131.57251
 20
142.617858
 30
0.0
 11
136.505794
 21
142.617858
 31
0.0
  0
LINE
  5
30B
100
AcDbEntity
  8
0
  6
Continuous
 62
     8
100
AcDbLine
 10
137.505919
 20
142.617858
 30
0.0
 11
138.505832
 21
142.617858
 31
0.0
  0
LINE
  5
30C
100
AcDbEntity
  8
0
  6
Continuous
 62
     8
100
AcDbLine
 10
139.505744
 20
142.617858
 30
0.0
 11
144.439241
 21
142.617858
 31
0.0
  0
LINE
  5
30D
100
AcDbEntity
  8
0
  6
Continuous
 62
     8
100
AcDbLine
 10
147.439191
 20
142.617858
 30
0.0
 11
152.439178
 21
142.617858
 31
0.0
  0
LINE
  5
30E
100
AcDbEntity
  8
0
  6
Continuous
 62
     8
100
AcDbLine
 10
153.43909
 20
142.617858
 30
0.0
 11
154.439215
 21
142.617858
 31
0.0
  0
LINE
  5
30F
100
AcDbEntity
  8
0
  6
Continuous
 62
     8
100
AcDbLine
 10
155.439128
 20
142.617858
 30
0.0
 11
160.439115
 21
142.617858
 31
0.0
  0
LINE
  5
310
100
AcDbEntity
  8
0
  6
Continuous
 62
     8
100
AcDbLine
 10
161.43924
 20
142.617858
 30
0.0
 11
162.439153
 21
142.617858
 31
0.0
  0
LINE
  5
311
100
AcDbEntity
  8
0
  6
Continuous
 62
     8
100
AcDbLine
 10
163.439065
 20
142.617858
 30
0.0
 11
168.439265
 21
142.617858
 31
0.0
  0
LINE
  5
312
100
AcDbEntity
  8
0
  6
Continuous
 62
     8
100
AcDbLine
 10
169.439178
 20
142.617858
 30
0.0
 11
170.43909
 21
142.617858
 31
0.0
  0
LINE
  5
313
100
AcDbEntity
  8
0
  6
Continuous
 62
     8
100
AcDbLine
 10
171.439215
 20
142.617858
 30
0.0
 11
176.439202
 21
142.617858
 31
0.0
  0
LINE
  5
314
100
AcDbEntity
  8
0
  6
Continuous
 62
     8
100
AcDbLine
 10
177.439115
 20
142.617858
 30
0.0
 11
178.43924
 21
142.617858
 31
0.0
  0
LINE
  5
315
100
AcDbEntity
  8
0
  6
Continuous
 62
     8
100
AcDbLine
 10
179.439152
 20
142.617858
 30
0.0
 11
184.43914
 21
142.617858
 31
0.0
  0
LINE
  5
316
100
AcDbEntity
  8
0
  6
Continuous
 62
     8
100
AcDbLine
 10
187.43909
 20
142.617858
 30
0.0
 11
192.739242
 21
142.617858
 31
0.0
  0
LINE
  5
317
100
AcDbEntity
  8
0
  6
Continuous
 62
     8
100
AcDbLine
 10
193.739154
 20
142.617858
 30
0.0
 11
194.739067
 21
142.617858
 31
0.0
  0
LINE
  5
318
100
AcDbEntity
  8
0
  6
Continuous
 62
     8
100
AcDbLine
 10
195.739192
 20
142.617858
 30
0.0
 11
201.039132
 21
142.617858
 31
0.0
  0
LINE
  5
319
100
AcDbEntity
  8
0
  6
Continuous
 62
     8
100
AcDbLine
 10
202.039257
 20
142.617858
 30
0.0
 11
203.039169
 21
142.617858
 31
0.0
  0
LINE
  5
31A
100
AcDbEntity
  8
0
  6
Continuous
 62
     8
100
AcDbLine
 10
204.039082
 20
142.617858
 30
0.0
 11
209.339234
 21
142.617858
 31
0.0
  0
LINE
  5
31B
100
AcDbEntity
  8
0
  6
Continuous
 62
     8
100
AcDbLine
 10
210.339146
 20
142.617858
 30
0.0
 11
211.339059
 21
142.617858
 31
0.0
  0
LINE
  5
31C
100
AcDbEntity
  8
0
  6
Continuous
 62
     8
100
AcDbLine
 10
212.339184
 20
142.617858
 30
0.0
 11
217.639124
 21
142.617858
 31
0.0
  0
LINE
  5
31D
100
AcDbEntity
  8
0
  6
Continuous
 62
     8
100
AcDbLine
 10
218.639036
 20
142.617858
 30
0.0
 11
219.639161
 21
142.617858
 31
0.0
  0
LINE
  5
31E
100
AcDbEntity
  8
0
  6
Continuous
 62
     8
100
AcDbLine
 10
220.639074
 20
142.617858
 30
0.0
 11
225.939226
 21
142.617858
 31
0.0
  0
ENDBLK
  5
31F
100
AcDbEntity
  8
0
100
AcDbBlockEnd
  0
BLOCK
  5
322
100
AcDbEntity
  8
0
100
AcDbBlockBegin
  2
*B45
 70
     0
 10
0.0
 20
0.0
 30
0.0
  3
*B45
  1

  0
LINE
  5
323
100
AcDbEntity
  8
0
  6
Continuous
 62
     8
100
AcDbLine
 10
185.939115
 20
29.710381
 30
0.0
 11
185.939115
 21
35.043247
 31
0.0
  0
LINE
  5
324
100
AcDbEntity
  8
0
  6
Continuous
 62
     8
100
AcDbLine
 10
185.939115
 20
36.043372
 30
0.0
 11
185.939115
 21
37.043285
 31
0.0
  0
LINE
  5
325
100
AcDbEntity
  8
0
  6
Continuous
 62
     8
100
AcDbLine
 10
185.939115
 20
38.043197
 30
0.0
 11
185.939115
 21
43.376276
 31
0.0
  0
LINE
  5
326
100
AcDbEntity
  8
0
  6
Continuous
 62
     8
100
AcDbLine
 10
185.939115
 20
44.376189
 30
0.0
 11
185.939115
 21
45.376101
 31
0.0
  0
LINE
  5
327
100
AcDbEntity
  8
0
  6
Continuous
 62
     8
100
AcDbLine
 10
185.939115
 20
46.376014
 30
0.0
 11
185.939115
 21
51.709093
 31
0.0
  0
LINE
  5
328
100
AcDbEntity
  8
0
  6
Continuous
 62
     8
100
AcDbLine
 10
185.939115
 20
52.709006
 30
0.0
 11
185.939115
 21
53.708918
 31
0.0
  0
LINE
  5
329
100
AcDbEntity
  8
0
  6
Continuous
 62
     8
100
AcDbLine
 10
185.939115
 20
54.708831
 30
0.0
 11
185.939115
 21
60.04191
 31
0.0
  0
LINE
  5
32A
100
AcDbEntity
  8
0
  6
Continuous
 62
     8
100
AcDbLine
 10
185.939115
 20
61.041822
 30
0.0
 11
185.939115
 21
62.041735
 31
0.0
  0
LINE
  5
32B
100
AcDbEntity
  8
0
  6
Continuous
 62
     8
100
AcDbLine
 10
185.939115
 20
63.041647
 30
0.0
 11
185.939115
 21
68.374726
 31
0.0
  0
LINE
  5
32C
100
AcDbEntity
  8
0
  6
Continuous
 62
     8
100
AcDbLine
 10
185.939115
 20
69.374639
 30
0.0
 11
185.939115
 21
70.374764
 31
0.0
  0
LINE
  5
32D
100
AcDbEntity
  8
0
  6
Continuous
 62
     8
100
AcDbLine
 10
185.939115
 20
71.374676
 30
0.0
 11
185.939115
 21
76.707543
 31
0.0
  0
ENDBLK
  5
32E
100
AcDbEntity
  8
0
100
AcDbBlockEnd
  0
BLOCK
  5
331
100
AcDbEntity
  8
0
100
AcDbBlockBegin
  2
*B46
 70
     0
 10
0.0
 20
0.0
 30
0.0
  3
*B46
  1

  0
LINE
  5
332
100
AcDbEntity
  8
0
  6
Continuous
 62
     8
100
AcDbLine
 10
32.018231
 20
112.619421
 30
0.0
 11
107.939142
 21
112.619421
 31
0.0
  0
LINE
  5
333
100
AcDbEntity
  8
0
  6
Continuous
 62
     8
100
AcDbLine
 10
223.939188
 20
112.619421
 30
0.0
 11
251.017975
 21
112.619421
 31
0.0
  0
ENDBLK
  5
334
100
AcDbEntity
  8
0
100
AcDbBlockEnd
  0
BLOCK
  5
337
100
AcDbEntity
  8
0
100
AcDbBlockBegin
  2
*B47
 70
     0
 10
0.0
 20
0.0
 30
0.0
  3
*B47
  1

  0
LINE
  5
338
100
AcDbEntity
  8
0
  6
Continuous
 62
     8
100
AcDbLine
 10
223.939188
 20
70.708068
 30
0.0
 11
251.017975
 21
70.708068
 31
0.0
  0
ENDBLK
  5
339
100
AcDbEntity
  8
0
100
AcDbBlockEnd
  0
BLOCK
  5
33C
100
AcDbEntity
  8
0
100
AcDbBlockBegin
  2
*B48
 70
     0
 10
0.0
 20
0.0
 30
0.0
  3
*B48
  1

  0
LINE
  5
33D
100
AcDbEntity
  8
0
  6
Continuous
 62
     8
100
AcDbLine
 10
108.939267
 20
96.012843
 30
0.0
 11
108.939267
 21
111.619508
 31
0.0
  0
ENDBLK
  5
33E
100
AcDbEntity
  8
0
100
AcDbBlockEnd
  0
BLOCK
  5
341
100
AcDbEntity
  8
0
100
AcDbBlockBegin
  2
*B49
 70
     0
 10
0.0
 20
0.0
 30
0.0
  3
*B49
  1

  0
LINE
  5
342
100
AcDbEntity
  8
0
  6
Continuous
 62
     8
100
AcDbLine
 10
235.0181
 20
165.11642
 30
0.0
 11
239.017962
 21
165.11642
 31
0.0
  0
LINE
  5
343
100
AcDbEntity
  8
0
  6
Continuous
 62
     8
100
AcDbLine
 10
177.939177
 20
165.11642
 30
0.0
 11
184.43914
 21
165.11642
 31
0.0
  0
LINE
  5
344
100
AcDbEntity
  8
0
  6
Continuous
 62
     8
100
AcDbLine
 10
187.43909
 20
165.11642
 30
0.0
 11
192.869037
 21
165.11642
 31
0.0
  0
LINE
  5
345
100
AcDbEntity
  8
0
  6
Continuous
 62
     8
100
AcDbLine
 10
193.86895
 20
165.11642
 30
0.0
 11
194.869075
 21
165.11642
 31
0.0
  0
LINE
  5
346
100
AcDbEntity
  8
0
  6
Continuous
 62
     8
100
AcDbLine
 10
195.868987
 20
165.11642
 30
0.0
 11
201.298722
 21
165.11642
 31
0.0
  0
LINE
  5
347
100
AcDbEntity
  8
0
  6
Continuous
 62
     8
100
AcDbLine
 10
202.298847
 20
165.11642
 30
0.0
 11
203.29876
 21
165.11642
 31
0.0
  0
LINE
  5
348
100
AcDbEntity
  8
0
  6
Continuous
 62
     8
100
AcDbLine
 10
204.298885
 20
165.11642
 30
0.0
 11
209.72862
 21
165.11642
 31
0.0
  0
LINE
  5
349
100
AcDbEntity
  8
0
  6
Continuous
 62
     8
100
AcDbLine
 10
210.728532
 20
165.11642
 30
0.0
 11
211.728657
 21
165.11642
 31
0.0
  0
LINE
  5
34A
100
AcDbEntity
  8
0
  6
Continuous
 62
     8
100
AcDbLine
 10
212.72857
 20
165.11642
 30
0.0
 11
218.158517
 21
165.11642
 31
0.0
  0
LINE
  5
34B
100
AcDbEntity
  8
0
  6
Continuous
 62
     8
100
AcDbLine
 10
219.15843
 20
165.11642
 30
0.0
 11
220.158342
 21
165.11642
 31
0.0
  0
LINE
  5
34C
100
AcDbEntity
  8
0
  6
Continuous
 62
     8
100
AcDbLine
 10
221.158467
 20
165.11642
 30
0.0
 11
226.588202
 21
165.11642
 31
0.0
  0
LINE
  5
34D
100
AcDbEntity
  8
0
  6
Continuous
 62
     8
100
AcDbLine
 10
227.588327
 20
165.11642
 30
0.0
 11
228.58824
 21
165.11642
 31
0.0
  0
LINE
  5
34E
100
AcDbEntity
  8
0
  6
Continuous
 62
     8
100
AcDbLine
 10
229.588152
 20
165.11642
 30
0.0
 11
235.0181
 21
165.11642
 31
0.0
  0
ENDBLK
  5
34F
100
AcDbEntity
  8
0
100
AcDbBlockEnd
  0
BLOCK
  5
352
100
AcDbEntity
  8
0
100
AcDbBlockBegin
  2
*B50
 70
     0
 10
0.0
 20
0.0
 30
0.0
  3
*B50
  1

  0
LINE
  5
353
100
AcDbEntity
  8
0
  6
Continuous
 62
     8
100
AcDbLine
 10
145.939216
 20
96.012843
 30
0.0
 11
145.939216
 21
100.012493
 31
0.0
  0
LINE
  5
354
100
AcDbEntity
  8
0
  6
Continuous
 62
     8
100
AcDbLine
 10
145.939216
 20
100.012493
 30
0.0
 11
145.939216
 21
107.815932
 31
0.0
  0
LINE
  5
355
100
AcDbEntity
  8
0
  6
Continuous
 62
     8
100
AcDbLine
 10
145.939216
 20
108.815844
 30
0.0
 11
145.939216
 21
109.815757
 31
0.0
  0
LINE
  5
356
100
AcDbEntity
  8
0
  6
Continuous
 62
     8
100
AcDbLine
 10
145.939216
 20
110.815669
 30
0.0
 11
145.939216
 21
118.619108
 31
0.0
  0
LINE
  5
357
100
AcDbEntity
  8
0
  6
Continuous
 62
     8
100
AcDbLine
 10
145.939216
 20
121.619058
 30
0.0
 11
145.939216
 21
129.868602
 31
0.0
  0
LINE
  5
358
100
AcDbEntity
  8
0
  6
Continuous
 62
     8
100
AcDbLine
 10
145.939216
 20
130.868514
 30
0.0
 11
145.939216
 21
131.868427
 31
0.0
  0
LINE
  5
359
100
AcDbEntity
  8
0
  6
Continuous
 62
     8
100
AcDbLine
 10
145.939216
 20
132.868339
 30
0.0
 11
145.939216
 21
141.117883
 31
0.0
  0
LINE
  5
35A
100
AcDbEntity
  8
0
  6
Continuous
 62
     8
100
AcDbLine
 10
145.939216
 20
144.11762
 30
0.0
 11
145.939216
 21
150.74228
 31
0.0
  0
LINE
  5
35B
100
AcDbEntity
  8
0
  6
Continuous
 62
     8
100
AcDbLine
 10
145.939216
 20
151.742192
 30
0.0
 11
145.939216
 21
152.742317
 31
0.0
  0
LINE
  5
35C
100
AcDbEntity
  8
0
  6
Continuous
 62
     8
100
AcDbLine
 10
145.939216
 20
153.742229
 30
0.0
 11
145.939216
 21
160.366889
 31
0.0
  0
ENDBLK
  5
35D
100
AcDbEntity
  8
0
100
AcDbBlockEnd
  0
BLOCK
  5
360
100
AcDbEntity
  8
0
100
AcDbBlockBegin
  2
*B51
 70
     0
 10
0.0
 20
0.0
 30
0.0
  3
*B51
  1

  0
LINE
  5
361
100
AcDbEntity
  8
0
  6
Continuous
 62
     8
100
AcDbLine
 10
223.939188
 20
40.709631
 30
0.0
 11
251.017975
 21
40.709631
 31
0.0
  0
ENDBLK
  5
362
100
AcDbEntity
  8
0
100
AcDbBlockEnd
  0
BLOCK
  5
365
100
AcDbEntity
  8
0
100
AcDbBlockBegin
  2
*B52
 70
     0
 10
0.0
 20
0.0
 30
0.0
  3
*B52
  1

  0
LINE
  5
366
100
AcDbEntity
  8
0
  6
Continuous
 62
     8
100
AcDbLine
 10
223.939188
 20
172.616082
 30
0.0
 11
251.017975
 21
172.616082
 31
0.0
  0
ENDBLK
  5
367
100
AcDbEntity
  8
0
100
AcDbBlockEnd
  0
BLOCK
  5
36A
100
AcDbEntity
  8
0
100
AcDbBlockBegin
  2
*B53
 70
     0
 10
0.0
 20
0.0
 30
0.0
  3
*B53
  1

  0
LINE
  5
36B
100
AcDbEntity
  8
0
  6
Continuous
 62
     6
100
AcDbLine
 10
43.439156
 20
180.615595
 30
0.0
 11
44.439281
 21
180.615595
 31
0.0
  0
LINE
  5
36C
100
AcDbEntity
  8
0
  6
Continuous
 62
     6
100
AcDbLine
 10
43.939219
 20
180.115745
 30
0.0
 11
43.939219
 21
181.115657
 31
0.0
  0
ENDBLK
  5
36D
100
AcDbEntity
  8
0
100
AcDbBlockEnd
  0
BLOCK
  5
370
100
AcDbEntity
  8
0
100
AcDbBlockBegin
  2
*B54
 70
     0
 10
0.0
 20
0.0
 30
0.0
  3
*B54
  1

  0
LINE
  5
371
100
AcDbEntity
  8
0
  6
Continuous
 62
     6
100
AcDbLine
 10
185.939115
 20
142.117795
 30
0.0
 11
185.939115
 21
143.117708
 31
0.0
  0
LINE
  5
372
100
AcDbEntity
  8
0
  6
Continuous
 62
     6
100
AcDbLine
 10
185.439052
 20
142.617858
 30
0.0
 11
186.439177
 21
142.617858
 31
0.0
  0
ENDBLK
  5
373
100
AcDbEntity
  8
0
100
AcDbBlockEnd
  0
BLOCK
  5
376
100
AcDbEntity
  8
0
100
AcDbBlockBegin
  2
*B55
 70
     0
 10
0.0
 20
0.0
 30
0.0
  3
*B55
  1

  0
LINE
  5
377
100
AcDbEntity
  8
0
  6
Continuous
 62
     6
100
AcDbLine
 10
129.939129
 20
55.208893
 30
0.0
 11
129.939129
 21
56.208806
 31
0.0
  0
LINE
  5
378
100
AcDbEntity
  8
0
  6
Continuous
 62
     6
100
AcDbLine
 10
129.439279
 20
55.708743
 30
0.0
 11
130.439191
 21
55.708743
 31
0.0
  0
ENDBLK
  5
379
100
AcDbEntity
  8
0
100
AcDbBlockEnd
  0
BLOCK
  5
37C
100
AcDbEntity
  8
0
100
AcDbBlockBegin
  2
*B56
 70
     0
 10
0.0
 20
0.0
 30
0.0
  3
*B56
  1

  0
LINE
  5
37D
100
AcDbEntity
  8
0
  6
Continuous
 62
     6
100
AcDbLine
 10
201.939202
 20
55.208893
 30
0.0
 11
201.939202
 21
56.208806
 31
0.0
  0
LINE
  5
37E
100
AcDbEntity
  8
0
  6
Continuous
 62
     6
100
AcDbLine
 10
201.439139
 20
55.708743
 30
0.0
 11
202.439052
 21
55.708743
 31
0.0
  0
ENDBLK
  5
37F
100
AcDbEntity
  8
0
100
AcDbBlockEnd
  0
BLOCK
  5
382
100
AcDbEntity
  8
0
100
AcDbBlockBegin
  2
*B57
 70
     0
 10
0.0
 20
0.0
 30
0.0
  3
*B57
  1

  0
LINE
  5
383
100
AcDbEntity
  8
0
  6
Continuous
 62
     6
100
AcDbLine
 10
77.939218
 20
55.208893
 30
0.0
 11
77.939218
 21
56.208806
 31
0.0
  0
LINE
  5
384
100
AcDbEntity
  8
0
  6
Continuous
 62
     6
100
AcDbLine
 10
77.439155
 20
55.708743
 30
0.0
 11
78.43928
 21
55.708743
 31
0.0
  0
ENDBLK
  5
385
100
AcDbEntity
  8
0
100
AcDbBlockEnd
  0
BLOCK
  5
388
100
AcDbEntity
  8
0
100
AcDbBlockBegin
  2
*B58
 70
     0
 10
0.0
 20
0.0
 30
0.0
  3
*B58
  1

  0
LINE
  5
389
100
AcDbEntity
  8
0
  6
Continuous
 62
     6
100
AcDbLine
 10
43.939219
 20
55.208893
 30
0.0
 11
43.939219
 21
56.208806
 31
0.0
  0
LINE
  5
38A
100
AcDbEntity
  8
0
  6
Continuous
 62
     6
100
AcDbLine
 10
43.439156
 20
55.708743
 30
0.0
 11
44.439281
 21
55.708743
 31
0.0
  0
ENDBLK
  5
38B
100
AcDbEntity
  8
0
100
AcDbBlockEnd
  0
BLOCK
  5
38E
100
AcDbEntity
  8
0
100
AcDbBlockBegin
  2
*B59
 70
     0
 10
0.0
 20
0.0
 30
0.0
  3
*B59
  1

  0
LINE
  5
38F
100
AcDbEntity
  8
0
  6
Continuous
 62
     6
100
AcDbLine
 10
185.439052
 20
165.11642
 30
0.0
 11
186.439177
 21
165.11642
 31
0.0
  0
LINE
  5
390
100
AcDbEntity
  8
0
  6
Continuous
 62
     6
100
AcDbLine
 10
185.939115
 20
164.61657
 30
0.0
 11
185.939115
 21
165.616482
 31
0.0
  0
ENDBLK
  5
391
100
AcDbEntity
  8
0
100
AcDbBlockEnd
  0
BLOCK
  5
394
100
AcDbEntity
  8
0
100
AcDbBlockBegin
  2
*B60
 70
     0
 10
0.0
 20
0.0
 30
0.0
  3
*B60
  1

  0
LINE
  5
395
100
AcDbEntity
  8
0
  6
Continuous
 62
     6
100
AcDbLine
 10
145.939216
 20
142.117795
 30
0.0
 11
145.939216
 21
143.117708
 31
0.0
  0
LINE
  5
396
100
AcDbEntity
  8
0
  6
Continuous
 62
     6
100
AcDbLine
 10
145.439153
 20
142.617858
 30
0.0
 11
146.439278
 21
142.617858
 31
0.0
  0
ENDBLK
  5
397
100
AcDbEntity
  8
0
100
AcDbBlockEnd
  0
BLOCK
  5
39A
100
AcDbEntity
  8
0
100
AcDbBlockBegin
  2
*B61
 70
     0
 10
0.0
 20
0.0
 30
0.0
  3
*B61
  1

  0
LINE
  5
39B
100
AcDbEntity
  8
0
  6
Continuous
 62
     6
100
AcDbLine
 10
165.939165
 20
119.61902
 30
0.0
 11
165.939165
 21
120.619145
 31
0.0
  0
LINE
  5
39C
100
AcDbEntity
  8
0
  6
Continuous
 62
     6
100
AcDbLine
 10
165.439103
 20
120.119083
 30
0.0
 11
166.439228
 21
120.119083
 31
0.0
  0
ENDBLK
  5
39D
100
AcDbEntity
  8
0
100
AcDbBlockEnd
  0
BLOCK
  5
3A0
100
AcDbEntity
  8
0
100
AcDbBlockBegin
  2
*B62
 70
     0
 10
0.0
 20
0.0
 30
0.0
  3
*B62
  1

  0
LINE
  5
3A1
100
AcDbEntity
  8
0
  6
Continuous
 62
     6
100
AcDbLine
 10
145.439153
 20
120.119083
 30
0.0
 11
146.439278
 21
120.119083
 31
0.0
  0
LINE
  5
3A2
100
AcDbEntity
  8
0
  6
Continuous
 62
     6
100
AcDbLine
 10
145.939216
 20
119.61902
 30
0.0
 11
145.939216
 21
120.619145
 31
0.0
  0
ENDBLK
  5
3A3
100
AcDbEntity
  8
0
100
AcDbBlockEnd
  0
BLOCK
  5
3A6
100
AcDbEntity
  8
0
100
AcDbBlockBegin
  2
*B63
 70
     0
 10
0.0
 20
0.0
 30
0.0
  3
*B63
  1

  0
TEXT
  5
3A7
100
AcDbEntity
  8
TEXT
  6
Continuous
 62
     0
100
AcDbText
 10
196.2829
 20
56.9
 30
0.0
 40
6.0
  1
1
100
AcDbText
  0
ENDBLK
  5
3A8
100
AcDbEntity
  8
0
100
AcDbBlockEnd
  0
BLOCK
  5
3AB
100
AcDbEntity
  8
0
100
AcDbBlockBegin
  2
*B64
 70
     0
 10
0.0
 20
0.0
 30
0.0
  3
*B64
  1

  0
TEXT
  5
3AC
100
AcDbEntity
  8
TEXT
  6
Continuous
 62
     0
100
AcDbText
 10
124.2829
 20
56.9
 30
0.0
 40
6.0
  1
3
100
AcDbText
  0
ENDBLK
  5
3AD
100
AcDbEntity
  8
0
100
AcDbBlockEnd
  0
BLOCK
  5
3B0
100
AcDbEntity
  8
0
100
AcDbBlockBegin
  2
*B65
 70
     0
 10
0.0
 20
0.0
 30
0.0
  3
*B65
  1

  0
TEXT
  5
3B1
100
AcDbEntity
  8
TEXT
  6
Continuous
 62
     0
100
AcDbText
 10
183.8829
 20
140.0
 30
0.0
 40
6.0
  1
2
100
AcDbText
  0
ENDBLK
  5
3B2
100
AcDbEntity
  8
0
100
AcDbBlockEnd
  0
BLOCK
  5
3B5
100
AcDbEntity
  8
0
100
AcDbBlockBegin
  2
*B66
 70
     0
 10
0.0
 20
0.0
 30
0.0
  3
*B66
  1

  0
TEXT
  5
3B6
100
AcDbEntity
  8
TEXT
  6
Continuous
 62
     0
100
AcDbText
 10
143.8829
 20
140.0
 30
0.0
 40
6.0
  1
3
100
AcDbText
  0
ENDBLK
  5
3B7
100
AcDbEntity
  8
0
100
AcDbBlockEnd
  0
BLOCK
  5
3BA
100
AcDbEntity
  8
0
100
AcDbBlockBegin
  2
*B67
 70
     0
 10
0.0
 20
0.0
 30
0.0
  3
*B67
  1

  0
TEXT
  5
3BB
100
AcDbEntity
  8
TEXT
  6
Continuous
 62
     0
100
AcDbText
 10
112.165799
 20
140.4
 30
0.0
 40
6.0
  1
12
100
AcDbText
  0
ENDBLK
  5
3BC
100
AcDbEntity
  8
0
100
AcDbBlockEnd
  0
BLOCK
  5
3BF
100
AcDbEntity
  8
0
100
AcDbBlockBegin
  2
*B68
 70
     0
 10
0.0
 20
0.0
 30
0.0
  3
*B68
  1

  0
TEXT
  5
3C0
100
AcDbEntity
  8
TEXT
  6
Continuous
 62
     0
100
AcDbText
 10
211.165799
 20
140.4
 30
0.0
 40
6.0
  1
10
100
AcDbText
  0
ENDBLK
  5
3C1
100
AcDbEntity
  8
0
100
AcDbBlockEnd
  0
BLOCK
  5
3C4
100
AcDbEntity
  8
0
100
AcDbBlockBegin
  2
*B69
 70
     0
 10
0.0
 20
0.0
 30
0.0
  3
*B69
  1

  0
TEXT
  5
3C5
100
AcDbEntity
  8
TEXT
  6
Continuous
 62
     0
100
AcDbText
 10
105.6
 20
46.9886
 30
0.0
 40
4.0
  1
0
 50
90.0
100
AcDbText
  0
ENDBLK
  5
3C6
100
AcDbEntity
  8
0
100
AcDbBlockEnd
  0
BLOCK
  5
3C9
100
AcDbEntity
  8
0
100
AcDbBlockBegin
  2
*B70
 70
     0
 10
0.0
 20
0.0
 30
0.0
  3
*B70
  1

  0
TEXT
  5
3CA
100
AcDbEntity
  8
TEXT
  6
Continuous
 62
     0
100
AcDbText
 10
99.0
 20
54.1886
 30
0.0
 40
4.0
  1
1
 50
90.0
100
AcDbText
  0
ENDBLK
  5
3CB
100
AcDbEntity
  8
0
100
AcDbBlockEnd
  0
BLOCK
  5
3CE
100
AcDbEntity
  8
0
100
AcDbBlockBegin
  2
*B71
 70
     0
 10
0.0
 20
0.0
 30
0.0
  3
*B71
  1

  0
TEXT
  5
3CF
100
AcDbEntity
  8
TEXT
  6
Continuous
 62
     0
100
AcDbText
 10
235.5
 20
140.313015
 30
0.0
 40
3.0
  1
45
 50
90.0
100
AcDbText
  0
ENDBLK
  5
3D0
100
AcDbEntity
  8
0
100
AcDbBlockEnd
  0
BLOCK
  5
3D3
100
AcDbEntity
  8
0
100
AcDbBlockBegin
  2
*B72
 70
     0
 10
0.0
 20
0.0
 30
0.0
  3
*B72
  1

  0
TEXT
  5
3D4
100
AcDbEntity
  8
TEXT
  6
Continuous
 62
     0
100
AcDbText
 10
247.5
 20
140.313015
 30
0.0
 40
3.0
  1
60
 50
90.0
100
AcDbText
  0
ENDBLK
  5
3D5
100
AcDbEntity
  8
0
100
AcDbBlockEnd
  0
BLOCK
  5
3D8
100
AcDbEntity
  8
0
100
AcDbBlockBegin
  2
*B73
 70
     0
 10
0.0
 20
0.0
 30
0.0
  3
*B73
  1

  0
TEXT
  5
3D9
100
AcDbEntity
  8
TEXT
  6
Continuous
 62
     0
100
AcDbText
 10
125.12641
 20
99.5
 30
0.0
 40
3.0
  1
37
100
AcDbText
  0
ENDBLK
  5
3DA
100
AcDbEntity
  8
0
100
AcDbBlockEnd
  0
BLOCK
  5
3DD
100
AcDbEntity
  8
0
100
AcDbBlockBegin
  2
*B74
 70
     0
 10
0.0
 20
0.0
 30
0.0
  3
*B74
  1

  0
TEXT
  5
3DE
100
AcDbEntity
  8
TEXT
  6
Continuous
 62
     0
100
AcDbText
 10
163.62641
 20
99.5
 30
0.0
 40
3.0
  1
40
100
AcDbText
  0
ENDBLK
  5
3DF
100
AcDbEntity
  8
0
100
AcDbBlockEnd
  0
BLOCK
  5
3E2
100
AcDbEntity
  8
0
100
AcDbBlockBegin
  2
*B75
 70
     0
 10
0.0
 20
0.0
 30
0.0
  3
*B75
  1

  0
TEXT
  5
3E3
100
AcDbEntity
  8
TEXT
  6
Continuous
 62
     0
100
AcDbText
 10
202.12641
 20
99.5
 30
0.0
 40
3.0
  1
37
100
AcDbText
  0
ENDBLK
  5
3E4
100
AcDbEntity
  8
0
100
AcDbBlockEnd
  0
BLOCK
  5
3E7
100
AcDbEntity
  8
0
100
AcDbBlockBegin
  2
*B76
 70
     0
 10
0.0
 20
0.0
 30
0.0
  3
*B76
  1

  0
TEXT
  5
3E8
100
AcDbEntity
  8
TEXT
  6
Continuous
 62
     0
100
AcDbText
 10
163.62641
 20
86.5
 30
0.0
 40
3.0
  1
72
100
AcDbText
  0
ENDBLK
  5
3E9
100
AcDbEntity
  8
0
100
AcDbBlockEnd
  0
BLOCK
  5
3EC
100
AcDbEntity
  8
0
100
AcDbBlockBegin
  2
*B77
 70
     0
 10
0.0
 20
0.0
 30
0.0
  3
*B77
  1

  0
TEXT
  5
3ED
100
AcDbEntity
  8
TEXT
  6
Continuous
 62
     0
100
AcDbText
 10
247.5
 20
53.399134
 30
0.0
 40
3.0
  1
30
 50
90.0
100
AcDbText
  0
ENDBLK
  5
3EE
100
AcDbEntity
  8
0
100
AcDbBlockEnd
  0
BLOCK
  5
3F1
100
AcDbEntity
  8
0
100
AcDbBlockBegin
  2
*B78
 70
     0
 10
0.0
 20
0.0
 30
0.0
  3
*B78
  1

  0
TEXT
  5
3F2
100
AcDbEntity
  8
TEXT
  6
Continuous
 62
     0
100
AcDbText
 10
234.5
 20
35.827705
 30
0.0
 40
3.0
  1
8
 50
90.0
100
AcDbText
  0
ENDBLK
  5
3F3
100
AcDbEntity
  8
0
100
AcDbBlockEnd
  0
BLOCK
  5
3F6
100
AcDbEntity
  8
0
100
AcDbBlockBegin
  2
*B79
 70
     0
 10
0.0
 20
0.0
 30
0.0
  3
*B79
  1

  0
TEXT
  5
3F7
100
AcDbEntity
  8
TEXT
  6
Continuous
 62
     0
100
AcDbText
 10
123.928571
 20
185.5
 30
0.0
 40
3.0
  1
G1/2"
100
AcDbText
  0
ENDBLK
  5
3F8
100
AcDbEntity
  8
0
100
AcDbBlockEnd
  0
BLOCK
  5
3FB
100
AcDbEntity
  8
0
100
AcDbBlockBegin
  2
*B80
 70
     0
 10
0.0
 20
0.0
 30
0.0
  3
*B80
  1

  0
TEXT
  5
3FC
100
AcDbEntity
  8
TEXT
  6
Continuous
 62
     0
100
AcDbText
 10
193.857143
 20
22.5
 30
0.0
 40
3.0
  1
M6
100
AcDbText
  0
ENDBLK
  5
3FD
100
AcDbEntity
  8
0
100
AcDbBlockEnd
  0
BLOCK
  5
400
100
AcDbEntity
  8
0
100
AcDbBlockBegin
  2
*B81
 70
     0
 10
0.0
 20
0.0
 30
0.0
  3
*B81
  1

  0
TEXT
  5
401
100
AcDbEntity
  8
TEXT
  6
Continuous
 62
     0
100
AcDbText
 10
210.12641
 20
86.5
 30
0.0
 40
3.0
  1
21
100
AcDbText
  0
ENDBLK
  5
402
100
AcDbEntity
  8
0
100
AcDbBlockEnd
  0
BLOCK
  5
405
100
AcDbEntity
  8
0
100
AcDbBlockBegin
  2
*B82
 70
     0
 10
0.0
 20
0.0
 30
0.0
  3
*B82
  1

  0
TEXT
  5
406
100
AcDbEntity
  8
TEXT
  6
Continuous
 62
     0
100
AcDbText
 10
32.5
 20
148.81279
 30
0.0
 40
3.0
  1
77
 50
90.0
100
AcDbText
  0
ENDBLK
  5
407
100
AcDbEntity
  8
0
100
AcDbBlockEnd
  0
BLOCK
  5
40A
100
AcDbEntity
  8
0
100
AcDbBlockBegin
  2
*B83
 70
     0
 10
0.0
 20
0.0
 30
0.0
  3
*B83
  1

  0
TEXT
  5
40B
100
AcDbEntity
  8
TEXT
  6
Continuous
 62
     0
100
AcDbText
 10
154.197838
 20
200.5
 30
0.0
 40
3.0
  1
130
100
AcDbText
  0
ENDBLK
  5
40C
100
AcDbEntity
  8
0
100
AcDbBlockEnd
  0
BLOCK
  5
40F
100
AcDbEntity
  8
0
100
AcDbBlockBegin
  2
*B84
 70
     0
 10
0.0
 20
0.0
 30
0.0
  3
*B84
  1

  0
TEXT
  5
410
100
AcDbEntity
  8
TEXT
  6
Continuous
 62
     0
100
AcDbText
 10
66.12641
 20
200.5
 30
0.0
 40
3.0
  1
49
100
AcDbText
  0
ENDBLK
  5
411
100
AcDbEntity
  8
0
100
AcDbBlockEnd
  0
BLOCK
  5
414
100
AcDbEntity
  8
0
100
AcDbBlockBegin
  2
*B85
 70
     0
 10
0.0
 20
0.0
 30
0.0
  3
*B85
  1

  0
TEXT
  5
415
100
AcDbEntity
  8
TEXT
  6
Continuous
 62
     0
100
AcDbText
 10
117.12641
 20
86.5
 30
0.0
 40
3.0
  1
21
100
AcDbText
  0
ENDBLK
  5
416
100
AcDbEntity
  8
0
100
AcDbBlockEnd
  0
ENDSEC
  0
SECTION
  2
ENTITIES
  0
INSERT
  5
30
100
AcDbEntity
  8
0
  6
Continuous
 62
   172
100
AcDbBlockReference
  2
*B0
 10
0.0
 20
0.0
 30
0.0
  0
INSERT
  5
38
100
AcDbEntity
  8
0
  6
HIDDEN
 62
   162
100
AcDbBlockReference
  2
*B1
 10
0.0
 20
0.0
 30
0.0
  0
INSERT
  5
F9
100
AcDbEntity
  8
0
  6
Continuous
 62
     0
100
AcDbBlockReference
  2
*B2
 10
0.0
 20
0.0
 30
0.0
  0
INSERT
  5
190
100
AcDbEntity
  8
0
  6
HIDDEN
 62
     0
100
AcDbBlockReference
  2
*B3
 10
0.0
 20
0.0
 30
0.0
  0
INSERT
  5
196
100
AcDbEntity
  8
0
  6
Continuous
 62
   172
100
AcDbBlockReference
  2
*B4
 10
0.0
 20
0.0
 30
0.0
  0
INSERT
  5
1A1
100
AcDbEntity
  8
0
  6
Continuous
 62
   172
100
AcDbBlockReference
  2
*B5
 10
0.0
 20
0.0
 30
0.0
  0
INSERT
  5
1AB
100
AcDbEntity
  8
0
  6
Continuous
 62
     0
100
AcDbBlockReference
  2
*B7
 10
0.0
 20
0.0
 30
0.0
  0
INSERT
  5
1B2
100
AcDbEntity
  8
0
  6
Continuous
 62
     0
100
AcDbBlockReference
  2
*B8
 10
0.0
 20
0.0
 30
0.0
  0
INSERT
  5
1B9
100
AcDbEntity
  8
0
  6
Continuous
 62
     0
100
AcDbBlockReference
  2
*B9
 10
0.0
 20
0.0
 30
0.0
  0
INSERT
  5
1C0
100
AcDbEntity
  8
0
  6
Continuous
 62
     0
100
AcDbBlockReference
  2
*B10
 10
0.0
 20
0.0
 30
0.0
  0
INSERT
  5
1C7
100
AcDbEntity
  8
0
  6
Continuous
 62
     0
100
AcDbBlockReference
  2
*B11
 10
0.0
 20
0.0
 30
0.0
  0
INSERT
  5
1CE
100
AcDbEntity
  8
0
  6
Continuous
 62
     0
100
AcDbBlockReference
  2
*B12
 10
0.0
 20
0.0
 30
0.0
  0
INSERT
  5
1D5
100
AcDbEntity
  8
0
  6
Continuous
 62
     0
100
AcDbBlockReference
  2
*B13
 10
0.0
 20
0.0
 30
0.0
  0
INSERT
  5
1DC
100
AcDbEntity
  8
0
  6
Continuous
 62
     0
100
AcDbBlockReference
  2
*B14
 10
0.0
 20
0.0
 30
0.0
  0
INSERT
  5
1E3
100
AcDbEntity
  8
0
  6
Continuous
 62
     0
100
AcDbBlockReference
  2
*B15
 10
0.0
 20
0.0
 30
0.0
  0
INSERT
  5
1EA
100
AcDbEntity
  8
0
  6
Continuous
 62
     0
100
AcDbBlockReference
  2
*B16
 10
0.0
 20
0.0
 30
0.0
  0
INSERT
  5
1F1
100
AcDbEntity
  8
0
  6
Continuous
 62
     0
100
AcDbBlockReference
  2
*B17
 10
0.0
 20
0.0
 30
0.0
  0
INSERT
  5
1F8
100
AcDbEntity
  8
0
  6
Continuous
 62
     0
100
AcDbBlockReference
  2
*B18
 10
0.0
 20
0.0
 30
0.0
  0
INSERT
  5
1FF
100
AcDbEntity
  8
0
  6
Continuous
 62
     0
100
AcDbBlockReference
  2
*B19
 10
0.0
 20
0.0
 30
0.0
  0
INSERT
  5
206
100
AcDbEntity
  8
0
  6
Continuous
 62
     0
100
AcDbBlockReference
  2
*B20
 10
0.0
 20
0.0
 30
0.0
  0
INSERT
  5
20D
100
AcDbEntity
  8
0
  6
Continuous
 62
     0
100
AcDbBlockReference
  2
*B21
 10
0.0
 20
0.0
 30
0.0
  0
INSERT
  5
212
100
AcDbEntity
  8
0
  6
Continuous
 62
     8
100
AcDbBlockReference
  2
*B22
 10
0.0
 20
0.0
 30
0.0
  0
INSERT
  5
217
100
AcDbEntity
  8
0
  6
Continuous
 62
     8
100
AcDbBlockReference
  2
*B23
 10
0.0
 20
0.0
 30
0.0
  0
INSERT
  5
21C
100
AcDbEntity
  8
0
  6
Continuous
 62
     8
100
AcDbBlockReference
  2
*B24
 10
0.0
 20
0.0
 30
0.0
  0
INSERT
  5
222
100
AcDbEntity
  8
0
  6
Continuous
 62
     8
100
AcDbBlockReference
  2
*B25
 10
0.0
 20
0.0
 30
0.0
  0
INSERT
  5
23A
100
AcDbEntity
  8
0
  6
Continuous
 62
     8
100
AcDbBlockReference
  2
*B26
 10
0.0
 20
0.0
 30
0.0
  0
INSERT
  5
243
100
AcDbEntity
  8
0
  6
Continuous
 62
     8
100
AcDbBlockReference
  2
*B27
 10
0.0
 20
0.0
 30
0.0
  0
INSERT
  5
24E
100
AcDbEntity
  8
0
  6
Continuous
 62
     8
100
AcDbBlockReference
  2
*B28
 10
0.0
 20
0.0
 30
0.0
  0
INSERT
  5
257
100
AcDbEntity
  8
0
  6
Continuous
 62
     8
100
AcDbBlockReference
  2
*B29
 10
0.0
 20
0.0
 30
0.0
  0
INSERT
  5
25C
100
AcDbEntity
  8
0
  6
Continuous
 62
     8
100
AcDbBlockReference
  2
*B30
 10
0.0
 20
0.0
 30
0.0
  0
INSERT
  5
261
100
AcDbEntity
  8
0
  6
Continuous
 62
     8
100
AcDbBlockReference
  2
*B31
 10
0.0
 20
0.0
 30
0.0
  0
INSERT
  5
26C
100
AcDbEntity
  8
0
  6
Continuous
 62
     8
100
AcDbBlockReference
  2
*B32
 10
0.0
 20
0.0
 30
0.0
  0
INSERT
  5
275
100
AcDbEntity
  8
0
  6
Continuous
 62
     8
100
AcDbBlockReference
  2
*B33
 10
0.0
 20
0.0
 30
0.0
  0
INSERT
  5
27A
100
AcDbEntity
  8
0
  6
Continuous
 62
     8
100
AcDbBlockReference
  2
*B34
 10
0.0
 20
0.0
 30
0.0
  0
INSERT
  5
28C
100
AcDbEntity
  8
0
  6
Continuous
 62
     8
100
AcDbBlockReference
  2
*B35
 10
0.0
 20
0.0
 30
0.0
  0
INSERT
  5
2B8
100
AcDbEntity
  8
0
  6
Continuous
 62
     8
100
AcDbBlockReference
  2
*B36
 10
0.0
 20
0.0
 30
0.0
  0
INSERT
  5
2BD
100
AcDbEntity
  8
0
  6
Continuous
 62
     8
100
AcDbBlockReference
  2
*B37
 10
0.0
 20
0.0
 30
0.0
  0
INSERT
  5
2C3
100
AcDbEntity
  8
0
  6
Continuous
 62
     8
100
AcDbBlockReference
  2
*B38
 10
0.0
 20
0.0
 30
0.0
  0
INSERT
  5
2C8
100
AcDbEntity
  8
0
  6
Continuous
 62
     8
100
AcDbBlockReference
  2
*B39
 10
0.0
 20
0.0
 30
0.0
  0
INSERT
  5
2DA
100
AcDbEntity
  8
0
  6
Continuous
 62
     8
100
AcDbBlockReference
  2
*B40
 10
0.0
 20
0.0
 30
0.0
  0
INSERT
  5
2DF
100
AcDbEntity
  8
0
  6
Continuous
 62
     8
100
AcDbBlockReference
  2
*B41
 10
0.0
 20
0.0
 30
0.0
  0
INSERT
  5
2E4
100
AcDbEntity
  8
0
  6
Continuous
 62
     8
100
AcDbBlockReference
  2
*B42
 10
0.0
 20
0.0
 30
0.0
  0
INSERT
  5
2F3
100
AcDbEntity
  8
0
  6
Continuous
 62
     8
100
AcDbBlockReference
  2
*B43
 10
0.0
 20
0.0
 30
0.0
  0
INSERT
  5
320
100
AcDbEntity
  8
0
  6
Continuous
 62
     8
100
AcDbBlockReference
  2
*B44
 10
0.0
 20
0.0
 30
0.0
  0
INSERT
  5
32F
100
AcDbEntity
  8
0
  6
Continuous
 62
     8
100
AcDbBlockReference
  2
*B45
 10
0.0
 20
0.0
 30
0.0
  0
INSERT
  5
335
100
AcDbEntity
  8
0
  6
Continuous
 62
     8
100
AcDbBlockReference
  2
*B46
 10
0.0
 20
0.0
 30
0.0
  0
INSERT
  5
33A
100
AcDbEntity
  8
0
  6
Continuous
 62
     8
100
AcDbBlockReference
  2
*B47
 10
0.0
 20
0.0
 30
0.0
  0
INSERT
  5
33F
100
AcDbEntity
  8
0
  6
Continuous
 62
     8
100
AcDbBlockReference
  2
*B48
 10
0.0
 20
0.0
 30
0.0
  0
INSERT
  5
350
100
AcDbEntity
  8
0
  6
Continuous
 62
     8
100
AcDbBlockReference
  2
*B49
 10
0.0
 20
0.0
 30
0.0
  0
INSERT
  5
35E
100
AcDbEntity
  8
0
  6
Continuous
 62
     8
100
AcDbBlockReference
  2
*B50
 10
0.0
 20
0.0
 30
0.0
  0
INSERT
  5
363
100
AcDbEntity
  8
0
  6
Continuous
 62
     8
100
AcDbBlockReference
  2
*B51
 10
0.0
 20
0.0
 30
0.0
  0
INSERT
  5
368
100
AcDbEntity
  8
0
  6
Continuous
 62
     8
100
AcDbBlockReference
  2
*B52
 10
0.0
 20
0.0
 30
0.0
  0
INSERT
  5
36E
100
AcDbEntity
  8
0
  6
Continuous
 62
     6
100
AcDbBlockReference
  2
*B53
 10
0.0
 20
0.0
 30
0.0
  0
INSERT
  5
374
100
AcDbEntity
  8
0
  6
Continuous
 62
     6
100
AcDbBlockReference
  2
*B54
 10
0.0
 20
0.0
 30
0.0
  0
INSERT
  5
37A
100
AcDbEntity
  8
0
  6
Continuous
 62
     6
100
AcDbBlockReference
  2
*B55
 10
0.0
 20
0.0
 30
0.0
  0
INSERT
  5
380
100
AcDbEntity
  8
0
  6
Continuous
 62
     6
100
AcDbBlockReference
  2
*B56
 10
0.0
 20
0.0
 30
0.0
  0
INSERT
  5
386
100
AcDbEntity
  8
0
  6
Continuous
 62
     6
100
AcDbBlockReference
  2
*B57
 10
0.0
 20
0.0
 30
0.0
  0
INSERT
  5
38C
100
AcDbEntity
  8
0
  6
Continuous
 62
     6
100
AcDbBlockReference
  2
*B58
 10
0.0
 20
0.0
 30
0.0
  0
INSERT
  5
392
100
AcDbEntity
  8
0
  6
Continuous
 62
     6
100
AcDbBlockReference
  2
*B59
 10
0.0
 20
0.0
 30
0.0
  0
INSERT
  5
398
100
AcDbEntity
  8
0
  6
Continuous
 62
     6
100
AcDbBlockReference
  2
*B60
 10
0.0
 20
0.0
 30
0.0
  0
INSERT
  5
39E
100
AcDbEntity
  8
0
  6
Continuous
 62
     6
100
AcDbBlockReference
  2
*B61
 10
0.0
 20
0.0
 30
0.0
  0
INSERT
  5
3A4
100
AcDbEntity
  8
0
  6
Continuous
 62
     6
100
AcDbBlockReference
  2
*B62
 10
0.0
 20
0.0
 30
0.0
  0
INSERT
  5
3A9
100
AcDbEntity
  8
TEXT
  6
Continuous
 62
     0
100
AcDbBlockReference
  2
*B63
 10
0.0
 20
0.0
 30
0.0
  0
INSERT
  5
3AE
100
AcDbEntity
  8
TEXT
  6
Continuous
 62
     0
100
AcDbBlockReference
  2
*B64
 10
0.0
 20
0.0
 30
0.0
  0
INSERT
  5
3B3
100
AcDbEntity
  8
TEXT
  6
Continuous
 62
     0
100
AcDbBlockReference
  2
*B65
 10
0.0
 20
0.0
 30
0.0
  0
INSERT
  5
3B8
100
AcDbEntity
  8
TEXT
  6
Continuous
 62
     0
100
AcDbBlockReference
  2
*B66
 10
0.0
 20
0.0
 30
0.0
  0
INSERT
  5
3BD
100
AcDbEntity
  8
TEXT
  6
Continuous
 62
     0
100
AcDbBlockReference
  2
*B67
 10
0.0
 20
0.0
 30
0.0
  0
INSERT
  5
3C2
100
AcDbEntity
  8
TEXT
  6
Continuous
 62
     0
100
AcDbBlockReference
  2
*B68
 10
0.0
 20
0.0
 30
0.0
  0
INSERT
  5
3C7
100
AcDbEntity
  8
TEXT
  6
Continuous
 62
     0
100
AcDbBlockReference
  2
*B69
 10
0.0
 20
0.0
 30
0.0
  0
INSERT
  5
3CC
100
AcDbEntity
  8
TEXT
  6
Continuous
 62
     0
100
AcDbBlockReference
  2
*B70
 10
0.0
 20
0.0
 30
0.0
  0
INSERT
  5
3D1
100
AcDbEntity
  8
TEXT
  6
Continuous
 62
     0
100
AcDbBlockReference
  2
*B71
 10
0.0
 20
0.0
 30
0.0
  0
INSERT
  5
3D6
100
AcDbEntity
  8
TEXT
  6
Continuous
 62
     0
100
AcDbBlockReference
  2
*B72
 10
0.0
 20
0.0
 30
0.0
  0
INSERT
  5
3DB
100
AcDbEntity
  8
TEXT
  6
Continuous
 62
     0
100
AcDbBlockReference
  2
*B73
 10
0.0
 20
0.0
 30
0.0
  0
INSERT
  5
3E0
100
AcDbEntity
  8
TEXT
  6
Continuous
 62
     0
100
AcDbBlockReference
  2
*B74
 10
0.0
 20
0.0
 30
0.0
  0
INSERT
  5
3E5
100
AcDbEntity
  8
TEXT
  6
Continuous
 62
     0
100
AcDbBlockReference
  2
*B75
 10
0.0
 20
0.0
 30
0.0
  0
INSERT
  5
3EA
100
AcDbEntity
  8
TEXT
  6
Continuous
 62
     0
100
AcDbBlockReference
  2
*B76
 10
0.0
 20
0.0
 30
0.0
  0
INSERT
  5
3EF
100
AcDbEntity
  8
TEXT
  6
Continuous
 62
     0
100
AcDbBlockReference
  2
*B77
 10
0.0
 20
0.0
 30
0.0
  0
INSERT
  5
3F4
100
AcDbEntity
  8
TEXT
  6
Continuous
 62
     0
100
AcDbBlockReference
  2
*B78
 10
0.0
 20
0.0
 30
0.0
  0
INSERT
  5
3F9
100
AcDbEntity
  8
TEXT
  6
Continuous
 62
     0
100
AcDbBlockReference
  2
*B79
 10
0.0
 20
0.0
 30
0.0
  0
INSERT
  5
3FE
100
AcDbEntity
  8
TEXT
  6
Continuous
 62
     0
100
AcDbBlockReference
  2
*B80
 10
0.0
 20
0.0
 30
0.0
  0
INSERT
  5
403
100
AcDbEntity
  8
TEXT
  6
Continuous
 62
     0
100
AcDbBlockReference
  2
*B81
 10
0.0
 20
0.0
 30
0.0
  0
INSERT
  5
408
100
AcDbEntity
  8
TEXT
  6
Continuous
 62
     0
100
AcDbBlockReference
  2
*B82
 10
0.0
 20
0.0
 30
0.0
  0
INSERT
  5
40D
100
AcDbEntity
  8
TEXT
  6
Continuous
 62
     0
100
AcDbBlockReference
  2
*B83
 10
0.0
 20
0.0
 30
0.0
  0
INSERT
  5
412
100
AcDbEntity
  8
TEXT
  6
Continuous
 62
     0
100
AcDbBlockReference
  2
*B84
 10
0.0
 20
0.0
 30
0.0
  0
INSERT
  5
417
100
AcDbEntity
  8
TEXT
  6
Continuous
 62
     0
100
AcDbBlockReference
  2
*B85
 10
0.0
 20
0.0
 30
0.0
  0
ENDSEC
  0
SECTION
  2
OBJECTS
  0
DICTIONARY
  5
19
100
AcDbDictionary
280
     0
281
     1
  3
ACAD_GROUP
350
1A
  3
ACAD_MLINESTYLE
350
1B
  3
ACAD_LAYOUT
350
1E
  3
ACAD_PLOTSETTINGS
350
22
  3
ACAD_PLOTSTYLENAME
350
1F
  3
ACAD_WIPEOUT_VARS
350
23
  0
DICTIONARY
  5
1A
102
{ACAD_REACTORS
330
19
102
}
100
AcDbDictionary
280
     0
281
     1
  0
DICTIONARY
  5
1B
102
{ACAD_REACTORS
330
19
102
}
100
AcDbDictionary
280
     0
281
     1
  3
Standard
350
1C
  0
MLINESTYLE
  5
1C
102
{ACAD_REACTORS
330
1B
102
}
100
AcDbMlineStyle
  2
Standard
 70
     0
  3

 62
     0
 51
90.0
 52
90.0
 71
     2
 49
0.5
 62
   256
  6
BYLAYER
 49
-0.5
 62
   256
  6
BYLAYER
  0
ACDBDICTIONARYWDFLT
  5
1F
102
{ACAD_REACTORS
330
19
102
}
100
AcDbDictionary
281
     1
  3
Normal
350
1D
100
AcDbDictionaryWithDefault
340
1D
  0
ACDBPLACEHOLDER
  5
1D
102
{ACAD_REACTORS
330
1F
102
}
  0
LAYOUT
  5
20
102
{ACAD_REACTORS
330
1E
102
}
100
AcDbPlotSettings
  1

  2

  4

  6

 40
0.0
 41
0.0
 42
0.0
 43
0.0
 44
0.0
 45
0.0
 46
0.0
 47
0.0
 48
0.0
 49
0.0
140
0.0
141
0.0
142
1.0
143
1.0
 70
     0
 72
     0
 73
     0
 74
     0
  7

 75
     0
147
1.0
148
0.0
149
0.0
100
AcDbLayout
  1
Model
 70
     0
 71
     0
 10
0.0
 20
0.0
 11
0.0
 21
0.0
 12
0.0
 22
0.0
 32
0.0
 14
0.0
 24
0.0
 34
0.0
 15
0.0
 25
0.0
 35
0.0
146
0.0
 13
0.0
 23
0.0
 33
0.0
 16
0.0
 26
0.0
 36
0.0
 17
0.0
 27
0.0
 37
0.0
 76
     0
330
A
331
0
345
0
346
0
  0
LAYOUT
  5
21
102
{ACAD_REACTORS
330
1E
102
}
100
AcDbPlotSettings
  1

  2

  4

  6

 40
0.0
 41
0.0
 42
0.0
 43
0.0
 44
0.0
 45
0.0
 46
0.0
 47
0.0
 48
0.0
 49
0.0
140
0.0
141
0.0
142
1.0
143
1.0
 70
     0
 72
     0
 73
     0
 74
     0
  7

 75
     0
147
1.0
148
0.0
149
0.0
100
AcDbLayout
  1
Layout1
 70
     0
 71
     0
 10
0.0
 20
0.0
 11
0.0
 21
0.0
 12
0.0
 22
0.0
 32
0.0
 14
0.0
 24
0.0
 34
0.0
 15
0.0
 25
0.0
 35
0.0
146
0.0
 13
0.0
 23
0.0
 33
0.0
 16
0.0
 26
0.0
 36
0.0
 17
0.0
 27
0.0
 37
0.0
 76
     0
330
B
331
0
345
0
346
0
  0
DICTIONARY
  5
1E
102
{ACAD_REACTORS
330
19
102
}
100
AcDbDictionary
280
     0
281
     1
  3
Layout1
350
21
  3
Model
350
20
  0
DICTIONARY
  5
22
102
{ACAD_REACTORS
330
19
102
}
100
AcDbDictionary
280
     0
281
     1
  0
WIPEOUTVARIABLES
  5
23
100
AcDbWipeoutVariables
 70
     1
  0
ENDSEC
  0
EOF
