  0
SECTION
  2
HEADER
  9
$ACADVER
  1
AC1015
  9
$ACADMAINTVER
 70
     6
  9
$DWGCODEPAGE
  3
DOS850
  9
$INSBASE
 10
0.0
 20
0.0
 30
0.0
  9
$EXTMIN
 10
0.0
 20
0.0
 30
0.0
  9
$EXTMAX
 10
297.0
 20
210.0
 30
0.0
  9
$LIMMIN
 10
0.0
 20
0.0
  9
$LIMMAX
 10
297.0
 20
210.0
  9
$ORTHOMODE
 70
     0
  9
$REGENMODE
 70
     1
  9
$FILLMODE
 70
     1
  9
$QTEXTMODE
 70
     0
  9
$MIRRTEXT
 70
     1
  9
$LTSCALE
 40
25.4
  9
$ATTMODE
 70
     1
  9
$TEXTSIZE
 40
3.5
  9
$TRACEWID
 40
0.05
  9
$TEXTSTYLE
  7
Standard
  9
$CLAYER
  8
0
  9
$CELTYPE
  6
Continuous
  9
$CECOLOR
 62
   256
  9
$CELTSCALE
 40
1.0
  9
$DISPSILH
 70
     0
  9
$DIMSCALE
 40
1.0
  9
$DIMASZ
 40
5.0
  9
$DIMEXO
 40
3.0
  9
$DIMDLI
 40
0.38
  9
$DIMRND
 40
0.0
  9
$DIMDLE
 40
0.0
  9
$DIMEXE
 40
2.0
  9
$DIMTP
 40
0.0
  9
$DIMTM
 40
0.0
  9
$DIMTXT
 40
3.5
  9
$DIMCEN
 40
4.0
  9
$DIMTSZ
 40
0.0
  9
$DIMTOL
 70
     0
  9
$DIMLIM
 70
     0
  9
$DIMTIH
 70
     1
  9
$DIMTOH
 70
     1
  9
$DIMSE1
 70
     0
  9
$DIMSE2
 70
     0
  9
$DIMTAD
 70
     0
  9
$DIMZIN
 70
     0
  9
$DIMBLK
  1

  9
$DIMASO
 70
     1
  9
$DIMSHO
 70
     1
  9
$DIMPOST
  1

  9
$DIMAPOST
  1

  9
$DIMALT
 70
     0
  9
$DIMALTD
 70
     2
  9
$DIMALTF
 40
25.4
  9
$DIMLFAC
 40
1.0
  9
$DIMTOFL
 70
     0
  9
$DIMTVP
 40
0.0
  9
$DIMTIX
 70
     0
  9
$DIMSOXD
 70
     0
  9
$DIMSAH
 70
     0
  9
$DIMBLK1
  1

  9
$DIMBLK2
  1

  9
$DIMSTYLE
  2
Standard
  9
$DIMCLRD
 70
     0
  9
$DIMCLRE
 70
     0
  9
$DIMCLRT
 70
     0
  9
$DIMTFAC
 40
1.0
  9
$DIMGAP
 40
1.0
  9
$DIMJUST
 70
     0
  9
$DIMSD1
 70
     0
  9
$DIMSD2
 70
     0
  9
$DIMTOLJ
 70
     1
  9
$DIMTZIN
 70
     0
  9
$DIMALTZ
 70
     0
  9
$DIMALTTZ
 70
     0
  9
$DIMUPT
 70
     0
  9
$DIMDEC
 70
     4
  9
$DIMTDEC
 70
     4
  9
$DIMALTU
 70
     2
  9
$DIMALTTD
 70
     2
  9
$DIMTXSTY
  7
Standard
  9
$DIMAUNIT
 70
     0
  9
$DIMADEC
 70
     0
  9
$DIMALTRND
 40
0.0
  9
$DIMAZIN
 70
     0
  9
$DIMDSEP
 70
     0
  9
$DIMATFIT
 70
     3
  9
$DIMFRAC
 70
     0
  9
$DIMLDRBLK
  1

  9
$DIMLUNIT
 70
     2
  9
$DIMLWD
 70
     0
  9
$DIMLWE
 70
     0
  9
$DIMTMOVE
 70
     0
  9
$LUNITS
 70
     2
  9
$LUPREC
 70
     4
  9
$SKETCHINC
 40
0.1
  9
$FILLETRAD
 40
0.0
  9
$AUNITS
 70
     0
  9
$AUPREC
 70
     0
  9
$MENU
  1
acad
  9
$ELEVATION
 40
0.0
  9
$PELEVATION
 40
0.0
  9
$THICKNESS
 40
0.0
  9
$LIMCHECK
 70
     0
  9
$CHAMFERA
 40
0.0
  9
$CHAMFERB
 40
0.0
  9
$CHAMFERC
 40
0.0
  9
$CHAMFERD
 40
0.0
  9
$SKPOLY
 70
     0
  9
$TDCREATE
 40
0.000000000
  9
$TDUCREATE
 40
0.000000000
  9
$TDUPDATE
 40
0.000000000
  9
$TDUUPDATE
 40
0.000000000
  9
$TDINDWG
 40
0.0000000000
  9
$TDUSRTIMER
 40
0.0000000000
  9
$USRTIMER
 70
     1
  9
$ANGBASE
 50
0.0
  9
$ANGDIR
 70
     0
  9
$PDMODE
 70
     0
  9
$PDSIZE
 40
0.0
  9
$PLINEWID
 40
0.0
  9
$SPLFRAME
 70
     0
  9
$SPLINETYPE
 70
     6
  9
$SPLINESEGS
 70
     8
  9
$HANDSEED
  5
535
  9
$SURFTAB1
 70
     6
  9
$SURFTAB2
 70
     6
  9
$SURFTYPE
 70
     6
  9
$SURFU
 70
     6
  9
$SURFV
 70
     6
  9
$UCSBASE
  2

  9
$UCSNAME
  2

  9
$UCSORG
 10
0.0
 20
0.0
 30
0.0
  9
$UCSXDIR
 10
1.0
 20
0.0
 30
0.0
  9
$UCSYDIR
 10
0.0
 20
1.0
 30
0.0
  9
$UCSORTHOREF
  2

  9
$UCSORTHOVIEW
 70
     0
  9
$UCSORGTOP
 10
0.0
 20
0.0
 30
0.0
  9
$UCSORGBOTTOM
 10
0.0
 20
0.0
 30
0.0
  9
$UCSORGLEFT
 10
0.0
 20
0.0
 30
0.0
  9
$UCSORGRIGHT
 10
0.0
 20
0.0
 30
0.0
  9
$UCSORGFRONT
 10
0.0
 20
0.0
 30
0.0
  9
$UCSORGBACK
 10
0.0
 20
0.0
 30
0.0
  9
$PUCSBASE
  2

  9
$PUCSNAME
  2

  9
$PUCSORG
 10
0.0
 20
0.0
 30
0.0
  9
$PUCSXDIR
 10
1.0
 20
0.0
 30
0.0
  9
$PUCSYDIR
 10
0.0
 20
1.0
 30
0.0
  9
$PUCSORTHOREF
  2

  9
$PUCSORTHOVIEW
 70
     0
  9
$PUCSORGTOP
 10
0.0
 20
0.0
 30
0.0
  9
$PUCSORGBOTTOM
 10
0.0
 20
0.0
 30
0.0
  9
$PUCSORGLEFT
 10
0.0
 20
0.0
 30
0.0
  9
$PUCSORGRIGHT
 10
0.0
 20
0.0
 30
0.0
  9
$PUCSORGFRONT
 10
0.0
 20
0.0
 30
0.0
  9
$PUCSORGBACK
 10
0.0
 20
0.0
 30
0.0
  9
$USERI1
 70
     0
  9
$USERI2
 70
     0
  9
$USERI3
 70
     0
  9
$USERI4
 70
     0
  9
$USERI5
 70
     0
  9
$USERR1
 40
0.0
  9
$USERR2
 40
0.0
  9
$USERR3
 40
0.0
  9
$USERR4
 40
0.0
  9
$USERR5
 40
0.0
  9
$WORLDVIEW
 70
     1
  9
$SHADEDGE
 70
     3
  9
$SHADEDIF
 70
    70
  9
$TILEMODE
 70
     1
  9
$MAXACTVP
 70
    16
  9
$PINSBASE
 10
0.0
 20
0.0
 30
0.0
  9
$PLIMCHECK
 70
     0
  9
$PEXTMIN
 10
1.000000E+20
 20
1.000000E+20
 30
1.000000E+20
  9
$PEXTMAX
 10
-1.000000E+20
 20
-1.000000E+20
 30
-1.000000E+20
  9
$PLIMMIN
 10
0.0
 20
0.0
  9
$PLIMMAX
 10
297.0
 20
210.0
  9
$UNITMODE
 70
     0
  9
$VISRETAIN
 70
     0
  9
$PLINEGEN
 70
     1
  9
$PSLTSCALE
 70
     0
  9
$TREEDEPTH
 70
  3020
  9
$CMLSTYLE
  2
Standard
  9
$CMLJUST
 70
     0
  9
$CMLSCALE
 40
1.0
  9
$PROXYGRAPHICS
 70
     0
  9
$MEASUREMENT
 70
     0
  9
$CELWEIGHT
370
     0
  9
$ENDCAPS
280
     0
  9
$JOINSTYLE
280
     0
  9
$LWDISPLAY
290
     0
  9
$INSUNITS
 70
     0
  9
$HYPERLINKBASE
  1

  9
$XEDIT
290
     1
  9
$CEPSNTYPE
380
     0
  9
$PSTYLEMODE
290
     0
  9
$FINGERPRINTGUID
  2

  9
$VERSIONGUID
  2

  9
$EXTNAMES
290
     1
  9
$PSVPSCALE
 40
0.0
  0
ENDSEC
  0
SECTION
  2
CLASSES
  0
CLASS
  1
LWPOLYLINE
  2
AcDbPolyline
  3
"AutoCAD"
 90
        0
280
     0
281
     1
  0
CLASS
  1
IMAGE
  2
AcDbRasterImage
  3
ISM
 90
      127
280
     0
281
     1
  0
CLASS
  1
OLE2FRAME
  2
AcDbOle2Frame
  3
""
 90
        0
280
     0
281
     1
  0
CLASS
  1
HATCH
  2
AcDbHatch
  3
"ACAD_SEDONA"
 90
        0
280
     0
281
     1
  0
CLASS
  1
DICTIONARYVAR
  2
AcDbDictionaryVar
  3
"AutoCAD"
 90
        0
280
     0
281
     0
  0
CLASS
  1
RASTERVARIABLES
  2
AcDbRasterVariables
  3
ISM
 90
        0
280
     0
281
     0
  0
CLASS
  1
IMAGEDEF
  2
AcDbRasterImageDef
  3
ISM
 90
        0
280
     0
281
     0
  0
CLASS
  1
IMAGEDEF_REACTOR
  2
AcDbRasterImageDefReactor
  3
ISM
 90
        1
280
     0
281
     0
  0
CLASS
  1
IDBUFFER
  2
AcDbIdBuffer
  3
"Acad"
 90
        0
280
     0
281
     0
  0
CLASS
  1
SPATIAL_FILTER
  2
AcDbSpatialFilter
  3
"Acad"
 90
        0
280
     0
281
     0
  0
CLASS
  1
XRECORD
  2
AcDbXrecord
  3
"<Built In>"
 90
        0
280
     0
281
     0
  0
CLASS
  1
SORTENTSTABLE
  2
AcDbSortentsTable
  3
"AutoCAD"
 90
        0
280
     0
281
     0
  0
CLASS
  1
LAYER_INDEX
  2
AcDbLayerIndex
  3
"Acad"
 90
        0
280
     0
281
     0
  0
CLASS
  1
SPATIAL_INDEX
  2
AcDbSpatialIndex
  3
"Acad"
 90
        0
280
     0
281
     0
  0
CLASS
  1
OBJECT_PTR
  2
CAseDLPNTableRecord
  3
"ASE-LPNTableRecord"
 90
        1
280
     0
281
     0
  0
CLASS
  1
LAYOUT
  2
AcDbLayout
  3
"AutoCAD 2000"
 90
        1
280
     0
281
     0
  0
CLASS
  1
PLOTSETTINGS
  2
AcDbPlotSettings
  3
"AutoCAD 2000"
 90
        1
280
     0
281
     0
  0
CLASS
  1
ACDBDICTIONARYWDFLT
  2
AcDbDictionaryWithDefault
  3
"AutoCAD 2000"
 90
        1
280
     0
281
     0
  0
CLASS
  1
ACDBPLACEHOLDER
  2
AcDbPlaceHolder
  3
"AutoCAD 2000"
 90
        1
280
     0
281
     0
  0
CLASS
  1
VBA_PROJECT
  2
AcDbVbaProject
  3
"acadvba"
 90
        1
280
     0
281
     0
  0
CLASS
  1
WIPEOUT
  2
AcDbWipeout
  3
WipeOut|AutoCAD Express Tool|expresstools@autodesk.com
 90
      127
280
     0
281
     1
  0
CLASS
  1
WIPEOUTVARIABLES
  2
AcDbWipeoutVariables
  3
WipeOut|AutoCAD Express Tool|expresstools@autodesk.com
 90
        0
280
     0
281
     0
  0
CLASS
  1
RTEXT
  2
RText
  3
RText|AutoCAD Express Tool|expresstools@autodesk.com
 90
        0
280
     0
281
     1
  0
CLASS
  1
ARCALIGNEDTEXT
  2
AcDbArcAlignedText
  3
ATEXT|AutoCAD Express Tool|expresstools@autodesk.com
 90
        0
280
     0
281
     1
  0
ENDSEC
  0
SECTION
  2
TABLES
  0
TABLE
  2
VPORT
  5
7
100
AcDbSymbolTable
 70
     1
  0
VPORT
  5
15
100
AcDbSymbolTableRecord
100
AcDbViewportTableRecord
  2
*ACTIVE
 70
     0
 10
0.0
 20
0.0
 11
1.0
 21
1.0
 12
6.591288
 22
4.579184
 13
0.0
 23
0.0
 14
1.0
 24
1.0
 15
0.0
 25
0.0
 16
0.0
 26
0.0
 36
1.0
 17
0.0
 27
0.0
 37
0.0
 40
9.158369
 41
0.688564
 42
50.0
 43
0.0
 44
0.0
 50
0.0
 51
0.0
 71
     0
 72
   100
 73
     1
 74
     1
 75
     0
 76
     0
 77
     0
 78
     0
281
     0
 65
     0
110
0.0
120
0.0
130
0.0
111
1.0
121
0.0
131
0.0
112
0.0
122
1.0
132
0.0
345
0
346
0
 79
     0
146
0.0
  0
ENDTAB
  0
TABLE
  2
LTYPE
  5
4
100
AcDbSymbolTable
 70
     7
  0
LTYPE
  5
11
100
AcDbSymbolTableRecord
100
AcDbLinetypeTableRecord
  2
ByBlock
 70
    64
  3

 72
    65
 73
     0
 40
0.0
  0
LTYPE
  5
12
100
AcDbSymbolTableRecord
100
AcDbLinetypeTableRecord
  2
ByLayer
 70
    64
  3

 72
    65
 73
     0
 40
0.0
  0
LTYPE
  5
13
100
AcDbSymbolTableRecord
100
AcDbLinetypeTableRecord
  2
Continuous
 70
    64
  3
Solid line
 72
    65
 73
     0
 40
0.0
  0
LTYPE
  5
24
100
AcDbSymbolTableRecord
100
AcDbLinetypeTableRecord
  2
HIDDEN
 70
    64
  3
_ _ _ _ _ _ _ _ _ _ _ _ _ _ _ _ _ _ _ _ _ _ _ _
 72
    65
 73
     2
 40
0.1875
 49
0.125
 74
     0
 49
-0.0625
 74
     0
  0
LTYPE
  5
25
100
AcDbSymbolTableRecord
100
AcDbLinetypeTableRecord
  2
DOTTED
 70
    64
  3
...............................................
 72
    65
 73
     2
 40
0.125
 49
0.0
 74
     0
 49
-0.125
 74
     0
  0
LTYPE
  5
26
100
AcDbSymbolTableRecord
100
AcDbLinetypeTableRecord
  2
CENTER
 70
    64
  3
____ _ ____ _ ____ _ ____ _ ____ _ ____ _ ____ 
 72
    65
 73
     4
 40
1.125
 49
0.75
 74
     0
 49
-0.125
 74
     0
 49
0.125
 74
     0
 49
-0.125
 74
     0
  0
LTYPE
  5
27
100
AcDbSymbolTableRecord
100
AcDbLinetypeTableRecord
  2
PHANTOM
 70
    64
  3
______  __  __  ______  __  __  ______  __  __ 
 72
    65
 73
     6
 40
1.25
 49
0.625
 74
     0
 49
-0.125
 74
     0
 49
0.125
 74
     0
 49
-0.125
 74
     0
 49
0.125
 74
     0
 49
-0.125
 74
     0
  0
ENDTAB
  0
TABLE
  2
LAYER
  5
2
100
AcDbSymbolTable
 70
     2
  0
LAYER
  5
14
100
AcDbSymbolTableRecord
100
AcDbLayerTableRecord
  2
0
 70
     0
 62
     7
  6
Continuous
290
     1
370
    -3
390
1D
  0
LAYER
  5
28
100
AcDbSymbolTableRecord
100
AcDbLayerTableRecord
  2
TEXT
 70
     0
 62
     8
  6
Continuous
290
     1
370
    -3
390
1F
  0
ENDTAB
  0
TABLE
  2
STYLE
  5
3
100
AcDbSymbolTable
 70
     1
  0
STYLE
  5
17
100
AcDbSymbolTableRecord
100
AcDbTextStyleTableRecord
  2
Standard
 70
     0
 40
0.0
 41
1.0
 50
0.0
 71
     0
 42
0.0
  3
txt
  4

  0
ENDTAB
  0
TABLE
  2
VIEW
  5
5
100
AcDbSymbolTable
 70
     0
  0
ENDTAB
  0
TABLE
  2
UCS
  5
6
100
AcDbSymbolTable
 70
     0
  0
ENDTAB
  0
TABLE
  2
APPID
  5
8
100
AcDbSymbolTable
 70
     1
  0
APPID
  5
16
100
AcDbSymbolTableRecord
100
AcDbRegAppTableRecord
  2
ACAD
 70
     0
  0
ENDTAB
  0
TABLE
  2
DIMSTYLE
  5
9
100
AcDbSymbolTable
 70
     1
100
AcDbDimStyleTable
 71
     0
  0
DIMSTYLE
105
18
100
AcDbSymbolTableRecord
100
AcDbDimStyleTableRecord
  2
Standard
 70
     0
  3

  4

 40
1.0
 41
0.18
 42
0.0625
 43
0.38
 44
0.18
 45
0.0
 46
0.0
 47
0.0
 48
0.0
 71
     0
 72
     0
 73
     1
 74
     1
 75
     0
 76
     0
 77
     0
 78
     0
 79
     0
140
0.18
141
0.09
142
0.0
143
25.4
144
1.0
145
0.0
146
1.0
147
0.09
148
0.0
170
     0
171
     2
172
     0
173
     0
174
     0
175
     0
176
     0
177
     0
178
     0
179
     0
271
     4
272
     4
273
     2
274
     2
275
     0
276
     0
277
     2
278
    46
279
     0
280
     0
281
     0
282
     0
283
     1
284
     0
285
     0
286
     0
288
     0
340
17
341
0
342
0
343
0
344
0
371
    -2
372
    -2
  0
ENDTAB
  0
TABLE
  2
BLOCK_RECORD
  5
1
100
AcDbSymbolTable
 70
   101
  0
BLOCK_RECORD
  5
A
100
AcDbSymbolTableRecord
100
AcDbBlockTableRecord
  2
*MODEL_SPACE
340
20
  0
BLOCK_RECORD
  5
B
100
AcDbSymbolTableRecord
100
AcDbBlockTableRecord
  2
*PAPER_SPACE
340
21
  0
BLOCK_RECORD
  5
29
100
AcDbSymbolTableRecord
100
AcDbBlockTableRecord
  2
*B0
340
0
  0
BLOCK_RECORD
  5
31
100
AcDbSymbolTableRecord
100
AcDbBlockTableRecord
  2
*B1
340
0
  0
BLOCK_RECORD
  5
34
100
AcDbSymbolTableRecord
100
AcDbBlockTableRecord
  2
*B2
340
0
  0
BLOCK_RECORD
  5
169
100
AcDbSymbolTableRecord
100
AcDbBlockTableRecord
  2
*B3
340
0
  0
BLOCK_RECORD
  5
173
100
AcDbSymbolTableRecord
100
AcDbBlockTableRecord
  2
*B4
340
0
  0
BLOCK_RECORD
  5
2A2
100
AcDbSymbolTableRecord
100
AcDbBlockTableRecord
  2
*B5
340
0
  0
BLOCK_RECORD
  5
2A8
100
AcDbSymbolTableRecord
100
AcDbBlockTableRecord
  2
*B6
340
0
  0
BLOCK_RECORD
  5
2B3
100
AcDbSymbolTableRecord
100
AcDbBlockTableRecord
  2
*B7
340
0
  0
BLOCK_RECORD
  5
2B6
100
AcDbSymbolTableRecord
100
AcDbBlockTableRecord
  2
*B8
340
0
  0
BLOCK_RECORD
  5
2BC
100
AcDbSymbolTableRecord
100
AcDbBlockTableRecord
  2
*B9
340
0
  0
BLOCK_RECORD
  5
2C7
100
AcDbSymbolTableRecord
100
AcDbBlockTableRecord
  2
*B10
340
0
  0
BLOCK_RECORD
  5
2CA
100
AcDbSymbolTableRecord
100
AcDbBlockTableRecord
  2
*B11
340
0
  0
BLOCK_RECORD
  5
2D1
100
AcDbSymbolTableRecord
100
AcDbBlockTableRecord
  2
*B12
340
0
  0
BLOCK_RECORD
  5
2D8
100
AcDbSymbolTableRecord
100
AcDbBlockTableRecord
  2
*B13
340
0
  0
BLOCK_RECORD
  5
2DF
100
AcDbSymbolTableRecord
100
AcDbBlockTableRecord
  2
*B14
340
0
  0
BLOCK_RECORD
  5
2E6
100
AcDbSymbolTableRecord
100
AcDbBlockTableRecord
  2
*B15
340
0
  0
BLOCK_RECORD
  5
2ED
100
AcDbSymbolTableRecord
100
AcDbBlockTableRecord
  2
*B16
340
0
  0
BLOCK_RECORD
  5
2F4
100
AcDbSymbolTableRecord
100
AcDbBlockTableRecord
  2
*B17
340
0
  0
BLOCK_RECORD
  5
2FB
100
AcDbSymbolTableRecord
100
AcDbBlockTableRecord
  2
*B18
340
0
  0
BLOCK_RECORD
  5
302
100
AcDbSymbolTableRecord
100
AcDbBlockTableRecord
  2
*B19
340
0
  0
BLOCK_RECORD
  5
309
100
AcDbSymbolTableRecord
100
AcDbBlockTableRecord
  2
*B20
340
0
  0
BLOCK_RECORD
  5
310
100
AcDbSymbolTableRecord
100
AcDbBlockTableRecord
  2
*B21
340
0
  0
BLOCK_RECORD
  5
317
100
AcDbSymbolTableRecord
100
AcDbBlockTableRecord
  2
*B22
340
0
  0
BLOCK_RECORD
  5
31E
100
AcDbSymbolTableRecord
100
AcDbBlockTableRecord
  2
*B23
340
0
  0
BLOCK_RECORD
  5
325
100
AcDbSymbolTableRecord
100
AcDbBlockTableRecord
  2
*B24
340
0
  0
BLOCK_RECORD
  5
32C
100
AcDbSymbolTableRecord
100
AcDbBlockTableRecord
  2
*B25
340
0
  0
BLOCK_RECORD
  5
333
100
AcDbSymbolTableRecord
100
AcDbBlockTableRecord
  2
*B26
340
0
  0
BLOCK_RECORD
  5
33A
100
AcDbSymbolTableRecord
100
AcDbBlockTableRecord
  2
*B27
340
0
  0
BLOCK_RECORD
  5
341
100
AcDbSymbolTableRecord
100
AcDbBlockTableRecord
  2
*B28
340
0
  0
BLOCK_RECORD
  5
347
100
AcDbSymbolTableRecord
100
AcDbBlockTableRecord
  2
*B29
340
0
  0
BLOCK_RECORD
  5
368
100
AcDbSymbolTableRecord
100
AcDbBlockTableRecord
  2
*B30
340
0
  0
BLOCK_RECORD
  5
36D
100
AcDbSymbolTableRecord
100
AcDbBlockTableRecord
  2
*B31
340
0
  0
BLOCK_RECORD
  5
37B
100
AcDbSymbolTableRecord
100
AcDbBlockTableRecord
  2
*B32
340
0
  0
BLOCK_RECORD
  5
386
100
AcDbSymbolTableRecord
100
AcDbBlockTableRecord
  2
*B33
340
0
  0
BLOCK_RECORD
  5
38D
100
AcDbSymbolTableRecord
100
AcDbBlockTableRecord
  2
*B34
340
0
  0
BLOCK_RECORD
  5
396
100
AcDbSymbolTableRecord
100
AcDbBlockTableRecord
  2
*B35
340
0
  0
BLOCK_RECORD
  5
39B
100
AcDbSymbolTableRecord
100
AcDbBlockTableRecord
  2
*B36
340
0
  0
BLOCK_RECORD
  5
3A6
100
AcDbSymbolTableRecord
100
AcDbBlockTableRecord
  2
*B37
340
0
  0
BLOCK_RECORD
  5
3AC
100
AcDbSymbolTableRecord
100
AcDbBlockTableRecord
  2
*B38
340
0
  0
BLOCK_RECORD
  5
3BA
100
AcDbSymbolTableRecord
100
AcDbBlockTableRecord
  2
*B39
340
0
  0
BLOCK_RECORD
  5
3C3
100
AcDbSymbolTableRecord
100
AcDbBlockTableRecord
  2
*B40
340
0
  0
BLOCK_RECORD
  5
3C8
100
AcDbSymbolTableRecord
100
AcDbBlockTableRecord
  2
*B41
340
0
  0
BLOCK_RECORD
  5
3CD
100
AcDbSymbolTableRecord
100
AcDbBlockTableRecord
  2
*B42
340
0
  0
BLOCK_RECORD
  5
3D2
100
AcDbSymbolTableRecord
100
AcDbBlockTableRecord
  2
*B43
340
0
  0
BLOCK_RECORD
  5
3DF
100
AcDbSymbolTableRecord
100
AcDbBlockTableRecord
  2
*B44
340
0
  0
BLOCK_RECORD
  5
3E6
100
AcDbSymbolTableRecord
100
AcDbBlockTableRecord
  2
*B45
340
0
  0
BLOCK_RECORD
  5
3EB
100
AcDbSymbolTableRecord
100
AcDbBlockTableRecord
  2
*B46
340
0
  0
BLOCK_RECORD
  5
3F4
100
AcDbSymbolTableRecord
100
AcDbBlockTableRecord
  2
*B47
340
0
  0
BLOCK_RECORD
  5
404
100
AcDbSymbolTableRecord
100
AcDbBlockTableRecord
  2
*B48
340
0
  0
BLOCK_RECORD
  5
409
100
AcDbSymbolTableRecord
100
AcDbBlockTableRecord
  2
*B49
340
0
  0
BLOCK_RECORD
  5
40E
100
AcDbSymbolTableRecord
100
AcDbBlockTableRecord
  2
*B50
340
0
  0
BLOCK_RECORD
  5
413
100
AcDbSymbolTableRecord
100
AcDbBlockTableRecord
  2
*B51
340
0
  0
BLOCK_RECORD
  5
418
100
AcDbSymbolTableRecord
100
AcDbBlockTableRecord
  2
*B52
340
0
  0
BLOCK_RECORD
  5
41D
100
AcDbSymbolTableRecord
100
AcDbBlockTableRecord
  2
*B53
340
0
  0
BLOCK_RECORD
  5
423
100
AcDbSymbolTableRecord
100
AcDbBlockTableRecord
  2
*B54
340
0
  0
BLOCK_RECORD
  5
428
100
AcDbSymbolTableRecord
100
AcDbBlockTableRecord
  2
*B55
340
0
  0
BLOCK_RECORD
  5
42D
100
AcDbSymbolTableRecord
100
AcDbBlockTableRecord
  2
*B56
340
0
  0
BLOCK_RECORD
  5
449
100
AcDbSymbolTableRecord
100
AcDbBlockTableRecord
  2
*B57
340
0
  0
BLOCK_RECORD
  5
44E
100
AcDbSymbolTableRecord
100
AcDbBlockTableRecord
  2
*B58
340
0
  0
BLOCK_RECORD
  5
453
100
AcDbSymbolTableRecord
100
AcDbBlockTableRecord
  2
*B59
340
0
  0
BLOCK_RECORD
  5
45D
100
AcDbSymbolTableRecord
100
AcDbBlockTableRecord
  2
*B60
340
0
  0
BLOCK_RECORD
  5
462
100
AcDbSymbolTableRecord
100
AcDbBlockTableRecord
  2
*B61
340
0
  0
BLOCK_RECORD
  5
467
100
AcDbSymbolTableRecord
100
AcDbBlockTableRecord
  2
*B62
340
0
  0
BLOCK_RECORD
  5
46C
100
AcDbSymbolTableRecord
100
AcDbBlockTableRecord
  2
*B63
340
0
  0
BLOCK_RECORD
  5
472
100
AcDbSymbolTableRecord
100
AcDbBlockTableRecord
  2
*B64
340
0
  0
BLOCK_RECORD
  5
478
100
AcDbSymbolTableRecord
100
AcDbBlockTableRecord
  2
*B65
340
0
  0
BLOCK_RECORD
  5
47E
100
AcDbSymbolTableRecord
100
AcDbBlockTableRecord
  2
*B66
340
0
  0
BLOCK_RECORD
  5
484
100
AcDbSymbolTableRecord
100
AcDbBlockTableRecord
  2
*B67
340
0
  0
BLOCK_RECORD
  5
48A
100
AcDbSymbolTableRecord
100
AcDbBlockTableRecord
  2
*B68
340
0
  0
BLOCK_RECORD
  5
490
100
AcDbSymbolTableRecord
100
AcDbBlockTableRecord
  2
*B69
340
0
  0
BLOCK_RECORD
  5
496
100
AcDbSymbolTableRecord
100
AcDbBlockTableRecord
  2
*B70
340
0
  0
BLOCK_RECORD
  5
49C
100
AcDbSymbolTableRecord
100
AcDbBlockTableRecord
  2
*B71
340
0
  0
BLOCK_RECORD
  5
4A2
100
AcDbSymbolTableRecord
100
AcDbBlockTableRecord
  2
*B72
340
0
  0
BLOCK_RECORD
  5
4A8
100
AcDbSymbolTableRecord
100
AcDbBlockTableRecord
  2
*B73
340
0
  0
BLOCK_RECORD
  5
4AE
100
AcDbSymbolTableRecord
100
AcDbBlockTableRecord
  2
*B74
340
0
  0
BLOCK_RECORD
  5
4B3
100
AcDbSymbolTableRecord
100
AcDbBlockTableRecord
  2
*B75
340
0
  0
BLOCK_RECORD
  5
4B8
100
AcDbSymbolTableRecord
100
AcDbBlockTableRecord
  2
*B76
340
0
  0
BLOCK_RECORD
  5
4BD
100
AcDbSymbolTableRecord
100
AcDbBlockTableRecord
  2
*B77
340
0
  0
BLOCK_RECORD
  5
4C2
100
AcDbSymbolTableRecord
100
AcDbBlockTableRecord
  2
*B78
340
0
  0
BLOCK_RECORD
  5
4C7
100
AcDbSymbolTableRecord
100
AcDbBlockTableRecord
  2
*B79
340
0
  0
BLOCK_RECORD
  5
4CC
100
AcDbSymbolTableRecord
100
AcDbBlockTableRecord
  2
*B80
340
0
  0
BLOCK_RECORD
  5
4D1
100
AcDbSymbolTableRecord
100
AcDbBlockTableRecord
  2
*B81
340
0
  0
BLOCK_RECORD
  5
4D6
100
AcDbSymbolTableRecord
100
AcDbBlockTableRecord
  2
*B82
340
0
  0
BLOCK_RECORD
  5
4DB
100
AcDbSymbolTableRecord
100
AcDbBlockTableRecord
  2
*B83
340
0
  0
BLOCK_RECORD
  5
4E0
100
AcDbSymbolTableRecord
100
AcDbBlockTableRecord
  2
*B84
340
0
  0
BLOCK_RECORD
  5
4E5
100
AcDbSymbolTableRecord
100
AcDbBlockTableRecord
  2
*B85
340
0
  0
BLOCK_RECORD
  5
4EA
100
AcDbSymbolTableRecord
100
AcDbBlockTableRecord
  2
*B86
340
0
  0
BLOCK_RECORD
  5
4EF
100
AcDbSymbolTableRecord
100
AcDbBlockTableRecord
  2
*B87
340
0
  0
BLOCK_RECORD
  5
4F4
100
AcDbSymbolTableRecord
100
AcDbBlockTableRecord
  2
*B88
340
0
  0
BLOCK_RECORD
  5
4F9
100
AcDbSymbolTableRecord
100
AcDbBlockTableRecord
  2
*B89
340
0
  0
BLOCK_RECORD
  5
4FE
100
AcDbSymbolTableRecord
100
AcDbBlockTableRecord
  2
*B90
340
0
  0
BLOCK_RECORD
  5
503
100
AcDbSymbolTableRecord
100
AcDbBlockTableRecord
  2
*B91
340
0
  0
BLOCK_RECORD
  5
508
100
AcDbSymbolTableRecord
100
AcDbBlockTableRecord
  2
*B92
340
0
  0
BLOCK_RECORD
  5
50D
100
AcDbSymbolTableRecord
100
AcDbBlockTableRecord
  2
*B93
340
0
  0
BLOCK_RECORD
  5
512
100
AcDbSymbolTableRecord
100
AcDbBlockTableRecord
  2
*B94
340
0
  0
BLOCK_RECORD
  5
517
100
AcDbSymbolTableRecord
100
AcDbBlockTableRecord
  2
*B95
340
0
  0
BLOCK_RECORD
  5
51C
100
AcDbSymbolTableRecord
100
AcDbBlockTableRecord
  2
*B96
340
0
  0
BLOCK_RECORD
  5
521
100
AcDbSymbolTableRecord
100
AcDbBlockTableRecord
  2
*B97
340
0
  0
BLOCK_RECORD
  5
526
100
AcDbSymbolTableRecord
100
AcDbBlockTableRecord
  2
*B98
340
0
  0
BLOCK_RECORD
  5
52B
100
AcDbSymbolTableRecord
100
AcDbBlockTableRecord
  2
*B99
340
0
  0
BLOCK_RECORD
  5
530
100
AcDbSymbolTableRecord
100
AcDbBlockTableRecord
  2
*B100
340
0
  0
ENDTAB
  0
ENDSEC
  0
SECTION
  2
BLOCKS
  0
BLOCK
  5
D
100
AcDbEntity
  8
0
100
AcDbBlockBegin
  2
*MODEL_SPACE
 70
     0
 10
0.0
 20
0.0
 30
0.0
  3
*MODEL_SPACE
  1

  0
ENDBLK
  5
E
100
AcDbEntity
  8
0
100
AcDbBlockEnd
  0
BLOCK
  5
F
100
AcDbEntity
 67
     1
  8
0
100
AcDbBlockBegin
  2
*PAPER_SPACE
 70
     0
 10
0.0
 20
0.0
 30
0.0
  3
*PAPER_SPACE
  1

  0
ENDBLK
  5
10
100
AcDbEntity
 67
     1
  8
0
100
AcDbBlockEnd
  0
BLOCK
  5
2A
100
AcDbEntity
  8
0
100
AcDbBlockBegin
  2
*B0
 70
     0
 10
0.0
 20
0.0
 30
0.0
  3
*B0
  1

  0
LINE
  5
2B
100
AcDbEntity
  8
0
  6
Continuous
 62
   172
100
AcDbLine
 10
159.0
 20
38.55
 30
0.0
 11
159.0
 21
31.25
 31
0.0
  0
LINE
  5
2C
100
AcDbEntity
  8
0
  6
Continuous
 62
   172
100
AcDbLine
 10
162.9
 20
38.55
 30
0.0
 11
162.9
 21
31.25
 31
0.0
  0
LINE
  5
2D
100
AcDbEntity
  8
0
  6
Continuous
 62
   172
100
AcDbLine
 10
183.0
 20
38.55
 30
0.0
 11
183.0
 21
31.25
 31
0.0
  0
LINE
  5
2E
100
AcDbEntity
  8
0
  6
Continuous
 62
   172
100
AcDbLine
 10
186.9
 20
38.55
 30
0.0
 11
186.9
 21
31.25
 31
0.0
  0
ENDBLK
  5
2F
100
AcDbEntity
  8
0
100
AcDbBlockEnd
  0
BLOCK
  5
32
100
AcDbEntity
  8
0
100
AcDbBlockBegin
  2
*B1
 70
     0
 10
0.0
 20
0.0
 30
0.0
  3
*B1
  1

  0
ENDBLK
  5
33
100
AcDbEntity
  8
0
100
AcDbBlockEnd
  0
BLOCK
  5
35
100
AcDbEntity
  8
0
100
AcDbBlockBegin
  2
*B2
 70
     0
 10
0.0
 20
0.0
 30
0.0
  3
*B2
  1

  0
ARC
  5
36
100
AcDbEntity
  8
0
  6
Continuous
 62
   174
100
AcDbCircle
 10
106.944976
 20
49.56448
 30
0.0
 40
3.4
100
AcDbArc
 50
-270.0
 51
-90.0
  0
ARC
  5
37
100
AcDbEntity
  8
0
  6
Continuous
 62
   174
100
AcDbCircle
 10
106.944976
 20
49.56448
 30
0.0
 40
3.4
100
AcDbArc
 50
-90.0
 51
90.0
  0
ARC
  5
38
100
AcDbEntity
  8
0
  6
Continuous
 62
   174
100
AcDbCircle
 10
106.944976
 20
49.56448
 30
0.0
 40
3.0
100
AcDbArc
 50
-217.286546
 51
-52.713454
  0
LINE
  5
39
100
AcDbEntity
  8
0
  6
Continuous
 62
   174
100
AcDbLine
 10
104.558128
 20
51.381885
 30
0.0
 11
108.76238
 21
47.177633
 31
0.0
  0
ARC
  5
3A
100
AcDbEntity
  8
0
  6
Continuous
 62
   174
100
AcDbCircle
 10
106.944976
 20
49.56448
 30
0.0
 40
3.0
100
AcDbArc
 50
-41.228296
 51
131.228296
  0
LINE
  5
3B
100
AcDbEntity
  8
0
  6
Continuous
 62
   174
100
AcDbLine
 10
109.201244
 20
47.587297
 30
0.0
 11
104.967793
 21
51.820748
 31
0.0
  0
LINE
  5
3C
100
AcDbEntity
  8
0
  6
Continuous
 62
   174
100
AcDbLine
 10
80.444976
 20
56.06448
 30
0.0
 11
77.444976
 21
56.06448
 31
0.0
  0
LINE
  5
3D
100
AcDbEntity
  8
0
  6
Continuous
 62
   174
100
AcDbLine
 10
80.444976
 20
43.06448
 30
0.0
 11
77.444976
 21
43.06448
 31
0.0
  0
LINE
  5
3E
100
AcDbEntity
  8
0
  6
Continuous
 62
   174
100
AcDbLine
 10
80.444976
 20
56.06448
 30
0.0
 11
77.444976
 21
56.06448
 31
0.0
  0
LINE
  5
3F
100
AcDbEntity
  8
0
  6
Continuous
 62
   174
100
AcDbLine
 10
80.444976
 20
43.06448
 30
0.0
 11
77.444976
 21
43.06448
 31
0.0
  0
ARC
  5
40
100
AcDbEntity
  8
0
  6
Continuous
 62
   174
100
AcDbCircle
 10
172.944976
 20
49.56448
 30
0.0
 40
6.58
100
AcDbArc
 50
-180.0
 51
-179.188157
  0
ARC
  5
41
100
AcDbEntity
  8
0
  6
Continuous
 62
   174
100
AcDbCircle
 10
172.944976
 20
49.56448
 30
0.0
 40
6.58
100
AcDbArc
 50
-359.188157
 51
-241.194706
  0
ARC
  5
42
100
AcDbEntity
  8
0
  6
Continuous
 62
   174
100
AcDbCircle
 10
172.944976
 20
49.56448
 30
0.0
 40
6.58
100
AcDbArc
 50
0.0
 51
0.811843
  0
ARC
  5
43
100
AcDbEntity
  8
0
  6
Continuous
 62
   174
100
AcDbCircle
 10
150.944976
 20
49.56448
 30
0.0
 40
6.58
100
AcDbArc
 50
-179.251715
 51
-0.748285
  0
ARC
  5
44
100
AcDbEntity
  8
0
  6
Continuous
 62
   174
100
AcDbCircle
 10
194.944976
 20
49.56448
 30
0.0
 40
6.58
100
AcDbArc
 50
-180.0
 51
-179.112683
  0
LINE
  5
45
100
AcDbEntity
  8
0
  6
Continuous
 62
   174
100
AcDbLine
 10
72.944976
 20
57.36448
 30
0.0
 11
73.043572
 21
57.535253
 31
0.0
  0
ARC
  5
46
100
AcDbEntity
  8
0
  6
Continuous
 62
   174
100
AcDbCircle
 10
172.944976
 20
49.56448
 30
0.0
 40
5.875
100
AcDbArc
 50
180.0
 51
214.613069
  0
ARC
  5
47
100
AcDbEntity
  8
0
  6
Continuous
 62
   174
100
AcDbCircle
 10
172.944976
 20
49.56448
 30
0.0
 40
5.875
100
AcDbArc
 50
214.613069
 51
217.636885
  0
ARC
  5
48
100
AcDbEntity
  8
0
  6
Continuous
 62
   174
100
AcDbCircle
 10
172.944976
 20
49.56448
 30
0.0
 40
5.875
100
AcDbArc
 50
217.636885
 51
250.673999
  0
ARC
  5
49
100
AcDbEntity
  8
0
  6
Continuous
 62
   174
100
AcDbCircle
 10
172.944976
 20
49.56448
 30
0.0
 40
5.875
100
AcDbArc
 50
250.673999
 51
252.807817
  0
ARC
  5
4A
100
AcDbEntity
  8
0
  6
Continuous
 62
   174
100
AcDbCircle
 10
172.944976
 20
49.56448
 30
0.0
 40
5.875
100
AcDbArc
 50
252.807817
 51
287.192183
  0
ARC
  5
4B
100
AcDbEntity
  8
0
  6
Continuous
 62
   174
100
AcDbCircle
 10
172.944976
 20
49.56448
 30
0.0
 40
5.875
100
AcDbArc
 50
287.192183
 51
289.326001
  0
ARC
  5
4C
100
AcDbEntity
  8
0
  6
Continuous
 62
   174
100
AcDbCircle
 10
194.944976
 20
49.56448
 30
0.0
 40
5.875
100
AcDbArc
 50
144.942784
 51
180.0
  0
ARC
  5
4D
100
AcDbEntity
  8
0
  6
Continuous
 62
   174
100
AcDbCircle
 10
194.944976
 20
49.56448
 30
0.0
 40
5.875
100
AcDbArc
 50
322.3729
 51
324.942784
  0
ARC
  5
4E
100
AcDbEntity
  8
0
  6
Continuous
 62
   174
100
AcDbCircle
 10
194.944976
 20
49.56448
 30
0.0
 40
5.875
100
AcDbArc
 50
324.942784
 51
360.0
  0
ARC
  5
4F
100
AcDbEntity
  8
0
  6
Continuous
 62
   174
100
AcDbCircle
 10
194.944976
 20
49.56448
 30
0.0
 40
5.875
100
AcDbArc
 50
37.6271
 51
70.354032
  0
ARC
  5
50
100
AcDbEntity
  8
0
  6
Continuous
 62
   174
100
AcDbCircle
 10
150.944976
 20
49.56448
 30
0.0
 40
5.875
100
AcDbArc
 50
253.101819
 51
286.898181
  0
ARC
  5
51
100
AcDbEntity
  8
0
  6
Continuous
 62
   174
100
AcDbCircle
 10
150.944976
 20
49.56448
 30
0.0
 40
5.875
100
AcDbArc
 50
108.698521
 51
142.807592
  0
LINE
  5
52
100
AcDbEntity
  8
0
  6
HIDDEN
 62
   174
100
AcDbLine
 10
180.713101
 20
56.26448
 30
0.0
 11
189.2131
 21
56.26448
 31
0.0
  0
LINE
  5
53
100
AcDbEntity
  8
0
  6
Continuous
 62
   174
100
AcDbLine
 10
92.444976
 20
55.809478
 30
0.0
 11
92.444976
 21
57.06448
 31
0.0
  0
ARC
  5
54
100
AcDbEntity
  8
0
  6
HIDDEN
 62
   174
100
AcDbCircle
 10
164.194976
 20
60.26448
 30
0.0
 40
1.0
100
AcDbArc
 50
0.0
 51
19.092021
  0
ARC
  5
55
100
AcDbEntity
  8
0
  6
Continuous
 62
   174
100
AcDbCircle
 10
157.694976
 20
60.26448
 30
0.0
 40
1.0
100
AcDbArc
 50
90.0
 51
160.907979
  0
ARC
  5
56
100
AcDbEntity
  8
0
  6
Continuous
 62
   174
100
AcDbCircle
 10
164.194976
 20
60.26448
 30
0.0
 40
1.0
100
AcDbArc
 50
-340.907979
 51
-270.0
  0
ARC
  5
57
100
AcDbEntity
  8
0
  6
Continuous
 62
   174
100
AcDbCircle
 10
157.694976
 20
60.26448
 30
0.0
 40
1.0
100
AcDbArc
 50
90.0
 51
160.907979
  0
LINE
  5
58
100
AcDbEntity
  8
0
  6
Continuous
 62
   174
100
AcDbLine
 10
164.213164
 20
61.26448
 30
0.0
 11
163.261261
 21
61.26448
 31
0.0
  0
LINE
  5
59
100
AcDbEntity
  8
0
  6
Continuous
 62
   174
100
AcDbLine
 10
163.261261
 20
61.26448
 30
0.0
 11
158.665104
 21
61.26448
 31
0.0
  0
LINE
  5
5A
100
AcDbEntity
  8
0
  6
Continuous
 62
   174
100
AcDbLine
 10
77.444976
 20
58.56448
 30
0.0
 11
76.744976
 21
58.56448
 31
0.0
  0
ARC
  5
5B
100
AcDbEntity
  8
0
  6
Continuous
 62
   174
100
AcDbCircle
 10
150.944976
 20
49.56448
 30
0.0
 40
5.875
100
AcDbArc
 50
214.620132
 51
217.192408
  0
ARC
  5
5C
100
AcDbEntity
  8
0
  6
Continuous
 62
   174
100
AcDbCircle
 10
150.944976
 20
49.56448
 30
0.0
 40
5.875
100
AcDbArc
 50
217.192408
 51
251.301479
  0
ARC
  5
5D
100
AcDbEntity
  8
0
  6
Continuous
 62
   174
100
AcDbCircle
 10
150.944976
 20
49.56448
 30
0.0
 40
5.875
100
AcDbArc
 50
0.0
 51
34.620132
  0
LINE
  5
5E
100
AcDbEntity
  8
0
  6
Continuous
 62
   174
100
AcDbLine
 10
80.444976
 20
41.56448
 30
0.0
 11
92.486936
 21
41.56448
 31
0.0
  0
ARC
  5
5F
100
AcDbEntity
  8
0
  6
Continuous
 62
   174
100
AcDbCircle
 10
172.944976
 20
49.56448
 30
0.0
 40
5.875
100
AcDbArc
 50
289.326001
 51
322.363115
  0
ARC
  5
60
100
AcDbEntity
  8
0
  6
Continuous
 62
   174
100
AcDbCircle
 10
172.944976
 20
49.56448
 30
0.0
 40
5.875
100
AcDbArc
 50
322.363115
 51
325.386931
  0
ARC
  5
61
100
AcDbEntity
  8
0
  6
Continuous
 62
   174
100
AcDbCircle
 10
194.944976
 20
49.56448
 30
0.0
 40
5.875
100
AcDbArc
 50
180.0
 51
215.057216
  0
ARC
  5
62
100
AcDbEntity
  8
0
  6
Continuous
 62
   174
100
AcDbCircle
 10
194.944976
 20
49.56448
 30
0.0
 40
5.875
100
AcDbArc
 50
215.057216
 51
217.6271
  0
ARC
  5
63
100
AcDbEntity
  8
0
  6
Continuous
 62
   174
100
AcDbCircle
 10
150.944976
 20
49.56448
 30
0.0
 40
5.875
100
AcDbArc
 50
180.0
 51
214.620132
  0
ARC
  5
64
100
AcDbEntity
  8
0
  6
Continuous
 62
   174
100
AcDbCircle
 10
150.944976
 20
49.56448
 30
0.0
 40
5.875
100
AcDbArc
 50
288.698521
 51
322.807592
  0
ARC
  5
65
100
AcDbEntity
  8
0
  6
Continuous
 62
   174
100
AcDbCircle
 10
150.944976
 20
49.56448
 30
0.0
 40
5.875
100
AcDbArc
 50
322.807592
 51
325.379868
  0
ARC
  5
66
100
AcDbEntity
  8
0
  6
Continuous
 62
   174
100
AcDbCircle
 10
150.944976
 20
49.56448
 30
0.0
 40
5.875
100
AcDbArc
 50
-34.620132
 51
0.0
  0
ARC
  5
67
100
AcDbEntity
  8
0
  6
Continuous
 62
   174
100
AcDbCircle
 10
150.944976
 20
49.56448
 30
0.0
 40
5.875
100
AcDbArc
 50
142.807592
 51
145.379868
  0
LINE
  5
68
100
AcDbEntity
  8
0
  6
Continuous
 62
   174
100
AcDbLine
 10
80.444976
 20
57.56448
 30
0.0
 11
92.486936
 21
57.56448
 31
0.0
  0
LINE
  5
69
100
AcDbEntity
  8
0
  6
HIDDEN
 62
   174
100
AcDbLine
 10
156.713076
 20
56.26448
 30
0.0
 11
165.213076
 21
56.26448
 31
0.0
  0
ARC
  5
6A
100
AcDbEntity
  8
0
  6
Continuous
 62
   174
100
AcDbCircle
 10
172.944976
 20
49.56448
 30
0.0
 40
6.58
100
AcDbArc
 50
-0.811843
 51
0.0
  0
ARC
  5
6B
100
AcDbEntity
  8
0
  6
Continuous
 62
   174
100
AcDbCircle
 10
172.944976
 20
49.56448
 30
0.0
 40
6.58
100
AcDbArc
 50
-179.188157
 51
-0.811843
  0
ARC
  5
6C
100
AcDbEntity
  8
0
  6
Continuous
 62
   174
100
AcDbCircle
 10
150.944976
 20
49.56448
 30
0.0
 40
6.58
100
AcDbArc
 50
-359.251715
 51
-241.197359
  0
ARC
  5
6D
100
AcDbEntity
  8
0
  6
Continuous
 62
   174
100
AcDbCircle
 10
150.944976
 20
49.56448
 30
0.0
 40
6.58
100
AcDbArc
 50
0.0
 51
0.748285
  0
LINE
  5
6E
100
AcDbEntity
  8
0
  6
Continuous
 62
   174
100
AcDbLine
 10
77.444976
 20
58.56448
 30
0.0
 11
76.744976
 21
58.56448
 31
0.0
  0
ARC
  5
6F
100
AcDbEntity
  8
0
  6
Continuous
 62
   174
100
AcDbCircle
 10
172.944976
 20
49.56448
 30
0.0
 40
5.875
100
AcDbArc
 50
-34.613069
 51
0.0
  0
ARC
  5
70
100
AcDbEntity
  8
0
  6
Continuous
 62
   174
100
AcDbCircle
 10
172.944976
 20
49.56448
 30
0.0
 40
5.875
100
AcDbArc
 50
0.0
 51
34.613069
  0
ARC
  5
71
100
AcDbEntity
  8
0
  6
Continuous
 62
   174
100
AcDbCircle
 10
172.944976
 20
49.56448
 30
0.0
 40
5.875
100
AcDbArc
 50
34.613069
 51
37.636885
  0
ARC
  5
72
100
AcDbEntity
  8
0
  6
Continuous
 62
   174
100
AcDbCircle
 10
172.944976
 20
49.56448
 30
0.0
 40
5.875
100
AcDbArc
 50
37.636885
 51
70.673999
  0
ARC
  5
73
100
AcDbEntity
  8
0
  6
Continuous
 62
   174
100
AcDbCircle
 10
172.944976
 20
49.56448
 30
0.0
 40
5.875
100
AcDbArc
 50
70.673999
 51
72.807817
  0
ARC
  5
74
100
AcDbEntity
  8
0
  6
Continuous
 62
   174
100
AcDbCircle
 10
172.944976
 20
49.56448
 30
0.0
 40
5.875
100
AcDbArc
 50
72.807817
 51
107.192183
  0
ARC
  5
75
100
AcDbEntity
  8
0
  6
Continuous
 62
   174
100
AcDbCircle
 10
172.944976
 20
49.56448
 30
0.0
 40
5.875
100
AcDbArc
 50
107.192183
 51
109.326001
  0
ARC
  5
76
100
AcDbEntity
  8
0
  6
Continuous
 62
   174
100
AcDbCircle
 10
194.944976
 20
49.56448
 30
0.0
 40
5.875
100
AcDbArc
 50
217.6271
 51
250.354032
  0
ARC
  5
77
100
AcDbEntity
  8
0
  6
Continuous
 62
   174
100
AcDbCircle
 10
194.944976
 20
49.56448
 30
0.0
 40
5.875
100
AcDbArc
 50
0.0
 51
35.057216
  0
ARC
  5
78
100
AcDbEntity
  8
0
  6
Continuous
 62
   174
100
AcDbCircle
 10
194.944976
 20
49.56448
 30
0.0
 40
5.875
100
AcDbArc
 50
35.057216
 51
37.6271
  0
ARC
  5
79
100
AcDbEntity
  8
0
  6
Continuous
 62
   174
100
AcDbCircle
 10
194.944976
 20
49.56448
 30
0.0
 40
5.875
100
AcDbArc
 50
70.354032
 51
73.964869
  0
ARC
  5
7A
100
AcDbEntity
  8
0
  6
Continuous
 62
   174
100
AcDbCircle
 10
194.944976
 20
49.56448
 30
0.0
 40
5.875
100
AcDbArc
 50
73.964869
 51
106.035131
  0
ARC
  5
7B
100
AcDbEntity
  8
0
  6
Continuous
 62
   174
100
AcDbCircle
 10
194.944976
 20
49.56448
 30
0.0
 40
5.875
100
AcDbArc
 50
106.035131
 51
109.645968
  0
ARC
  5
7C
100
AcDbEntity
  8
0
  6
Continuous
 62
   174
100
AcDbCircle
 10
194.944976
 20
49.56448
 30
0.0
 40
5.875
100
AcDbArc
 50
109.645968
 51
142.3729
  0
ARC
  5
7D
100
AcDbEntity
  8
0
  6
Continuous
 62
   174
100
AcDbCircle
 10
194.944976
 20
49.56448
 30
0.0
 40
5.875
100
AcDbArc
 50
142.3729
 51
144.942784
  0
ARC
  5
7E
100
AcDbEntity
  8
0
  6
Continuous
 62
   174
100
AcDbCircle
 10
150.944976
 20
49.56448
 30
0.0
 40
5.875
100
AcDbArc
 50
34.620132
 51
37.192408
  0
ARC
  5
7F
100
AcDbEntity
  8
0
  6
Continuous
 62
   174
100
AcDbCircle
 10
150.944976
 20
49.56448
 30
0.0
 40
5.875
100
AcDbArc
 50
37.192408
 51
71.301479
  0
LINE
  5
80
100
AcDbEntity
  8
0
  6
Continuous
 62
   174
100
AcDbLine
 10
80.444976
 20
57.56448
 30
0.0
 11
92.486936
 21
57.56448
 31
0.0
  0
ARC
  5
81
100
AcDbEntity
  8
0
  6
Continuous
 62
   174
100
AcDbCircle
 10
150.944976
 20
49.56448
 30
0.0
 40
6.58
100
AcDbArc
 50
-180.0
 51
-179.251715
  0
ARC
  5
82
100
AcDbEntity
  8
0
  6
Continuous
 62
   174
100
AcDbCircle
 10
194.944976
 20
49.56448
 30
0.0
 40
6.58
100
AcDbArc
 50
-359.112683
 51
-241.210326
  0
ARC
  5
83
100
AcDbEntity
  8
0
  6
Continuous
 62
   174
100
AcDbCircle
 10
194.944976
 20
49.56448
 30
0.0
 40
6.58
100
AcDbArc
 50
0.0
 51
0.887317
  0
ARC
  5
84
100
AcDbEntity
  8
0
  6
Continuous
 62
   174
100
AcDbCircle
 10
194.944976
 20
49.56448
 30
0.0
 40
6.58
100
AcDbArc
 50
-0.887317
 51
0.0
  0
ARC
  5
85
100
AcDbEntity
  8
0
  6
Continuous
 62
   174
100
AcDbCircle
 10
194.944976
 20
49.56448
 30
0.0
 40
6.58
100
AcDbArc
 50
-179.112683
 51
-0.887317
  0
ARC
  5
86
100
AcDbEntity
  8
0
  6
Continuous
 62
   174
100
AcDbCircle
 10
150.944976
 20
49.56448
 30
0.0
 40
5.875
100
AcDbArc
 50
73.101819
 51
106.898181
  0
ARC
  5
87
100
AcDbEntity
  8
0
  6
Continuous
 62
   174
100
AcDbCircle
 10
164.194976
 20
60.26448
 30
0.0
 40
1.0
100
AcDbArc
 50
-340.907979
 51
-270.0
  0
LINE
  5
88
100
AcDbEntity
  8
0
  6
Continuous
 62
   174
100
AcDbLine
 10
77.444976
 20
40.56448
 30
0.0
 11
76.744976
 21
40.56448
 31
0.0
  0
ARC
  5
89
100
AcDbEntity
  8
0
  6
Continuous
 62
   174
100
AcDbCircle
 10
150.944976
 20
49.56448
 30
0.0
 40
5.875
100
AcDbArc
 50
145.379868
 51
180.0
  0
ARC
  5
8A
100
AcDbEntity
  8
0
  6
Continuous
 62
   174
100
AcDbCircle
 10
150.944976
 20
49.56448
 30
0.0
 40
5.875
100
AcDbArc
 50
251.301479
 51
253.101819
  0
ARC
  5
8B
100
AcDbEntity
  8
0
  6
Continuous
 62
   174
100
AcDbCircle
 10
150.944976
 20
49.56448
 30
0.0
 40
5.875
100
AcDbArc
 50
106.898181
 51
108.698521
  0
LINE
  5
8C
100
AcDbEntity
  8
0
  6
Continuous
 62
   174
100
AcDbLine
 10
92.444976
 20
42.06448
 30
0.0
 11
92.444976
 21
43.319482
 31
0.0
  0
ARC
  5
8D
100
AcDbEntity
  8
0
  6
HIDDEN
 62
   174
100
AcDbCircle
 10
188.194976
 20
60.26448
 30
0.0
 40
1.0
100
AcDbArc
 50
0.0
 51
19.092021
  0
ARC
  5
8E
100
AcDbEntity
  8
0
  6
HIDDEN
 62
   174
100
AcDbCircle
 10
181.694976
 20
60.26448
 30
0.0
 40
1.0
100
AcDbArc
 50
160.907979
 51
180.0
  0
ARC
  5
8F
100
AcDbEntity
  8
0
  6
HIDDEN
 62
   174
100
AcDbCircle
 10
188.194976
 20
60.26448
 30
0.0
 40
1.0
100
AcDbArc
 50
0.0
 51
19.092021
  0
ARC
  5
90
100
AcDbEntity
  8
0
  6
HIDDEN
 62
   174
100
AcDbCircle
 10
181.694976
 20
60.26448
 30
0.0
 40
1.0
100
AcDbArc
 50
160.907979
 51
180.0
  0
ARC
  5
91
100
AcDbEntity
  8
0
  6
Continuous
 62
   174
100
AcDbCircle
 10
150.944976
 20
49.56448
 30
0.0
 40
6.58
100
AcDbArc
 50
-0.748285
 51
0.0
  0
LINE
  5
92
100
AcDbEntity
  8
0
  6
Continuous
 62
   174
100
AcDbLine
 10
77.444976
 20
40.56448
 30
0.0
 11
76.744976
 21
40.56448
 31
0.0
  0
ARC
  5
93
100
AcDbEntity
  8
0
  6
Continuous
 62
   174
100
AcDbCircle
 10
194.944976
 20
49.56448
 30
0.0
 40
5.875
100
AcDbArc
 50
250.354032
 51
253.964869
  0
ARC
  5
94
100
AcDbEntity
  8
0
  6
Continuous
 62
   174
100
AcDbCircle
 10
194.944976
 20
49.56448
 30
0.0
 40
5.875
100
AcDbArc
 50
286.035131
 51
289.645968
  0
ARC
  5
95
100
AcDbEntity
  8
0
  6
Continuous
 62
   174
100
AcDbCircle
 10
194.944976
 20
49.56448
 30
0.0
 40
5.875
100
AcDbArc
 50
289.645968
 51
322.3729
  0
ARC
  5
96
100
AcDbEntity
  8
0
  6
Continuous
 62
   174
100
AcDbCircle
 10
150.944976
 20
49.56448
 30
0.0
 40
5.875
100
AcDbArc
 50
286.898181
 51
288.698521
  0
ARC
  5
97
100
AcDbEntity
  8
0
  6
Continuous
 62
   174
100
AcDbCircle
 10
172.944976
 20
49.56448
 30
0.0
 40
5.875
100
AcDbArc
 50
145.386931
 51
180.0
  0
ARC
  5
98
100
AcDbEntity
  8
0
  6
Continuous
 62
   174
100
AcDbCircle
 10
172.944976
 20
49.56448
 30
0.0
 40
5.875
100
AcDbArc
 50
109.326001
 51
142.363115
  0
ARC
  5
99
100
AcDbEntity
  8
0
  6
Continuous
 62
   174
100
AcDbCircle
 10
172.944976
 20
49.56448
 30
0.0
 40
5.875
100
AcDbArc
 50
142.363115
 51
145.386931
  0
ARC
  5
9A
100
AcDbEntity
  8
0
  6
Continuous
 62
   174
100
AcDbCircle
 10
194.944976
 20
49.56448
 30
0.0
 40
5.875
100
AcDbArc
 50
253.964869
 51
286.035131
  0
ARC
  5
9B
100
AcDbEntity
  8
0
  6
Continuous
 62
   174
100
AcDbCircle
 10
150.944976
 20
49.56448
 30
0.0
 40
5.875
100
AcDbArc
 50
71.301479
 51
73.101819
  0
LINE
  5
9C
100
AcDbEntity
  8
0
  6
Continuous
 62
   174
100
AcDbLine
 10
80.444976
 20
41.56448
 30
0.0
 11
92.486936
 21
41.56448
 31
0.0
  0
ARC
  5
9D
100
AcDbEntity
  8
0
  6
Continuous
 62
   174
100
AcDbCircle
 10
181.694976
 20
60.26448
 30
0.0
 40
1.0
100
AcDbArc
 50
90.0
 51
160.907979
  0
ARC
  5
9E
100
AcDbEntity
  8
0
  6
Continuous
 62
   174
100
AcDbCircle
 10
188.194976
 20
60.26448
 30
0.0
 40
1.0
100
AcDbArc
 50
-340.907979
 51
-270.0
  0
ARC
  5
9F
100
AcDbEntity
  8
0
  6
Continuous
 62
   174
100
AcDbCircle
 10
181.694976
 20
60.26448
 30
0.0
 40
1.0
100
AcDbArc
 50
90.0
 51
160.907979
  0
ARC
  5
A0
100
AcDbEntity
  8
0
  6
Continuous
 62
   174
100
AcDbCircle
 10
188.194976
 20
60.26448
 30
0.0
 40
1.0
100
AcDbArc
 50
-340.907979
 51
-270.0
  0
LINE
  5
A1
100
AcDbEntity
  8
0
  6
Continuous
 62
   174
100
AcDbLine
 10
188.213188
 20
61.26448
 30
0.0
 11
187.261285
 21
61.26448
 31
0.0
  0
LINE
  5
A2
100
AcDbEntity
  8
0
  6
Continuous
 62
   174
100
AcDbLine
 10
187.261285
 20
61.26448
 30
0.0
 11
182.664916
 21
61.26448
 31
0.0
  0
LINE
  5
A3
100
AcDbEntity
  8
0
  6
Continuous
 62
   174
100
AcDbLine
 10
182.664916
 20
61.26448
 30
0.0
 11
181.713013
 21
61.26448
 31
0.0
  0
LINE
  5
A4
100
AcDbEntity
  8
0
  6
HIDDEN
 62
   174
100
AcDbLine
 10
164.213164
 20
61.26448
 30
0.0
 11
163.254463
 21
61.26448
 31
0.0
  0
LINE
  5
A5
100
AcDbEntity
  8
0
  6
HIDDEN
 62
   174
100
AcDbLine
 10
163.46307
 20
56.26448
 30
0.0
 11
158.463083
 21
56.26448
 31
0.0
  0
LINE
  5
A6
100
AcDbEntity
  8
0
  6
Continuous
 62
   174
100
AcDbLine
 10
84.244976
 20
59.261014
 30
0.0
 11
84.244976
 21
58.192061
 31
0.0
  0
LINE
  5
A7
100
AcDbEntity
  8
0
  6
HIDDEN
 62
   174
100
AcDbLine
 10
84.244976
 20
54.645529
 30
0.0
 11
90.444976
 21
54.645529
 31
0.0
  0
LINE
  5
A8
100
AcDbEntity
  8
0
  6
HIDDEN
 62
   174
100
AcDbLine
 10
121.944976
 20
60.56448
 30
0.0
 11
121.944976
 21
38.56448
 31
0.0
  0
LINE
  5
A9
100
AcDbEntity
  8
0
  6
HIDDEN
 62
   174
100
AcDbLine
 10
90.444976
 20
41.554256
 30
0.0
 11
90.444976
 21
44.500674
 31
0.0
  0
LINE
  5
AA
100
AcDbEntity
  8
0
  6
Continuous
 62
   174
100
AcDbLine
 10
76.744976
 20
58.579323
 30
0.0
 11
76.744976
 21
57.418175
 31
0.0
  0
LINE
  5
AB
100
AcDbEntity
  8
0
  6
Continuous
 62
   174
100
AcDbLine
 10
207.944976
 20
43.161356
 30
0.0
 11
208.944976
 21
43.161356
 31
0.0
  0
LINE
  5
AC
100
AcDbEntity
  8
0
  6
Continuous
 62
   174
100
AcDbLine
 10
72.944976
 20
57.379513
 30
0.0
 11
72.944976
 21
54.226187
 31
0.0
  0
LINE
  5
AD
100
AcDbEntity
  8
0
  6
HIDDEN
 62
   174
100
AcDbLine
 10
158.444976
 20
39.56448
 30
0.0
 11
158.444976
 21
40.06448
 31
0.0
  0
LINE
  5
AE
100
AcDbEntity
  8
0
  6
HIDDEN
 62
   174
100
AcDbLine
 10
84.244976
 20
52.066598
 30
0.0
 11
90.444976
 21
52.066598
 31
0.0
  0
LINE
  5
AF
100
AcDbEntity
  8
0
  6
Continuous
 62
   174
100
AcDbLine
 10
118.463184
 20
57.06448
 30
0.0
 11
121.463134
 21
57.06448
 31
0.0
  0
LINE
  5
B0
100
AcDbEntity
  8
0
  6
HIDDEN
 62
   174
100
AcDbLine
 10
180.694976
 20
56.26448
 30
0.0
 11
180.694976
 21
60.26448
 31
0.0
  0
LINE
  5
B1
100
AcDbEntity
  8
0
  6
HIDDEN
 62
   174
100
AcDbLine
 10
137.894976
 20
49.579898
 30
0.0
 11
137.894976
 21
43.58021
 31
0.0
  0
LINE
  5
B2
100
AcDbEntity
  8
0
  6
Continuous
 62
   174
100
AcDbLine
 10
137.944976
 20
60.56448
 30
0.0
 11
181.694976
 21
60.56448
 31
0.0
  0
LINE
  5
B3
100
AcDbEntity
  8
0
  6
Continuous
 62
   174
100
AcDbLine
 10
84.244976
 20
58.17711
 30
0.0
 11
84.244976
 21
57.56448
 31
0.0
  0
LINE
  5
B4
100
AcDbEntity
  8
0
  6
HIDDEN
 62
   174
100
AcDbLine
 10
187.254487
 20
61.26448
 30
0.0
 11
182.33671
 21
61.26448
 31
0.0
  0
LINE
  5
B5
100
AcDbEntity
  8
0
  6
HIDDEN
 62
   174
100
AcDbLine
 10
84.244976
 20
58.180447
 30
0.0
 11
90.444976
 21
58.180447
 31
0.0
  0
LINE
  5
B6
100
AcDbEntity
  8
0
  6
HIDDEN
 62
   174
100
AcDbLine
 10
84.244976
 20
57.56448
 30
0.0
 11
84.244976
 21
54.640962
 31
0.0
  0
LINE
  5
B7
100
AcDbEntity
  8
0
  6
HIDDEN
 62
   174
100
AcDbLine
 10
84.244976
 20
54.640962
 30
0.0
 11
90.444976
 21
54.640962
 31
0.0
  0
LINE
  5
B8
100
AcDbEntity
  8
0
  6
Continuous
 62
   174
100
AcDbLine
 10
84.244976
 20
59.246068
 30
0.0
 11
90.444976
 21
59.246068
 31
0.0
  0
LINE
  5
B9
100
AcDbEntity
  8
0
  6
Continuous
 62
   174
100
AcDbLine
 10
84.244976
 20
41.56448
 30
0.0
 11
84.244976
 21
40.950084
 31
0.0
  0
LINE
  5
BA
100
AcDbEntity
  8
0
  6
HIDDEN
 62
   174
100
AcDbLine
 10
137.894976
 20
49.579898
 30
0.0
 11
137.894976
 21
55.579585
 31
0.0
  0
LINE
  5
BB
100
AcDbEntity
  8
0
  6
Continuous
 62
   174
100
AcDbLine
 10
137.944976
 20
38.56448
 30
0.0
 11
137.944976
 21
60.56448
 31
0.0
  0
LINE
  5
BC
100
AcDbEntity
  8
0
  6
HIDDEN
 62
   174
100
AcDbLine
 10
158.444976
 20
38.56448
 30
0.0
 11
158.444976
 21
39.56448
 31
0.0
  0
LINE
  5
BD
100
AcDbEntity
  8
0
  6
HIDDEN
 62
   174
100
AcDbLine
 10
165.213076
 20
60.26448
 30
0.0
 11
156.713076
 21
60.26448
 31
0.0
  0
LINE
  5
BE
100
AcDbEntity
  8
0
  6
HIDDEN
 62
   174
100
AcDbLine
 10
137.944976
 20
49.579898
 30
0.0
 11
137.944976
 21
43.58021
 31
0.0
  0
LINE
  5
BF
100
AcDbEntity
  8
0
  6
HIDDEN
 62
   174
100
AcDbLine
 10
187.444976
 20
38.56448
 30
0.0
 11
187.444976
 21
56.26448
 31
0.0
  0
LINE
  5
C0
100
AcDbEntity
  8
0
  6
Continuous
 62
   174
100
AcDbLine
 10
84.244976
 20
40.966035
 30
0.0
 11
84.244976
 21
39.897932
 31
0.0
  0
LINE
  5
C1
100
AcDbEntity
  8
0
  6
Continuous
 62
   174
100
AcDbLine
 10
91.944976
 20
60.56448
 30
0.0
 11
121.944976
 21
60.56448
 31
0.0
  0
LINE
  5
C2
100
AcDbEntity
  8
0
  6
Continuous
 62
   174
100
AcDbLine
 10
76.744976
 20
49.490039
 30
0.0
 11
76.744976
 21
41.831479
 31
0.0
  0
LINE
  5
C3
100
AcDbEntity
  8
0
  6
HIDDEN
 62
   174
100
AcDbLine
 10
76.744976
 20
57.403286
 30
0.0
 11
76.744976
 21
49.474546
 31
0.0
  0
LINE
  5
C4
100
AcDbEntity
  8
0
  6
Continuous
 62
   174
100
AcDbLine
 10
76.744976
 20
57.403286
 30
0.0
 11
73.637796
 21
57.403286
 31
0.0
  0
LINE
  5
C5
100
AcDbEntity
  8
0
  6
Continuous
 62
   174
100
AcDbLine
 10
95.444976
 20
49.56448
 30
0.0
 11
95.444976
 21
57.06448
 31
0.0
  0
ARC
  5
C6
100
AcDbEntity
  8
0
  6
Continuous
 62
   174
100
AcDbCircle
 10
118.444976
 20
57.06448
 30
0.0
 40
3.0
100
AcDbArc
 50
0.0
 51
90.0
  0
LINE
  5
C7
100
AcDbEntity
  8
0
  6
Continuous
 62
   174
100
AcDbLine
 10
164.213164
 20
61.26448
 30
0.0
 11
163.589466
 21
61.26448
 31
0.0
  0
LWPOLYLINE
  5
C8
100
AcDbEntity
  8
0
  6
HIDDEN
 62
   174
100
AcDbPolyline
 90
        4
 70
   128
 10
73.637796
 20
57.403286
 10
73.309895
 20
56.318317
 10
73.077141
 20
55.259318
 10
72.944976
 20
54.211074
  0
LINE
  5
C9
100
AcDbEntity
  8
0
  6
HIDDEN
 62
   174
100
AcDbLine
 10
91.944976
 20
41.56448
 30
0.0
 11
91.944976
 21
57.56448
 31
0.0
  0
LINE
  5
CA
100
AcDbEntity
  8
0
  6
Continuous
 62
   174
100
AcDbLine
 10
91.944976
 20
57.56448
 30
0.0
 11
91.944976
 21
60.56448
 31
0.0
  0
LINE
  5
CB
100
AcDbEntity
  8
0
  6
Continuous
 62
   174
100
AcDbLine
 10
118.444976
 20
57.079348
 30
0.0
 11
118.444976
 21
60.079298
 31
0.0
  0
LINE
  5
CC
100
AcDbEntity
  8
0
  6
HIDDEN
 62
   174
100
AcDbLine
 10
187.463094
 20
56.26448
 30
0.0
 11
182.463107
 21
56.26448
 31
0.0
  0
LINE
  5
CD
100
AcDbEntity
  8
0
  6
HIDDEN
 62
   174
100
AcDbLine
 10
90.444976
 20
40.950278
 30
0.0
 11
90.444976
 21
44.486427
 31
0.0
  0
LINE
  5
CE
100
AcDbEntity
  8
0
  6
HIDDEN
 62
   174
100
AcDbLine
 10
182.444976
 20
38.56448
 30
0.0
 11
182.444976
 21
56.26448
 31
0.0
  0
LINE
  5
CF
100
AcDbEntity
  8
0
  6
Continuous
 62
   174
100
AcDbLine
 10
118.444976
 20
42.06448
 30
0.0
 11
95.444976
 21
42.06448
 31
0.0
  0
LINE
  5
D0
100
AcDbEntity
  8
0
  6
HIDDEN
 62
   174
100
AcDbLine
 10
76.744976
 20
49.474546
 30
0.0
 11
73.637796
 21
49.474546
 31
0.0
  0
LINE
  5
D1
100
AcDbEntity
  8
0
  6
HIDDEN
 62
   174
100
AcDbLine
 10
84.244976
 20
44.485003
 30
0.0
 11
84.244976
 21
41.56448
 31
0.0
  0
LINE
  5
D2
100
AcDbEntity
  8
0
  6
Continuous
 62
   174
100
AcDbLine
 10
118.444976
 20
57.06448
 30
0.0
 11
118.444976
 21
42.06448
 31
0.0
  0
ARC
  5
D3
100
AcDbEntity
  8
0
  6
HIDDEN
 62
   174
100
AcDbCircle
 10
164.194976
 20
60.26448
 30
0.0
 40
1.0
100
AcDbArc
 50
0.0
 51
19.092021
  0
LINE
  5
D4
100
AcDbEntity
  8
0
  6
Continuous
 62
   174
100
AcDbLine
 10
189.2131
 20
60.26448
 30
0.0
 11
189.138325
 21
60.26448
 31
0.0
  0
LINE
  5
D5
100
AcDbEntity
  8
0
  6
HIDDEN
 62
   174
100
AcDbLine
 10
137.944976
 20
55.579585
 30
0.0
 11
137.944976
 21
49.579898
 31
0.0
  0
LINE
  5
D6
100
AcDbEntity
  8
0
  6
Continuous
 62
   174
100
AcDbLine
 10
188.194976
 20
60.56448
 30
0.0
 11
207.944976
 21
60.56448
 31
0.0
  0
LINE
  5
D7
100
AcDbEntity
  8
0
  6
HIDDEN
 62
   174
100
AcDbLine
 10
137.944976
 20
38.56448
 30
0.0
 11
137.944976
 21
60.56448
 31
0.0
  0
LINE
  5
D8
100
AcDbEntity
  8
0
  6
HIDDEN
 62
   174
100
AcDbLine
 10
90.444976
 20
47.065729
 30
0.0
 11
90.444976
 21
52.066598
 31
0.0
  0
LINE
  5
D9
100
AcDbEntity
  8
0
  6
HIDDEN
 62
   174
100
AcDbLine
 10
84.244976
 20
44.485003
 30
0.0
 11
90.444976
 21
44.485003
 31
0.0
  0
LINE
  5
DA
100
AcDbEntity
  8
0
  6
Continuous
 62
   174
100
AcDbLine
 10
90.444976
 20
59.466859
 30
0.0
 11
90.444976
 21
59.579235
 31
0.0
  0
LINE
  5
DB
100
AcDbEntity
  8
0
  6
HIDDEN
 62
   174
100
AcDbLine
 10
76.744976
 20
49.474546
 30
0.0
 11
76.744976
 21
41.815607
 31
0.0
  0
LINE
  5
DC
100
AcDbEntity
  8
0
  6
HIDDEN
 62
   174
100
AcDbLine
 10
84.244976
 20
52.062362
 30
0.0
 11
84.244976
 21
47.063231
 31
0.0
  0
ARC
  5
DD
100
AcDbEntity
  8
0
  6
Continuous
 62
   174
100
AcDbCircle
 10
95.444976
 20
57.06448
 30
0.0
 40
3.0
100
AcDbArc
 50
-270.0
 51
-180.0
  0
LINE
  5
DE
100
AcDbEntity
  8
0
  6
Continuous
 62
   174
100
AcDbLine
 10
133.444976
 20
46.890531
 30
0.0
 11
133.444976
 21
52.238428
 31
0.0
  0
LINE
  5
DF
100
AcDbEntity
  8
0
  6
Continuous
 62
   174
100
AcDbLine
 10
163.589466
 20
61.26448
 30
0.0
 11
158.67169
 21
61.26448
 31
0.0
  0
LINE
  5
E0
100
AcDbEntity
  8
0
  6
HIDDEN
 62
   174
100
AcDbLine
 10
77.444976
 20
56.079435
 30
0.0
 11
77.444976
 21
43.080148
 31
0.0
  0
LINE
  5
E1
100
AcDbEntity
  8
0
  6
Continuous
 62
   174
100
AcDbLine
 10
90.444976
 20
39.56448
 30
0.0
 11
90.944976
 21
39.56448
 31
0.0
  0
ARC
  5
E2
100
AcDbEntity
  8
0
  6
Continuous
 62
   174
100
AcDbCircle
 10
118.444976
 20
42.06448
 30
0.0
 40
3.0
100
AcDbArc
 50
-90.0
 51
0.0
  0
LINE
  5
E3
100
AcDbEntity
  8
0
  6
HIDDEN
 62
   174
100
AcDbLine
 10
182.444976
 20
38.56448
 30
0.0
 11
182.444976
 21
56.26448
 31
0.0
  0
LINE
  5
E4
100
AcDbEntity
  8
0
  6
HIDDEN
 62
   174
100
AcDbLine
 10
91.944976
 20
39.580348
 30
0.0
 11
91.944976
 21
59.579235
 31
0.0
  0
LWPOLYLINE
  5
E5
100
AcDbEntity
  8
0
  6
Continuous
 62
   174
100
AcDbPolyline
 90
        6
 70
   128
 10
95.444976
 20
49.56448
 10
94.53966
 20
51.05384
 10
93.731355
 20
52.447589
 10
93.069507
 20
53.72625
 10
92.617681
 20
54.852355
 10
92.444976
 20
55.809478
  0
LINE
  5
E6
100
AcDbEntity
  8
0
  6
Continuous
 62
   174
100
AcDbLine
 10
84.244976
 20
58.17711
 30
0.0
 11
90.444976
 21
58.17711
 31
0.0
  0
LINE
  5
E7
100
AcDbEntity
  8
0
  6
Continuous
 62
   174
100
AcDbLine
 10
95.444976
 20
42.06448
 30
0.0
 11
95.444976
 21
49.56448
 31
0.0
  0
LINE
  5
E8
100
AcDbEntity
  8
0
  6
HIDDEN
 62
   174
100
AcDbLine
 10
182.33671
 20
61.26448
 30
0.0
 11
181.713013
 21
61.26448
 31
0.0
  0
LINE
  5
E9
100
AcDbEntity
  8
0
  6
Continuous
 62
   174
100
AcDbLine
 10
158.444976
 20
31.26448
 30
0.0
 11
158.444976
 21
38.56448
 31
0.0
  0
LINE
  5
EA
100
AcDbEntity
  8
0
  6
HIDDEN
 62
   174
100
AcDbLine
 10
90.444976
 20
54.645529
 30
0.0
 11
90.444976
 21
58.180447
 31
0.0
  0
LINE
  5
EB
100
AcDbEntity
  8
0
  6
Continuous
 62
   174
100
AcDbLine
 10
188.213188
 20
61.26448
 30
0.0
 11
187.589278
 21
61.26448
 31
0.0
  0
LINE
  5
EC
100
AcDbEntity
  8
0
  6
Continuous
 62
   174
100
AcDbLine
 10
182.444976
 20
31.26448
 30
0.0
 11
182.444976
 21
38.56448
 31
0.0
  0
LINE
  5
ED
100
AcDbEntity
  8
0
  6
Continuous
 62
   174
100
AcDbLine
 10
182.671714
 20
61.26448
 30
0.0
 11
181.713013
 21
61.26448
 31
0.0
  0
LINE
  5
EE
100
AcDbEntity
  8
0
  6
HIDDEN
 62
   174
100
AcDbLine
 10
137.944976
 20
55.56448
 30
0.0
 11
137.894976
 21
55.56448
 31
0.0
  0
ARC
  5
EF
100
AcDbEntity
  8
0
  6
HIDDEN
 62
   174
100
AcDbCircle
 10
157.694976
 20
60.26448
 30
0.0
 40
1.0
100
AcDbArc
 50
160.907979
 51
180.0
  0
LINE
  5
F0
100
AcDbEntity
  8
0
  6
Continuous
 62
   174
100
AcDbLine
 10
158.67169
 20
61.26448
 30
0.0
 11
157.713201
 21
61.26448
 31
0.0
  0
LINE
  5
F1
100
AcDbEntity
  8
0
  6
HIDDEN
 62
   174
100
AcDbLine
 10
165.213076
 20
60.26448
 30
0.0
 11
156.713076
 21
60.26448
 31
0.0
  0
LINE
  5
F2
100
AcDbEntity
  8
0
  6
HIDDEN
 62
   174
100
AcDbLine
 10
189.2131
 20
60.26448
 30
0.0
 11
180.713101
 21
60.26448
 31
0.0
  0
LINE
  5
F3
100
AcDbEntity
  8
0
  6
Continuous
 62
   174
100
AcDbLine
 10
189.138325
 20
60.26448
 30
0.0
 11
186.580231
 21
60.26448
 31
0.0
  0
LINE
  5
F4
100
AcDbEntity
  8
0
  6
HIDDEN
 62
   174
100
AcDbLine
 10
156.694976
 20
56.26448
 30
0.0
 11
156.694976
 21
60.26448
 31
0.0
  0
LINE
  5
F5
100
AcDbEntity
  8
0
  6
Continuous
 62
   174
100
AcDbLine
 10
163.444976
 20
31.26448
 30
0.0
 11
163.444976
 21
38.56448
 31
0.0
  0
LINE
  5
F6
100
AcDbEntity
  8
0
  6
Continuous
 62
   174
100
AcDbLine
 10
158.463083
 20
31.26448
 30
0.0
 11
163.46307
 21
31.26448
 31
0.0
  0
LINE
  5
F7
100
AcDbEntity
  8
0
  6
Continuous
 62
   174
100
AcDbLine
 10
76.744976
 20
57.418175
 30
0.0
 11
76.744976
 21
49.490039
 31
0.0
  0
LINE
  5
F8
100
AcDbEntity
  8
0
  6
Continuous
 62
   174
100
AcDbLine
 10
73.637796
 20
41.815607
 30
0.0
 11
76.744976
 21
41.815607
 31
0.0
  0
LINE
  5
F9
100
AcDbEntity
  8
0
  6
HIDDEN
 62
   174
100
AcDbLine
 10
84.244976
 20
40.950278
 30
0.0
 11
90.444976
 21
40.950278
 31
0.0
  0
LWPOLYLINE
  5
FA
100
AcDbEntity
  8
0
  6
HIDDEN
 62
   174
100
AcDbPolyline
 90
        4
 70
   128
 10
92.444976
 20
57.06448
 10
92.457535
 20
57.338703
 10
92.47794
 20
57.50799
 10
92.486936
 20
57.56448
  0
LINE
  5
FB
100
AcDbEntity
  8
0
  6
HIDDEN
 62
   174
100
AcDbLine
 10
90.444976
 20
54.656148
 30
0.0
 11
90.444976
 21
57.605539
 31
0.0
  0
LINE
  5
FC
100
AcDbEntity
  8
0
  6
Continuous
 62
   174
100
AcDbLine
 10
90.444976
 20
39.692936
 30
0.0
 11
90.444976
 21
39.897932
 31
0.0
  0
LINE
  5
FD
100
AcDbEntity
  8
0
  6
HIDDEN
 62
   174
100
AcDbLine
 10
207.944976
 20
43.177016
 30
0.0
 11
207.944976
 21
49.579898
 31
0.0
  0
LINE
  5
FE
100
AcDbEntity
  8
0
  6
Continuous
 62
   174
100
AcDbLine
 10
187.589278
 20
61.26448
 30
0.0
 11
182.671714
 21
61.26448
 31
0.0
  0
LINE
  5
FF
100
AcDbEntity
  8
0
  6
Continuous
 62
   174
100
AcDbLine
 10
187.444976
 20
31.26448
 30
0.0
 11
187.444976
 21
38.56448
 31
0.0
  0
LINE
  5
100
100
AcDbEntity
  8
0
  6
HIDDEN
 62
   174
100
AcDbLine
 10
163.444976
 20
40.06448
 30
0.0
 11
163.444976
 21
56.26448
 31
0.0
  0
LINE
  5
101
100
AcDbEntity
  8
0
  6
HIDDEN
 62
   174
100
AcDbLine
 10
84.244976
 20
47.065729
 30
0.0
 11
90.444976
 21
47.065729
 31
0.0
  0
LINE
  5
102
100
AcDbEntity
  8
0
  6
Continuous
 62
   174
100
AcDbLine
 10
91.944976
 20
38.56448
 30
0.0
 11
91.944976
 21
41.56448
 31
0.0
  0
LINE
  5
103
100
AcDbEntity
  8
0
  6
Continuous
 62
   174
100
AcDbLine
 10
84.244976
 20
40.950084
 30
0.0
 11
90.444976
 21
40.950084
 31
0.0
  0
LINE
  5
104
100
AcDbEntity
  8
0
  6
HIDDEN
 62
   174
100
AcDbLine
 10
92.444976
 20
42.080235
 30
0.0
 11
92.444976
 21
57.079348
 31
0.0
  0
LINE
  5
105
100
AcDbEntity
  8
0
  6
Continuous
 62
   174
100
AcDbLine
 10
208.944976
 20
43.177016
 30
0.0
 11
208.944976
 21
49.579898
 31
0.0
  0
LINE
  5
106
100
AcDbEntity
  8
0
  6
HIDDEN
 62
   174
100
AcDbLine
 10
165.194976
 20
56.26448
 30
0.0
 11
165.194976
 21
60.26448
 31
0.0
  0
LINE
  5
107
100
AcDbEntity
  8
0
  6
Continuous
 62
   174
100
AcDbLine
 10
158.444976
 20
31.26448
 30
0.0
 11
158.444976
 21
38.56448
 31
0.0
  0
LINE
  5
108
100
AcDbEntity
  8
0
  6
Continuous
 62
   174
100
AcDbLine
 10
80.444976
 20
57.57941
 30
0.0
 11
80.444976
 21
56.185863
 31
0.0
  0
LWPOLYLINE
  5
109
100
AcDbEntity
  8
0
  6
Continuous
 62
   174
100
AcDbPolyline
 90
        4
 70
   128
 10
72.944976
 20
41.815607
 10
73.078096
 20
41.815607
 10
73.311181
 20
41.815607
 10
73.637796
 20
41.815607
  0
LINE
  5
10A
100
AcDbEntity
  8
0
  6
HIDDEN
 62
   174
100
AcDbLine
 10
84.244976
 20
44.486427
 30
0.0
 11
90.444976
 21
44.486427
 31
0.0
  0
LINE
  5
10B
100
AcDbEntity
  8
0
  6
Continuous
 62
   174
100
AcDbLine
 10
182.444976
 20
31.26448
 30
0.0
 11
182.444976
 21
38.56448
 31
0.0
  0
LINE
  5
10C
100
AcDbEntity
  8
0
  6
Continuous
 62
   174
100
AcDbLine
 10
182.463107
 20
31.26448
 30
0.0
 11
187.463094
 21
31.26448
 31
0.0
  0
LINE
  5
10D
100
AcDbEntity
  8
0
  6
Continuous
 62
   174
100
AcDbLine
 10
92.444976
 20
43.319482
 30
0.0
 11
92.444976
 21
42.06448
 31
0.0
  0
LINE
  5
10E
100
AcDbEntity
  8
0
  6
Continuous
 62
   174
100
AcDbLine
 10
95.444976
 20
57.06448
 30
0.0
 11
118.444976
 21
57.06448
 31
0.0
  0
ARC
  5
10F
100
AcDbEntity
  8
0
  6
HIDDEN
 62
   174
100
AcDbCircle
 10
157.694976
 20
60.26448
 30
0.0
 40
1.0
100
AcDbArc
 50
160.907979
 51
180.0
  0
LINE
  5
110
100
AcDbEntity
  8
0
  6
Continuous
 62
   174
100
AcDbLine
 10
186.580231
 20
60.26448
 30
0.0
 11
182.851006
 21
60.26448
 31
0.0
  0
LINE
  5
111
100
AcDbEntity
  8
0
  6
HIDDEN
 62
   174
100
AcDbLine
 10
158.444976
 20
39.56448
 30
0.0
 11
158.444976
 21
40.06448
 31
0.0
  0
LINE
  5
112
100
AcDbEntity
  8
0
  6
Continuous
 62
   174
100
AcDbLine
 10
121.444976
 20
42.06448
 30
0.0
 11
121.444976
 21
57.06448
 31
0.0
  0
LINE
  5
113
100
AcDbEntity
  8
0
  6
HIDDEN
 62
   174
100
AcDbLine
 10
84.244976
 20
54.656148
 30
0.0
 11
84.244976
 21
52.077661
 31
0.0
  0
LINE
  5
114
100
AcDbEntity
  8
0
  6
Continuous
 62
   174
100
AcDbLine
 10
72.985328
 20
57.403286
 30
0.0
 11
73.061803
 21
57.403286
 31
0.0
  0
LINE
  5
115
100
AcDbEntity
  8
0
  6
Continuous
 62
   174
100
AcDbLine
 10
90.944976
 20
59.56448
 30
0.0
 11
91.944976
 21
59.56448
 31
0.0
  0
LINE
  5
116
100
AcDbEntity
  8
0
  6
Continuous
 62
   174
100
AcDbLine
 10
95.463072
 20
57.06448
 30
0.0
 11
92.463122
 21
57.06448
 31
0.0
  0
LINE
  5
117
100
AcDbEntity
  8
0
  6
Continuous
 62
   174
100
AcDbLine
 10
90.444976
 20
39.580348
 30
0.0
 11
90.444976
 21
39.692936
 31
0.0
  0
LINE
  5
118
100
AcDbEntity
  8
0
  6
HIDDEN
 62
   174
100
AcDbLine
 10
207.944976
 20
49.579898
 30
0.0
 11
207.944976
 21
55.982567
 31
0.0
  0
LINE
  5
119
100
AcDbEntity
  8
0
  6
Continuous
 62
   174
100
AcDbLine
 10
80.444976
 20
56.185863
 30
0.0
 11
80.444976
 21
42.97372
 31
0.0
  0
LINE
  5
11A
100
AcDbEntity
  8
0
  6
Continuous
 62
   174
100
AcDbLine
 10
90.444976
 20
59.56448
 30
0.0
 11
90.944976
 21
59.56448
 31
0.0
  0
LINE
  5
11B
100
AcDbEntity
  8
0
  6
Continuous
 62
   174
100
AcDbLine
 10
90.944976
 20
39.56448
 30
0.0
 11
91.944976
 21
39.56448
 31
0.0
  0
LINE
  5
11C
100
AcDbEntity
  8
0
  6
Continuous
 62
   174
100
AcDbLine
 10
118.444976
 20
60.06448
 30
0.0
 11
95.444976
 21
60.06448
 31
0.0
  0
LINE
  5
11D
100
AcDbEntity
  8
0
  6
Continuous
 62
   174
100
AcDbLine
 10
121.944976
 20
38.56448
 30
0.0
 11
137.944976
 21
38.56448
 31
0.0
  0
LINE
  5
11E
100
AcDbEntity
  8
0
  6
HIDDEN
 62
   174
100
AcDbLine
 10
158.444976
 20
38.56448
 30
0.0
 11
158.444976
 21
39.56448
 31
0.0
  0
LINE
  5
11F
100
AcDbEntity
  8
0
  6
HIDDEN
 62
   174
100
AcDbLine
 10
80.444976
 20
43.080148
 30
0.0
 11
80.444976
 21
56.079435
 31
0.0
  0
LINE
  5
120
100
AcDbEntity
  8
0
  6
Continuous
 62
   174
100
AcDbLine
 10
90.944976
 20
59.56448
 30
0.0
 11
91.944976
 21
59.56448
 31
0.0
  0
LINE
  5
121
100
AcDbEntity
  8
0
  6
HIDDEN
 62
   174
100
AcDbLine
 10
188.212976
 20
61.26448
 30
0.0
 11
187.254487
 21
61.26448
 31
0.0
  0
LINE
  5
122
100
AcDbEntity
  8
0
  6
Continuous
 62
   174
100
AcDbLine
 10
90.444976
 20
40.966035
 30
0.0
 11
90.444976
 21
41.554256
 31
0.0
  0
LINE
  5
123
100
AcDbEntity
  8
0
  6
Continuous
 62
   174
100
AcDbLine
 10
121.944976
 20
38.56448
 30
0.0
 11
91.944976
 21
38.56448
 31
0.0
  0
LINE
  5
124
100
AcDbEntity
  8
0
  6
Continuous
 62
   174
100
AcDbLine
 10
76.744976
 20
41.831479
 30
0.0
 11
76.744976
 21
40.580473
 31
0.0
  0
LINE
  5
125
100
AcDbEntity
  8
0
  6
Continuous
 62
   174
100
AcDbLine
 10
208.944976
 20
49.579898
 30
0.0
 11
208.944976
 21
55.982567
 31
0.0
  0
LINE
  5
126
100
AcDbEntity
  8
0
  6
HIDDEN
 62
   174
100
AcDbLine
 10
158.336899
 20
61.26448
 30
0.0
 11
157.713201
 21
61.26448
 31
0.0
  0
LINE
  5
127
100
AcDbEntity
  8
0
  6
Continuous
 62
   174
100
AcDbLine
 10
182.851006
 20
60.26448
 30
0.0
 11
181.966656
 21
60.26448
 31
0.0
  0
LINE
  5
128
100
AcDbEntity
  8
0
  6
Continuous
 62
   174
100
AcDbLine
 10
187.444976
 20
31.26448
 30
0.0
 11
187.444976
 21
38.56448
 31
0.0
  0
LINE
  5
129
100
AcDbEntity
  8
0
  6
HIDDEN
 62
   174
100
AcDbLine
 10
158.444976
 20
40.06448
 30
0.0
 11
158.444976
 21
56.26448
 31
0.0
  0
LINE
  5
12A
100
AcDbEntity
  8
0
  6
Continuous
 62
   174
100
AcDbLine
 10
121.944976
 20
38.56448
 30
0.0
 11
121.944976
 21
60.56448
 31
0.0
  0
ARC
  5
12B
100
AcDbEntity
  8
0
  6
Continuous
 62
   174
100
AcDbCircle
 10
132.944976
 20
49.56448
 30
0.0
 40
3.0
100
AcDbArc
 50
0.0
 51
180.0
  0
LINE
  5
12C
100
AcDbEntity
  8
0
  6
HIDDEN
 62
   174
100
AcDbLine
 10
165.194976
 20
56.26448
 30
0.0
 11
165.194976
 21
60.26448
 31
0.0
  0
LINE
  5
12D
100
AcDbEntity
  8
0
  6
Continuous
 62
   174
100
AcDbLine
 10
181.694976
 20
60.56448
 30
0.0
 11
188.194976
 21
60.56448
 31
0.0
  0
LINE
  5
12E
100
AcDbEntity
  8
0
  6
HIDDEN
 62
   174
100
AcDbLine
 10
84.244976
 20
47.078736
 30
0.0
 11
84.244976
 21
44.500674
 31
0.0
  0
LINE
  5
12F
100
AcDbEntity
  8
0
  6
Continuous
 62
   174
100
AcDbLine
 10
72.944976
 20
52.682027
 30
0.0
 11
72.944976
 21
41.831479
 31
0.0
  0
LWPOLYLINE
  5
130
100
AcDbEntity
  8
0
  6
Continuous
 62
   174
100
AcDbPolyline
 90
        7
 70
   128
 10
73.637796
 20
41.815607
 10
73.271669
 20
43.117573
 10
73.043571
 20
44.394175
 10
72.966668
 20
45.645146
 10
73.043586
 20
46.896101
 10
73.271687
 20
48.172656
 10
73.637796
 20
49.474546
  0
LWPOLYLINE
  5
131
100
AcDbEntity
  8
0
  6
Continuous
 62
   174
100
AcDbPolyline
 90
        4
 70
   128
 10
73.637796
 20
49.474546
 10
73.309895
 20
50.559515
 10
73.077141
 20
51.618514
 10
72.944976
 20
52.666758
  0
LINE
  5
132
100
AcDbEntity
  8
0
  6
Continuous
 62
   174
100
AcDbLine
 10
80.444976
 20
42.97372
 30
0.0
 11
80.444976
 21
41.580385
 31
0.0
  0
ARC
  5
133
100
AcDbEntity
  8
0
  6
Continuous
 62
   174
100
AcDbCircle
 10
132.944976
 20
49.56448
 30
0.0
 40
3.0
100
AcDbArc
 50
-180.0
 51
0.0
  0
LINE
  5
134
100
AcDbEntity
  8
0
  6
HIDDEN
 62
   174
100
AcDbLine
 10
163.444976
 20
39.56448
 30
0.0
 11
163.444976
 21
40.06448
 31
0.0
  0
LINE
  5
135
100
AcDbEntity
  8
0
  6
Continuous
 62
   174
100
AcDbLine
 10
84.244976
 20
39.882021
 30
0.0
 11
90.444976
 21
39.882021
 31
0.0
  0
LINE
  5
136
100
AcDbEntity
  8
0
  6
HIDDEN
 62
   174
100
AcDbLine
 10
156.694976
 20
56.26448
 30
0.0
 11
156.694976
 21
60.26448
 31
0.0
  0
LINE
  5
137
100
AcDbEntity
  8
0
  6
Continuous
 62
   174
100
AcDbLine
 10
121.444976
 20
57.06448
 30
0.0
 11
121.444976
 21
42.06448
 31
0.0
  0
LINE
  5
138
100
AcDbEntity
  8
0
  6
Continuous
 62
   174
100
AcDbLine
 10
121.944976
 20
60.56448
 30
0.0
 11
137.944976
 21
60.56448
 31
0.0
  0
LINE
  5
139
100
AcDbEntity
  8
0
  6
Continuous
 62
   174
100
AcDbLine
 10
90.444976
 20
57.605539
 30
0.0
 11
90.444976
 21
58.192061
 31
0.0
  0
LINE
  5
13A
100
AcDbEntity
  8
0
  6
Continuous
 62
   174
100
AcDbLine
 10
77.444976
 20
40.580473
 30
0.0
 11
77.444976
 21
42.866017
 31
0.0
  0
LWPOLYLINE
  5
13B
100
AcDbEntity
  8
0
  6
Continuous
 62
   174
100
AcDbPolyline
 90
        6
 70
   128
 10
92.444976
 20
43.319482
 10
92.617318
 20
44.275444
 10
93.069119
 20
45.401883
 10
93.732189
 20
46.682874
 10
94.540719
 20
48.07689
 10
95.444976
 20
49.56448
  0
LINE
  5
13C
100
AcDbEntity
  8
0
  6
Continuous
 62
   174
100
AcDbLine
 10
207.944976
 20
38.56448
 30
0.0
 11
207.944976
 21
60.56448
 31
0.0
  0
LINE
  5
13D
100
AcDbEntity
  8
0
  6
Continuous
 62
   174
100
AcDbLine
 10
121.463134
 20
42.06448
 30
0.0
 11
118.463184
 21
42.06448
 31
0.0
  0
LINE
  5
13E
100
AcDbEntity
  8
0
  6
Continuous
 62
   174
100
AcDbLine
 10
158.665104
 20
61.26448
 30
0.0
 11
157.713201
 21
61.26448
 31
0.0
  0
LINE
  5
13F
100
AcDbEntity
  8
0
  6
HIDDEN
 62
   174
100
AcDbLine
 10
163.254463
 20
61.26448
 30
0.0
 11
158.336899
 21
61.26448
 31
0.0
  0
LINE
  5
140
100
AcDbEntity
  8
0
  6
Continuous
 62
   174
100
AcDbLine
 10
181.966656
 20
60.26448
 30
0.0
 11
180.713101
 21
60.26448
 31
0.0
  0
LINE
  5
141
100
AcDbEntity
  8
0
  6
Continuous
 62
   174
100
AcDbLine
 10
72.944976
 20
52.666758
 30
0.0
 11
72.944976
 21
54.211074
 31
0.0
  0
ARC
  5
142
100
AcDbEntity
  8
0
  6
Continuous
 62
   174
100
AcDbCircle
 10
132.944976
 20
49.56448
 30
0.0
 40
2.720294
100
AcDbArc
 50
-259.408609
 51
-100.591391
  0
LINE
  5
143
100
AcDbEntity
  8
0
  6
Continuous
 62
   174
100
AcDbLine
 10
118.444976
 20
39.06448
 30
0.0
 11
95.444976
 21
39.06448
 31
0.0
  0
LINE
  5
144
100
AcDbEntity
  8
0
  6
HIDDEN
 62
   174
100
AcDbLine
 10
163.444976
 20
38.56448
 30
0.0
 11
163.444976
 21
39.56448
 31
0.0
  0
ARC
  5
145
100
AcDbEntity
  8
0
  6
Continuous
 62
   174
100
AcDbCircle
 10
95.444976
 20
42.06448
 30
0.0
 40
3.0
100
AcDbArc
 50
-180.0
 51
-90.0
  0
LINE
  5
146
100
AcDbEntity
  8
0
  6
Continuous
 62
   174
100
AcDbLine
 10
92.463122
 20
42.06448
 30
0.0
 11
95.463072
 21
42.06448
 31
0.0
  0
LINE
  5
147
100
AcDbEntity
  8
0
  6
Continuous
 62
   174
100
AcDbLine
 10
132.444976
 20
52.238428
 30
0.0
 11
132.444976
 21
46.890531
 31
0.0
  0
LINE
  5
148
100
AcDbEntity
  8
0
  6
HIDDEN
 62
   174
100
AcDbLine
 10
163.444976
 20
40.06448
 30
0.0
 11
163.444976
 21
56.26448
 31
0.0
  0
LWPOLYLINE
  5
149
100
AcDbEntity
  8
0
  6
Continuous
 62
   174
100
AcDbPolyline
 90
        4
 70
   128
 10
72.944976
 20
54.211074
 10
73.078096
 20
55.264783
 10
73.311179
 20
56.323195
 10
73.637796
 20
57.403286
  0
ARC
  5
14A
100
AcDbEntity
  8
0
  6
Continuous
 62
   174
100
AcDbCircle
 10
132.944976
 20
49.56448
 30
0.0
 40
2.720294
100
AcDbArc
 50
-79.408609
 51
79.408609
  0
LINE
  5
14B
100
AcDbEntity
  8
0
  6
Continuous
 62
   174
100
AcDbLine
 10
76.744976
 20
49.474546
 30
0.0
 11
73.637796
 21
49.474546
 31
0.0
  0
LINE
  5
14C
100
AcDbEntity
  8
0
  6
Continuous
 62
   174
100
AcDbLine
 10
90.444976
 20
59.261014
 30
0.0
 11
90.444976
 21
59.466859
 31
0.0
  0
LINE
  5
14D
100
AcDbEntity
  8
0
  6
HIDDEN
 62
   174
100
AcDbLine
 10
180.694976
 20
56.26448
 30
0.0
 11
180.694976
 21
60.26448
 31
0.0
  0
LINE
  5
14E
100
AcDbEntity
  8
0
  6
Continuous
 62
   174
100
AcDbLine
 10
95.444976
 20
60.06448
 30
0.0
 11
118.444976
 21
60.06448
 31
0.0
  0
LINE
  5
14F
100
AcDbEntity
  8
0
  6
Continuous
 62
   174
100
AcDbLine
 10
163.444976
 20
31.26448
 30
0.0
 11
163.444976
 21
38.56448
 31
0.0
  0
LINE
  5
150
100
AcDbEntity
  8
0
  6
HIDDEN
 62
   174
100
AcDbLine
 10
163.444976
 20
39.56448
 30
0.0
 11
163.444976
 21
40.06448
 31
0.0
  0
LINE
  5
151
100
AcDbEntity
  8
0
  6
Continuous
 62
   174
100
AcDbLine
 10
77.444976
 20
42.866017
 30
0.0
 11
77.444976
 21
56.293778
 31
0.0
  0
LINE
  5
152
100
AcDbEntity
  8
0
  6
Continuous
 62
   174
100
AcDbLine
 10
207.944976
 20
55.967604
 30
0.0
 11
208.944976
 21
55.967604
 31
0.0
  0
LINE
  5
153
100
AcDbEntity
  8
0
  6
HIDDEN
 62
   174
100
AcDbLine
 10
189.194976
 20
56.26448
 30
0.0
 11
189.194976
 21
60.26448
 31
0.0
  0
LINE
  5
154
100
AcDbEntity
  8
0
  6
Continuous
 62
   174
100
AcDbLine
 10
118.444976
 20
39.080498
 30
0.0
 11
118.444976
 21
42.080235
 31
0.0
  0
LINE
  5
155
100
AcDbEntity
  8
0
  6
Continuous
 62
   174
100
AcDbLine
 10
95.444976
 20
39.06448
 30
0.0
 11
118.444976
 21
39.06448
 31
0.0
  0
LINE
  5
156
100
AcDbEntity
  8
0
  6
Continuous
 62
   174
100
AcDbLine
 10
137.944976
 20
38.56448
 30
0.0
 11
207.944976
 21
38.56448
 31
0.0
  0
LINE
  5
157
100
AcDbEntity
  8
0
  6
HIDDEN
 62
   174
100
AcDbLine
 10
90.444976
 20
47.078736
 30
0.0
 11
90.444976
 21
52.077661
 31
0.0
  0
LWPOLYLINE
  5
158
100
AcDbEntity
  8
0
  6
HIDDEN
 62
   174
100
AcDbPolyline
 90
        7
 70
   128
 10
73.637796
 20
49.474546
 10
73.271669
 20
48.17258
 10
73.043571
 20
46.895978
 10
72.966668
 20
45.645008
 10
73.043586
 20
44.394053
 10
73.271687
 20
43.117498
 10
73.637796
 20
41.815607
  0
LWPOLYLINE
  5
159
100
AcDbEntity
  8
0
  6
Continuous
 62
   174
100
AcDbPolyline
 90
        3
 70
   128
 10
73.637796
 20
57.403286
 10
73.271693
 20
57.403286
 10
73.043594
 20
57.403286
  0
LINE
  5
15A
100
AcDbEntity
  8
0
  6
HIDDEN
 62
   174
100
AcDbLine
 10
84.244976
 20
47.063231
 30
0.0
 11
90.444976
 21
47.063231
 31
0.0
  0
LINE
  5
15B
100
AcDbEntity
  8
0
  6
HIDDEN
 62
   174
100
AcDbLine
 10
163.444976
 20
38.56448
 30
0.0
 11
163.444976
 21
39.56448
 31
0.0
  0
LINE
  5
15C
100
AcDbEntity
  8
0
  6
HIDDEN
 62
   174
100
AcDbLine
 10
187.444976
 20
38.56448
 30
0.0
 11
187.444976
 21
56.26448
 31
0.0
  0
LINE
  5
15D
100
AcDbEntity
  8
0
  6
Continuous
 62
   174
100
AcDbLine
 10
95.444976
 20
57.079348
 30
0.0
 11
95.444976
 21
60.079298
 31
0.0
  0
LINE
  5
15E
100
AcDbEntity
  8
0
  6
Continuous
 62
   174
100
AcDbLine
 10
92.444976
 20
57.06448
 30
0.0
 11
92.444976
 21
55.809478
 31
0.0
  0
LWPOLYLINE
  5
15F
100
AcDbEntity
  8
0
  6
HIDDEN
 62
   174
100
AcDbPolyline
 90
        4
 70
   128
 10
72.944976
 20
52.666758
 10
73.078096
 20
51.613049
 10
73.311179
 20
50.554637
 10
73.637796
 20
49.474546
  0
LWPOLYLINE
  5
160
100
AcDbEntity
  8
0
  6
HIDDEN
 62
   174
100
AcDbPolyline
 90
        4
 70
   128
 10
92.486936
 20
41.56448
 10
92.477941
 20
41.620968
 10
92.457535
 20
41.790255
 10
92.444976
 20
42.06448
  0
LINE
  5
161
100
AcDbEntity
  8
0
  6
HIDDEN
 62
   174
100
AcDbLine
 10
137.944976
 20
43.56448
 30
0.0
 11
137.894976
 21
43.56448
 31
0.0
  0
LINE
  5
162
100
AcDbEntity
  8
0
  6
HIDDEN
 62
   174
100
AcDbLine
 10
158.444976
 20
40.06448
 30
0.0
 11
158.444976
 21
56.26448
 31
0.0
  0
LINE
  5
163
100
AcDbEntity
  8
0
  6
Continuous
 62
   174
100
AcDbLine
 10
77.444976
 20
56.293778
 30
0.0
 11
77.444976
 21
58.579323
 31
0.0
  0
LINE
  5
164
100
AcDbEntity
  8
0
  6
HIDDEN
 62
   174
100
AcDbLine
 10
84.244976
 20
52.062362
 30
0.0
 11
90.444976
 21
52.062362
 31
0.0
  0
LINE
  5
165
100
AcDbEntity
  8
0
  6
HIDDEN
 62
   174
100
AcDbLine
 10
189.194976
 20
56.26448
 30
0.0
 11
189.194976
 21
60.26448
 31
0.0
  0
LINE
  5
166
100
AcDbEntity
  8
0
  6
Continuous
 62
   174
100
AcDbLine
 10
95.444976
 20
39.080498
 30
0.0
 11
95.444976
 21
42.080235
 31
0.0
  0
ENDBLK
  5
167
100
AcDbEntity
  8
0
100
AcDbBlockEnd
  0
BLOCK
  5
16A
100
AcDbEntity
  8
0
100
AcDbBlockBegin
  2
*B3
 70
     0
 10
0.0
 20
0.0
 30
0.0
  3
*B3
  1

  0
LINE
  5
16B
100
AcDbEntity
  8
0
  6
HIDDEN
 62
   172
100
AcDbLine
 10
182.4
 20
53.0
 30
0.0
 11
187.4
 21
53.0
 31
0.0
  0
LINE
  5
16C
100
AcDbEntity
  8
0
  6
HIDDEN
 62
   172
100
AcDbLine
 10
158.4
 20
53.0
 30
0.0
 11
163.4
 21
53.0
 31
0.0
  0
LINE
  5
16D
100
AcDbEntity
  8
0
  6
HIDDEN
 62
   172
100
AcDbLine
 10
162.9
 20
38.55
 30
0.0
 11
162.9
 21
53.2
 31
0.0
  0
LINE
  5
16E
100
AcDbEntity
  8
0
  6
HIDDEN
 62
   172
100
AcDbLine
 10
159.0
 20
38.55
 30
0.0
 11
159.0
 21
53.2
 31
0.0
  0
LINE
  5
16F
100
AcDbEntity
  8
0
  6
HIDDEN
 62
   172
100
AcDbLine
 10
186.9
 20
38.55
 30
0.0
 11
186.9
 21
53.2
 31
0.0
  0
LINE
  5
170
100
AcDbEntity
  8
0
  6
HIDDEN
 62
   172
100
AcDbLine
 10
183.0
 20
38.55
 30
0.0
 11
183.0
 21
53.2
 31
0.0
  0
ENDBLK
  5
171
100
AcDbEntity
  8
0
100
AcDbBlockEnd
  0
BLOCK
  5
174
100
AcDbEntity
  8
0
100
AcDbBlockBegin
  2
*B4
 70
     0
 10
0.0
 20
0.0
 30
0.0
  3
*B4
  1

  0
LINE
  5
175
100
AcDbEntity
  8
0
  6
HIDDEN
 62
   174
100
AcDbLine
 10
110.344976
 20
173.919017
 30
0.0
 11
110.344976
 21
173.969017
 31
0.0
  0
LINE
  5
176
100
AcDbEntity
  8
0
  6
HIDDEN
 62
   174
100
AcDbLine
 10
103.544976
 20
173.919017
 30
0.0
 11
103.544976
 21
173.969017
 31
0.0
  0
LINE
  5
177
100
AcDbEntity
  8
0
  6
HIDDEN
 62
   174
100
AcDbLine
 10
103.944976
 20
173.919017
 30
0.0
 11
103.944976
 21
173.969017
 31
0.0
  0
LINE
  5
178
100
AcDbEntity
  8
0
  6
HIDDEN
 62
   174
100
AcDbLine
 10
109.944976
 20
173.919017
 30
0.0
 11
109.944976
 21
173.969017
 31
0.0
  0
LINE
  5
179
100
AcDbEntity
  8
0
  6
HIDDEN
 62
   174
100
AcDbLine
 10
104.967793
 20
173.969017
 30
0.0
 11
104.967793
 21
173.919017
 31
0.0
  0
LINE
  5
17A
100
AcDbEntity
  8
0
  6
HIDDEN
 62
   174
100
AcDbLine
 10
109.201244
 20
173.969017
 30
0.0
 11
109.201244
 21
173.919017
 31
0.0
  0
LINE
  5
17B
100
AcDbEntity
  8
0
  6
HIDDEN
 62
   174
100
AcDbLine
 10
104.558128
 20
173.969017
 30
0.0
 11
104.558128
 21
173.919017
 31
0.0
  0
LINE
  5
17C
100
AcDbEntity
  8
0
  6
HIDDEN
 62
   174
100
AcDbLine
 10
108.76238
 20
173.969017
 30
0.0
 11
108.76238
 21
173.919017
 31
0.0
  0
LINE
  5
17D
100
AcDbEntity
  8
0
  6
HIDDEN
 62
   174
100
AcDbLine
 10
110.363191
 20
173.969017
 30
0.0
 11
109.977417
 21
173.969017
 31
0.0
  0
LINE
  5
17E
100
AcDbEntity
  8
0
  6
HIDDEN
 62
   174
100
AcDbLine
 10
103.949264
 20
173.969017
 30
0.0
 11
103.563064
 21
173.969017
 31
0.0
  0
LINE
  5
17F
100
AcDbEntity
  8
0
  6
HIDDEN
 62
   174
100
AcDbLine
 10
104.018728
 20
173.969017
 30
0.0
 11
103.949264
 21
173.969017
 31
0.0
  0
LINE
  5
180
100
AcDbEntity
  8
0
  6
HIDDEN
 62
   174
100
AcDbLine
 10
104.969357
 20
173.969017
 30
0.0
 11
104.018728
 21
173.969017
 31
0.0
  0
LINE
  5
181
100
AcDbEntity
  8
0
  6
HIDDEN
 62
   174
100
AcDbLine
 10
106.963022
 20
173.969017
 30
0.0
 11
104.969357
 21
173.969017
 31
0.0
  0
LINE
  5
182
100
AcDbEntity
  8
0
  6
HIDDEN
 62
   174
100
AcDbLine
 10
109.977417
 20
173.969017
 30
0.0
 11
109.907527
 21
173.969017
 31
0.0
  0
LINE
  5
183
100
AcDbEntity
  8
0
  6
HIDDEN
 62
   174
100
AcDbLine
 10
108.780581
 20
173.969017
 30
0.0
 11
106.963022
 21
173.969017
 31
0.0
  0
LINE
  5
184
100
AcDbEntity
  8
0
  6
HIDDEN
 62
   174
100
AcDbLine
 10
105.136115
 20
173.969017
 30
0.0
 11
104.972331
 21
173.969017
 31
0.0
  0
LINE
  5
185
100
AcDbEntity
  8
0
  6
HIDDEN
 62
   174
100
AcDbLine
 10
166.364976
 20
137.969017
 30
0.0
 11
166.364976
 21
147.969017
 31
0.0
  0
LINE
  5
186
100
AcDbEntity
  8
0
  6
HIDDEN
 62
   174
100
AcDbLine
 10
179.543031
 20
147.969017
 30
0.0
 11
166.383146
 21
147.969017
 31
0.0
  0
LINE
  5
187
100
AcDbEntity
  8
0
  6
HIDDEN
 62
   174
100
AcDbLine
 10
178.819976
 20
147.969017
 30
0.0
 11
178.819976
 21
136.969017
 31
0.0
  0
LINE
  5
188
100
AcDbEntity
  8
0
  6
HIDDEN
 62
   174
100
AcDbLine
 10
167.069976
 20
137.969017
 30
0.0
 11
167.069976
 21
147.969017
 31
0.0
  0
LINE
  5
189
100
AcDbEntity
  8
0
  6
HIDDEN
 62
   174
100
AcDbLine
 10
201.524976
 20
137.969017
 30
0.0
 11
201.524976
 21
147.969017
 31
0.0
  0
LINE
  5
18A
100
AcDbEntity
  8
0
  6
HIDDEN
 62
   174
100
AcDbLine
 10
200.819976
 20
147.969017
 30
0.0
 11
200.819976
 21
136.969017
 31
0.0
  0
ARC
  5
18B
100
AcDbEntity
  8
0
  6
Continuous
 62
   174
100
AcDbCircle
 10
160.944976
 20
127.969017
 30
0.0
 40
7.5
100
AcDbArc
 50
0.0
 51
180.0
  0
ARC
  5
18C
100
AcDbEntity
  8
0
  6
HIDDEN
 62
   174
100
AcDbCircle
 10
160.944976
 20
111.969017
 30
0.0
 40
4.25
100
AcDbArc
 50
180.0
 51
260.962376
  0
ARC
  5
18D
100
AcDbEntity
  8
0
  6
HIDDEN
 62
   174
100
AcDbCircle
 10
160.944976
 20
111.969017
 30
0.0
 40
3.249981
100
AcDbArc
 50
-180.0
 51
0.0
  0
ARC
  5
18E
100
AcDbEntity
  8
0
  6
HIDDEN
 62
   174
100
AcDbCircle
 10
160.944976
 20
111.969017
 30
0.0
 40
3.249981
100
AcDbArc
 50
0.0
 51
180.0
  0
LINE
  5
18F
100
AcDbEntity
  8
0
  6
HIDDEN
 62
   174
100
AcDbLine
 10
178.819976
 20
137.969017
 30
0.0
 11
178.819976
 21
147.969017
 31
0.0
  0
LINE
  5
190
100
AcDbEntity
  8
0
  6
HIDDEN
 62
   174
100
AcDbLine
 10
157.543044
 20
147.969017
 30
0.0
 11
144.383159
 21
147.969017
 31
0.0
  0
LINE
  5
191
100
AcDbEntity
  8
0
  6
HIDDEN
 62
   174
100
AcDbLine
 10
156.819976
 20
147.969017
 30
0.0
 11
156.819976
 21
136.969017
 31
0.0
  0
LINE
  5
192
100
AcDbEntity
  8
0
  6
HIDDEN
 62
   174
100
AcDbLine
 10
200.819976
 20
137.969017
 30
0.0
 11
200.819976
 21
147.969017
 31
0.0
  0
LINE
  5
193
100
AcDbEntity
  8
0
  6
HIDDEN
 62
   174
100
AcDbLine
 10
201.524976
 20
137.969017
 30
0.0
 11
201.524976
 21
147.969017
 31
0.0
  0
LINE
  5
194
100
AcDbEntity
  8
0
  6
HIDDEN
 62
   174
100
AcDbLine
 10
200.819976
 20
147.969017
 30
0.0
 11
200.819976
 21
136.969017
 31
0.0
  0
LINE
  5
195
100
AcDbEntity
  8
0
  6
HIDDEN
 62
   174
100
AcDbLine
 10
189.087979
 20
136.969017
 30
0.0
 11
200.838172
 21
136.969017
 31
0.0
  0
LINE
  5
196
100
AcDbEntity
  8
0
  6
Continuous
 62
   174
100
AcDbLine
 10
72.944976
 20
158.169017
 30
0.0
 11
73.61223
 21
157.013299
 31
0.0
  0
LINE
  5
197
100
AcDbEntity
  8
0
  6
HIDDEN
 62
   174
100
AcDbLine
 10
189.087979
 20
147.969017
 30
0.0
 11
200.838172
 21
147.969017
 31
0.0
  0
LINE
  5
198
100
AcDbEntity
  8
0
  6
HIDDEN
 62
   174
100
AcDbLine
 10
145.088005
 20
147.969017
 30
0.0
 11
156.837986
 21
147.969017
 31
0.0
  0
ARC
  5
199
100
AcDbEntity
  8
0
  6
HIDDEN
 62
   174
100
AcDbCircle
 10
160.944976
 20
111.969017
 30
0.0
 40
4.25
100
AcDbArc
 50
180.0
 51
360.0
  0
ARC
  5
19A
100
AcDbEntity
  8
0
  6
HIDDEN
 62
   174
100
AcDbCircle
 10
160.944976
 20
111.969017
 30
0.0
 40
4.25
100
AcDbArc
 50
0.0
 51
180.0
  0
LINE
  5
19B
100
AcDbEntity
  8
0
  6
HIDDEN
 62
   174
100
AcDbLine
 10
92.444976
 20
163.185135
 30
0.0
 11
92.444976
 21
157.969017
 31
0.0
  0
ARC
  5
19C
100
AcDbEntity
  8
0
  6
HIDDEN
 62
   174
100
AcDbCircle
 10
184.944976
 20
143.969017
 30
0.0
 40
4.25
100
AcDbArc
 50
0.0
 51
80.962376
  0
LINE
  5
19D
100
AcDbEntity
  8
0
  6
HIDDEN
 62
   174
100
AcDbLine
 10
178.819976
 20
137.969017
 30
0.0
 11
178.819976
 21
147.969017
 31
0.0
  0
LINE
  5
19E
100
AcDbEntity
  8
0
  6
HIDDEN
 62
   174
100
AcDbLine
 10
178.819976
 20
147.969017
 30
0.0
 11
178.819976
 21
136.969017
 31
0.0
  0
LINE
  5
19F
100
AcDbEntity
  8
0
  6
HIDDEN
 62
   174
100
AcDbLine
 10
167.087992
 20
136.969017
 30
0.0
 11
178.837973
 21
136.969017
 31
0.0
  0
LINE
  5
1A0
100
AcDbEntity
  8
0
  6
HIDDEN
 62
   174
100
AcDbLine
 10
157.524976
 20
137.969017
 30
0.0
 11
157.524976
 21
147.969017
 31
0.0
  0
LINE
  5
1A1
100
AcDbEntity
  8
0
  6
HIDDEN
 62
   174
100
AcDbLine
 10
144.364976
 20
137.969017
 30
0.0
 11
144.364976
 21
147.969017
 31
0.0
  0
LINE
  5
1A2
100
AcDbEntity
  8
0
  6
HIDDEN
 62
   174
100
AcDbLine
 10
157.543044
 20
137.969017
 30
0.0
 11
144.383159
 21
137.969017
 31
0.0
  0
LINE
  5
1A3
100
AcDbEntity
  8
0
  6
HIDDEN
 62
   174
100
AcDbLine
 10
145.069976
 20
147.969017
 30
0.0
 11
145.069976
 21
136.969017
 31
0.0
  0
LINE
  5
1A4
100
AcDbEntity
  8
0
  6
HIDDEN
 62
   174
100
AcDbLine
 10
189.069976
 20
147.969017
 30
0.0
 11
189.069976
 21
136.969017
 31
0.0
  0
ARC
  5
1A5
100
AcDbEntity
  8
0
  6
Continuous
 62
   174
100
AcDbCircle
 10
160.944976
 20
127.969017
 30
0.0
 40
7.5
100
AcDbArc
 50
-180.0
 51
0.0
  0
ARC
  5
1A6
100
AcDbEntity
  8
0
  6
Continuous
 62
   174
100
AcDbCircle
 10
184.944976
 20
127.969017
 30
0.0
 40
7.5
100
AcDbArc
 50
0.0
 51
180.0
  0
LINE
  5
1A7
100
AcDbEntity
  8
0
  6
Continuous
 62
   174
100
AcDbLine
 10
80.444976
 20
173.969017
 30
0.0
 11
95.444976
 21
173.969017
 31
0.0
  0
ARC
  5
1A8
100
AcDbEntity
  8
0
  6
Continuous
 62
   174
100
AcDbCircle
 10
184.944976
 20
127.969017
 30
0.0
 40
3.5
100
AcDbArc
 50
0.0
 51
180.0
  0
ARC
  5
1A9
100
AcDbEntity
  8
0
  6
HIDDEN
 62
   174
100
AcDbCircle
 10
184.944976
 20
143.969017
 30
0.0
 40
4.25
100
AcDbArc
 50
0.0
 51
180.0
  0
ARC
  5
1AA
100
AcDbEntity
  8
0
  6
HIDDEN
 62
   174
100
AcDbCircle
 10
160.944976
 20
111.969017
 30
0.0
 40
4.25
100
AcDbArc
 50
0.0
 51
180.0
  0
ARC
  5
1AB
100
AcDbEntity
  8
0
  6
HIDDEN
 62
   174
100
AcDbCircle
 10
184.944976
 20
143.969017
 30
0.0
 40
4.25
100
AcDbArc
 50
80.962376
 51
99.037624
  0
LINE
  5
1AC
100
AcDbEntity
  8
0
  6
HIDDEN
 62
   174
100
AcDbLine
 10
108.789503
 20
173.969017
 30
0.0
 11
108.663106
 21
173.969017
 31
0.0
  0
LINE
  5
1AD
100
AcDbEntity
  8
0
  6
HIDDEN
 62
   174
100
AcDbLine
 10
109.963184
 20
173.969017
 30
0.0
 11
109.219463
 21
173.969017
 31
0.0
  0
LINE
  5
1AE
100
AcDbEntity
  8
0
  6
HIDDEN
 62
   174
100
AcDbLine
 10
109.201244
 20
173.969017
 30
0.0
 11
108.76238
 21
173.969017
 31
0.0
  0
LINE
  5
1AF
100
AcDbEntity
  8
0
  6
Continuous
 62
   174
100
AcDbLine
 10
80.444976
 20
172.469017
 30
0.0
 11
77.444976
 21
172.469017
 31
0.0
  0
LINE
  5
1B0
100
AcDbEntity
  8
0
  6
Continuous
 62
   174
100
AcDbLine
 10
80.444976
 20
159.469017
 30
0.0
 11
77.444976
 21
159.469017
 31
0.0
  0
LINE
  5
1B1
100
AcDbEntity
  8
0
  6
HIDDEN
 62
   174
100
AcDbLine
 10
179.524976
 20
137.969017
 30
0.0
 11
179.524976
 21
147.969017
 31
0.0
  0
LINE
  5
1B2
100
AcDbEntity
  8
0
  6
HIDDEN
 62
   174
100
AcDbLine
 10
179.524976
 20
137.969017
 30
0.0
 11
179.524976
 21
147.969017
 31
0.0
  0
LINE
  5
1B3
100
AcDbEntity
  8
0
  6
HIDDEN
 62
   174
100
AcDbLine
 10
188.364976
 20
137.969017
 30
0.0
 11
188.364976
 21
147.969017
 31
0.0
  0
LINE
  5
1B4
100
AcDbEntity
  8
0
  6
HIDDEN
 62
   174
100
AcDbLine
 10
201.543018
 20
147.969017
 30
0.0
 11
188.383133
 21
147.969017
 31
0.0
  0
LINE
  5
1B5
100
AcDbEntity
  8
0
  6
HIDDEN
 62
   174
100
AcDbLine
 10
189.069976
 20
137.969017
 30
0.0
 11
189.069976
 21
147.969017
 31
0.0
  0
LINE
  5
1B6
100
AcDbEntity
  8
0
  6
HIDDEN
 62
   174
100
AcDbLine
 10
189.069976
 20
137.969017
 30
0.0
 11
189.069976
 21
147.969017
 31
0.0
  0
LINE
  5
1B7
100
AcDbEntity
  8
0
  6
HIDDEN
 62
   174
100
AcDbLine
 10
167.087992
 20
147.969017
 30
0.0
 11
178.837973
 21
147.969017
 31
0.0
  0
ARC
  5
1B8
100
AcDbEntity
  8
0
  6
HIDDEN
 62
   174
100
AcDbCircle
 10
184.944976
 20
143.969017
 30
0.0
 40
3.249981
100
AcDbArc
 50
0.0
 51
180.0
  0
LINE
  5
1B9
100
AcDbEntity
  8
0
  6
HIDDEN
 62
   174
100
AcDbLine
 10
104.972331
 20
173.969017
 30
0.0
 11
103.963072
 21
173.969017
 31
0.0
  0
LINE
  5
1BA
100
AcDbEntity
  8
0
  6
HIDDEN
 62
   174
100
AcDbLine
 10
106.944976
 20
173.969017
 30
0.0
 11
104.967793
 21
173.969017
 31
0.0
  0
LINE
  5
1BB
100
AcDbEntity
  8
0
  6
HIDDEN
 62
   174
100
AcDbLine
 10
156.819976
 20
137.969017
 30
0.0
 11
156.819976
 21
147.969017
 31
0.0
  0
LINE
  5
1BC
100
AcDbEntity
  8
0
  6
HIDDEN
 62
   174
100
AcDbLine
 10
201.543018
 20
137.969017
 30
0.0
 11
188.383133
 21
137.969017
 31
0.0
  0
LINE
  5
1BD
100
AcDbEntity
  8
0
  6
HIDDEN
 62
   174
100
AcDbLine
 10
200.819976
 20
137.969017
 30
0.0
 11
200.819976
 21
147.969017
 31
0.0
  0
LINE
  5
1BE
100
AcDbEntity
  8
0
  6
Continuous
 62
   174
100
AcDbLine
 10
77.444976
 20
156.969017
 30
0.0
 11
76.744976
 21
156.969017
 31
0.0
  0
LINE
  5
1BF
100
AcDbEntity
  8
0
  6
HIDDEN
 62
   174
100
AcDbLine
 10
145.088005
 20
136.969017
 30
0.0
 11
156.837986
 21
136.969017
 31
0.0
  0
LINE
  5
1C0
100
AcDbEntity
  8
0
  6
Continuous
 62
   174
100
AcDbLine
 10
80.444976
 20
157.969017
 30
0.0
 11
92.444976
 21
157.969017
 31
0.0
  0
ARC
  5
1C1
100
AcDbEntity
  8
0
  6
Continuous
 62
   174
100
AcDbCircle
 10
160.944976
 20
127.969017
 30
0.0
 40
3.5
100
AcDbArc
 50
0.0
 51
180.0
  0
ARC
  5
1C2
100
AcDbEntity
  8
0
  6
Continuous
 62
   174
100
AcDbCircle
 10
184.944976
 20
127.969017
 30
0.0
 40
3.5
100
AcDbArc
 50
-180.0
 51
0.0
  0
ARC
  5
1C3
100
AcDbEntity
  8
0
  6
HIDDEN
 62
   174
100
AcDbCircle
 10
184.944976
 20
143.969017
 30
0.0
 40
4.25
100
AcDbArc
 50
99.037624
 51
180.0
  0
LINE
  5
1C4
100
AcDbEntity
  8
0
  6
HIDDEN
 62
   174
100
AcDbLine
 10
137.894976
 20
133.979565
 30
0.0
 11
137.894976
 21
121.980403
 31
0.0
  0
LINE
  5
1C5
100
AcDbEntity
  8
0
  6
HIDDEN
 62
   174
100
AcDbLine
 10
109.231997
 20
173.969017
 30
0.0
 11
108.789503
 21
173.969017
 31
0.0
  0
LINE
  5
1C6
100
AcDbEntity
  8
0
  6
HIDDEN
 62
   174
100
AcDbLine
 10
106.963022
 20
173.969017
 30
0.0
 11
105.136115
 21
173.969017
 31
0.0
  0
LINE
  5
1C7
100
AcDbEntity
  8
0
  6
HIDDEN
 62
   174
100
AcDbLine
 10
108.76238
 20
173.969017
 30
0.0
 11
106.944976
 21
173.969017
 31
0.0
  0
LINE
  5
1C8
100
AcDbEntity
  8
0
  6
HIDDEN
 62
   174
100
AcDbLine
 10
157.524976
 20
137.969017
 30
0.0
 11
157.524976
 21
147.969017
 31
0.0
  0
ARC
  5
1C9
100
AcDbEntity
  8
0
  6
Continuous
 62
   174
100
AcDbCircle
 10
160.944976
 20
127.969017
 30
0.0
 40
3.5
100
AcDbArc
 50
-180.0
 51
0.0
  0
ARC
  5
1CA
100
AcDbEntity
  8
0
  6
HIDDEN
 62
   174
100
AcDbCircle
 10
160.944976
 20
111.969017
 30
0.0
 40
4.25
100
AcDbArc
 50
260.962376
 51
279.037624
  0
ARC
  5
1CB
100
AcDbEntity
  8
0
  6
HIDDEN
 62
   174
100
AcDbCircle
 10
184.944976
 20
143.969017
 30
0.0
 40
4.25
100
AcDbArc
 50
-180.0
 51
0.0
  0
ARC
  5
1CC
100
AcDbEntity
  8
0
  6
HIDDEN
 62
   174
100
AcDbCircle
 10
184.944976
 20
143.969017
 30
0.0
 40
3.249981
100
AcDbArc
 50
-180.0
 51
0.0
  0
LINE
  5
1CD
100
AcDbEntity
  8
0
  6
HIDDEN
 62
   174
100
AcDbLine
 10
108.663106
 20
173.969017
 30
0.0
 11
106.963022
 21
173.969017
 31
0.0
  0
LINE
  5
1CE
100
AcDbEntity
  8
0
  6
HIDDEN
 62
   174
100
AcDbLine
 10
109.907527
 20
173.969017
 30
0.0
 11
109.367315
 21
173.969017
 31
0.0
  0
LINE
  5
1CF
100
AcDbEntity
  8
0
  6
HIDDEN
 62
   174
100
AcDbLine
 10
179.543031
 20
137.969017
 30
0.0
 11
166.383146
 21
137.969017
 31
0.0
  0
LINE
  5
1D0
100
AcDbEntity
  8
0
  6
HIDDEN
 62
   174
100
AcDbLine
 10
167.069976
 20
147.969017
 30
0.0
 11
167.069976
 21
136.969017
 31
0.0
  0
LINE
  5
1D1
100
AcDbEntity
  8
0
  6
HIDDEN
 62
   174
100
AcDbLine
 10
167.069976
 20
137.969017
 30
0.0
 11
167.069976
 21
147.969017
 31
0.0
  0
LINE
  5
1D2
100
AcDbEntity
  8
0
  6
HIDDEN
 62
   174
100
AcDbLine
 10
145.069976
 20
137.969017
 30
0.0
 11
145.069976
 21
147.969017
 31
0.0
  0
LINE
  5
1D3
100
AcDbEntity
  8
0
  6
HIDDEN
 62
   174
100
AcDbLine
 10
189.069976
 20
147.969017
 30
0.0
 11
189.069976
 21
136.969017
 31
0.0
  0
LINE
  5
1D4
100
AcDbEntity
  8
0
  6
Continuous
 62
   174
100
AcDbLine
 10
77.444976
 20
174.969017
 30
0.0
 11
76.744976
 21
174.969017
 31
0.0
  0
LINE
  5
1D5
100
AcDbEntity
  8
0
  6
Continuous
 62
   174
100
AcDbLine
 10
72.944976
 20
173.769017
 30
0.0
 11
73.612252
 21
174.924773
 31
0.0
  0
ARC
  5
1D6
100
AcDbEntity
  8
0
  6
Continuous
 62
   174
100
AcDbCircle
 10
184.944976
 20
127.969017
 30
0.0
 40
7.5
100
AcDbArc
 50
-180.0
 51
0.0
  0
ARC
  5
1D7
100
AcDbEntity
  8
0
  6
HIDDEN
 62
   174
100
AcDbCircle
 10
184.944976
 20
143.969017
 30
0.0
 40
4.25
100
AcDbArc
 50
180.0
 51
360.0
  0
ARC
  5
1D8
100
AcDbEntity
  8
0
  6
HIDDEN
 62
   174
100
AcDbCircle
 10
160.944976
 20
111.969017
 30
0.0
 40
4.25
100
AcDbArc
 50
-80.962376
 51
0.0
  0
LINE
  5
1D9
100
AcDbEntity
  8
0
  6
HIDDEN
 62
   174
100
AcDbLine
 10
109.367315
 20
173.969017
 30
0.0
 11
109.231997
 21
173.969017
 31
0.0
  0
LINE
  5
1DA
100
AcDbEntity
  8
0
  6
HIDDEN
 62
   174
100
AcDbLine
 10
166.364976
 20
137.969017
 30
0.0
 11
166.364976
 21
147.969017
 31
0.0
  0
LINE
  5
1DB
100
AcDbEntity
  8
0
  6
HIDDEN
 62
   174
100
AcDbLine
 10
167.069976
 20
147.969017
 30
0.0
 11
167.069976
 21
136.969017
 31
0.0
  0
LINE
  5
1DC
100
AcDbEntity
  8
0
  6
HIDDEN
 62
   174
100
AcDbLine
 10
144.364976
 20
137.969017
 30
0.0
 11
144.364976
 21
147.969017
 31
0.0
  0
LINE
  5
1DD
100
AcDbEntity
  8
0
  6
HIDDEN
 62
   174
100
AcDbLine
 10
156.819976
 20
147.969017
 30
0.0
 11
156.819976
 21
136.969017
 31
0.0
  0
LINE
  5
1DE
100
AcDbEntity
  8
0
  6
HIDDEN
 62
   174
100
AcDbLine
 10
145.069976
 20
147.969017
 30
0.0
 11
145.069976
 21
136.969017
 31
0.0
  0
LINE
  5
1DF
100
AcDbEntity
  8
0
  6
HIDDEN
 62
   174
100
AcDbLine
 10
156.819976
 20
137.969017
 30
0.0
 11
156.819976
 21
147.969017
 31
0.0
  0
LINE
  5
1E0
100
AcDbEntity
  8
0
  6
HIDDEN
 62
   174
100
AcDbLine
 10
145.069976
 20
137.969017
 30
0.0
 11
145.069976
 21
147.969017
 31
0.0
  0
LINE
  5
1E1
100
AcDbEntity
  8
0
  6
HIDDEN
 62
   174
100
AcDbLine
 10
188.364976
 20
137.969017
 30
0.0
 11
188.364976
 21
147.969017
 31
0.0
  0
LINE
  5
1E2
100
AcDbEntity
  8
0
  6
HIDDEN
 62
   174
100
AcDbLine
 10
92.444976
 20
157.969017
 30
0.0
 11
92.444976
 21
144.969017
 31
0.0
  0
LINE
  5
1E3
100
AcDbEntity
  8
0
  6
Continuous
 62
   174
100
AcDbLine
 10
92.444976
 20
170.969017
 30
0.0
 11
92.444976
 21
168.752899
 31
0.0
  0
LINE
  5
1E4
100
AcDbEntity
  8
0
  6
HIDDEN
 62
   174
100
AcDbLine
 10
132.536097
 20
145.969017
 30
0.0
 11
132.461109
 21
145.969017
 31
0.0
  0
LINE
  5
1E5
100
AcDbEntity
  8
0
  6
HIDDEN
 62
   174
100
AcDbLine
 10
77.444976
 20
165.977828
 30
0.0
 11
77.444976
 21
159.47829
 31
0.0
  0
LINE
  5
1E6
100
AcDbEntity
  8
0
  6
HIDDEN
 62
   174
100
AcDbLine
 10
137.944976
 20
133.969017
 30
0.0
 11
137.894976
 21
133.969017
 31
0.0
  0
LINE
  5
1E7
100
AcDbEntity
  8
0
  6
HIDDEN
 62
   174
100
AcDbLine
 10
91.944976
 20
117.980541
 30
0.0
 11
91.944976
 21
127.979878
 31
0.0
  0
LINE
  5
1E8
100
AcDbEntity
  8
0
  6
HIDDEN
 62
   174
100
AcDbLine
 10
80.444976
 20
159.47829
 30
0.0
 11
80.444976
 21
165.977828
 31
0.0
  0
LINE
  5
1E9
100
AcDbEntity
  8
0
  6
Continuous
 62
   174
100
AcDbLine
 10
76.744976
 20
161.400365
 30
0.0
 11
76.744976
 21
156.978827
 31
0.0
  0
LINE
  5
1EA
100
AcDbEntity
  8
0
  6
Continuous
 62
   174
100
AcDbLine
 10
73.611118
 20
157.016892
 30
0.0
 11
73.094316
 21
158.247187
 31
0.0
  0
LINE
  5
1EB
100
AcDbEntity
  8
0
  6
HIDDEN
 62
   174
100
AcDbLine
 10
76.744976
 20
161.547126
 30
0.0
 11
76.744976
 21
170.390908
 31
0.0
  0
LINE
  5
1EC
100
AcDbEntity
  8
0
  6
Continuous
 62
   174
100
AcDbLine
 10
84.244976
 20
136.582896
 30
0.0
 11
84.244976
 21
133.047617
 31
0.0
  0
LINE
  5
1ED
100
AcDbEntity
  8
0
  6
HIDDEN
 62
   174
100
AcDbLine
 10
135.683474
 20
145.969017
 30
0.0
 11
133.463146
 21
145.969017
 31
0.0
  0
ARC
  5
1EE
100
AcDbEntity
  8
0
  6
HIDDEN
 62
   174
100
AcDbCircle
 10
118.444976
 20
170.969017
 30
0.0
 40
3.0
100
AcDbArc
 50
0.0
 51
18.0
  0
LINE
  5
1EF
100
AcDbEntity
  8
0
  6
HIDDEN
 62
   174
100
AcDbLine
 10
108.76238
 20
173.919017
 30
0.0
 11
104.558128
 21
173.919017
 31
0.0
  0
LINE
  5
1F0
100
AcDbEntity
  8
0
  6
Continuous
 62
   174
100
AcDbLine
 10
121.944976
 20
144.969017
 30
0.0
 11
121.944976
 21
145.969017
 31
0.0
  0
LINE
  5
1F1
100
AcDbEntity
  8
0
  6
HIDDEN
 62
   174
100
AcDbLine
 10
84.244976
 20
130.472383
 30
0.0
 11
90.444976
 21
130.472383
 31
0.0
  0
LINE
  5
1F2
100
AcDbEntity
  8
0
  6
HIDDEN
 62
   174
100
AcDbLine
 10
121.463134
 20
170.969017
 30
0.0
 11
118.463184
 21
170.969017
 31
0.0
  0
LWPOLYLINE
  5
1F3
100
AcDbEntity
  8
0
  6
HIDDEN
 62
   174
100
AcDbPolyline
 90
        7
 70
   128
 10
73.637796
 20
170.390908
 10
73.271693
 20
168.887637
 10
73.043594
 20
167.413647
 10
72.966663
 20
165.969254
 10
73.04355
 20
164.524808
 10
73.271642
 20
163.050656
 10
73.637796
 20
161.547126
  0
LWPOLYLINE
  5
1F4
100
AcDbEntity
  8
0
  6
HIDDEN
 62
   174
100
AcDbPolyline
 90
        4
 70
   128
 10
72.944976
 20
158.81249
 10
73.078096
 20
158.204131
 10
73.311179
 20
157.593057
 10
73.609075
 20
157.018767
  0
LINE
  5
1F5
100
AcDbEntity
  8
0
  6
Continuous
 62
   174
100
AcDbLine
 10
90.444976
 20
129.476029
 30
0.0
 11
90.444976
 21
130.479765
 31
0.0
  0
LINE
  5
1F6
100
AcDbEntity
  8
0
  6
HIDDEN
 62
   174
100
AcDbLine
 10
135.963033
 20
145.969017
 30
0.0
 11
135.710878
 21
145.969017
 31
0.0
  0
LINE
  5
1F7
100
AcDbEntity
  8
0
  6
HIDDEN
 62
   174
100
AcDbLine
 10
118.444976
 20
170.969017
 30
0.0
 11
95.444976
 21
170.969017
 31
0.0
  0
ARC
  5
1F8
100
AcDbEntity
  8
0
  6
Continuous
 62
   174
100
AcDbCircle
 10
160.944976
 20
127.969017
 30
0.0
 40
10.0
100
AcDbArc
 50
-180.0
 51
0.0
  0
LINE
  5
1F9
100
AcDbEntity
  8
0
  6
Continuous
 62
   174
100
AcDbLine
 10
121.944976
 20
109.969017
 30
0.0
 11
121.944976
 21
116.969017
 31
0.0
  0
LINE
  5
1FA
100
AcDbEntity
  8
0
  6
Continuous
 62
   174
100
AcDbLine
 10
121.944976
 20
145.969017
 30
0.0
 11
137.944976
 21
145.969017
 31
0.0
  0
LINE
  5
1FB
100
AcDbEntity
  8
0
  6
Continuous
 62
   174
100
AcDbLine
 10
137.944976
 20
109.969017
 30
0.0
 11
137.944976
 21
145.969017
 31
0.0
  0
LINE
  5
1FC
100
AcDbEntity
  8
0
  6
HIDDEN
 62
   174
100
AcDbLine
 10
90.444976
 20
133.050612
 30
0.0
 11
90.444976
 21
136.584661
 31
0.0
  0
LINE
  5
1FD
100
AcDbEntity
  8
0
  6
Continuous
 62
   174
100
AcDbLine
 10
80.444976
 20
172.584005
 30
0.0
 11
80.444976
 21
165.977828
 31
0.0
  0
LINE
  5
1FE
100
AcDbEntity
  8
0
  6
Continuous
 62
   174
100
AcDbLine
 10
92.444976
 20
163.185135
 30
0.0
 11
92.444976
 21
144.969017
 31
0.0
  0
LWPOLYLINE
  5
1FF
100
AcDbEntity
  8
0
  6
Continuous
 62
   174
100
AcDbPolyline
 90
        6
 70
   128
 10
73.094316
 20
158.247187
 10
73.043571
 20
158.458203
 10
72.966668
 20
159.180451
 10
73.043586
 20
159.902691
 10
73.271687
 20
160.63971
 10
73.637796
 20
161.391357
  0
LINE
  5
200
100
AcDbEntity
  8
0
  6
HIDDEN
 62
   174
100
AcDbLine
 10
103.544976
 20
173.969017
 30
0.0
 11
103.945301
 21
173.969017
 31
0.0
  0
LINE
  5
201
100
AcDbEntity
  8
0
  6
Continuous
 62
   174
100
AcDbLine
 10
77.444976
 20
159.263947
 30
0.0
 11
77.444976
 21
165.977828
 31
0.0
  0
LINE
  5
202
100
AcDbEntity
  8
0
  6
Continuous
 62
   174
100
AcDbLine
 10
84.244976
 20
133.058252
 30
0.0
 11
84.244976
 21
130.479765
 31
0.0
  0
ARC
  5
203
100
AcDbEntity
  8
0
  6
Continuous
 62
   174
100
AcDbCircle
 10
160.944976
 20
127.969017
 30
0.0
 40
10.0
100
AcDbArc
 50
0.0
 51
180.0
  0
LINE
  5
204
100
AcDbEntity
  8
0
  6
HIDDEN
 62
   174
100
AcDbLine
 10
103.563064
 20
173.919017
 30
0.0
 11
106.963022
 21
173.919017
 31
0.0
  0
LINE
  5
205
100
AcDbEntity
  8
0
  6
HIDDEN
 62
   174
100
AcDbLine
 10
109.963184
 20
173.919017
 30
0.0
 11
104.985927
 21
173.919017
 31
0.0
  0
LWPOLYLINE
  5
206
100
AcDbEntity
  8
0
  6
Continuous
 62
   174
100
AcDbPolyline
 90
        4
 70
   128
 10
92.486936
 20
165.969017
 10
92.477941
 20
166.918
 10
92.457536
 20
167.856166
 10
92.444976
 20
168.752899
  0
LINE
  5
207
100
AcDbEntity
  8
0
  6
Continuous
 62
   174
100
AcDbLine
 10
137.944976
 20
145.969017
 30
0.0
 11
137.944976
 21
147.969017
 31
0.0
  0
LINE
  5
208
100
AcDbEntity
  8
0
  6
HIDDEN
 62
   174
100
AcDbLine
 10
135.486763
 20
145.969017
 30
0.0
 11
133.465058
 21
145.969017
 31
0.0
  0
LINE
  5
209
100
AcDbEntity
  8
0
  6
Continuous
 62
   174
100
AcDbLine
 10
72.944976
 20
165.077405
 30
0.0
 11
72.944976
 21
166.860628
 31
0.0
  0
LINE
  5
20A
100
AcDbEntity
  8
0
  6
HIDDEN
 62
   174
100
AcDbLine
 10
121.444976
 20
170.969017
 30
0.0
 11
121.444976
 21
144.969017
 31
0.0
  0
LINE
  5
20B
100
AcDbEntity
  8
0
  6
HIDDEN
 62
   174
100
AcDbLine
 10
90.444976
 20
125.472384
 30
0.0
 11
90.444976
 21
130.472383
 31
0.0
  0
LINE
  5
20C
100
AcDbEntity
  8
0
  6
Continuous
 62
   174
100
AcDbLine
 10
90.444976
 20
117.980541
 30
0.0
 11
90.444976
 21
118.2977
 31
0.0
  0
LINE
  5
20D
100
AcDbEntity
  8
0
  6
HIDDEN
 62
   174
100
AcDbLine
 10
121.463134
 20
144.969017
 30
0.0
 11
118.463184
 21
144.969017
 31
0.0
  0
LINE
  5
20E
100
AcDbEntity
  8
0
  6
Continuous
 62
   174
100
AcDbLine
 10
121.944976
 20
116.969017
 30
0.0
 11
121.944976
 21
144.969017
 31
0.0
  0
LINE
  5
20F
100
AcDbEntity
  8
0
  6
Continuous
 62
   174
100
AcDbLine
 10
80.444976
 20
173.97734
 30
0.0
 11
80.444976
 21
172.584005
 31
0.0
  0
LINE
  5
210
100
AcDbEntity
  8
0
  6
HIDDEN
 62
   174
100
AcDbLine
 10
90.444976
 20
119.356065
 30
0.0
 11
90.444976
 21
122.893083
 31
0.0
  0
LWPOLYLINE
  5
211
100
AcDbEntity
  8
0
  6
HIDDEN
 62
   174
100
AcDbPolyline
 90
        6
 70
   128
 10
95.444976
 20
173.969017
 10
94.53966
 20
173.829157
 10
93.731355
 20
173.431435
 10
93.069507
 20
172.801269
 10
92.617681
 20
171.972214
 10
92.444976
 20
170.969017
  0
LINE
  5
212
100
AcDbEntity
  8
0
  6
HIDDEN
 62
   174
100
AcDbLine
 10
84.244976
 20
136.584661
 30
0.0
 11
90.444976
 21
136.584661
 31
0.0
  0
LINE
  5
213
100
AcDbEntity
  8
0
  6
HIDDEN
 62
   174
100
AcDbLine
 10
135.66527
 20
145.919017
 30
0.0
 11
135.66527
 21
145.969017
 31
0.0
  0
LINE
  5
214
100
AcDbEntity
  8
0
  6
HIDDEN
 62
   174
100
AcDbLine
 10
130.439404
 20
145.969017
 30
0.0
 11
130.215289
 21
145.969017
 31
0.0
  0
LINE
  5
215
100
AcDbEntity
  8
0
  6
Continuous
 62
   174
100
AcDbLine
 10
121.444976
 20
144.969017
 30
0.0
 11
121.444976
 21
170.969017
 31
0.0
  0
LINE
  5
216
100
AcDbEntity
  8
0
  6
Continuous
 62
   174
100
AcDbLine
 10
84.244976
 20
119.365803
 30
0.0
 11
84.244976
 21
118.2977
 31
0.0
  0
LINE
  5
217
100
AcDbEntity
  8
0
  6
Continuous
 62
   174
100
AcDbLine
 10
84.244976
 20
122.890087
 30
0.0
 11
90.444976
 21
122.890087
 31
0.0
  0
ARC
  5
218
100
AcDbEntity
  8
0
  6
Continuous
 62
   174
100
AcDbCircle
 10
118.444976
 20
170.969017
 30
0.0
 40
3.0
100
AcDbArc
 50
-306.0
 51
-288.0
  0
LINE
  5
219
100
AcDbEntity
  8
0
  6
Continuous
 62
   174
100
AcDbLine
 10
118.444976
 20
170.977602
 30
0.0
 11
118.444976
 21
173.97734
 31
0.0
  0
LINE
  5
21A
100
AcDbEntity
  8
0
  6
Continuous
 62
   174
100
AcDbLine
 10
137.944976
 20
147.969017
 30
0.0
 11
207.944976
 21
147.969017
 31
0.0
  0
LWPOLYLINE
  5
21B
100
AcDbEntity
  8
0
  6
Continuous
 62
   174
100
AcDbPolyline
 90
        4
 70
   128
 10
73.637796
 20
161.391357
 10
73.309895
 20
162.644172
 10
73.077142
 20
163.866993
 10
72.944976
 20
165.077405
  0
ARC
  5
21C
100
AcDbEntity
  8
0
  6
Continuous
 62
   174
100
AcDbCircle
 10
172.944976
 20
111.969017
 30
0.0
 40
2.75
100
AcDbArc
 50
-180.0
 51
0.0
  0
LINE
  5
21D
100
AcDbEntity
  8
0
  6
HIDDEN
 62
   174
100
AcDbLine
 10
84.244976
 20
133.050612
 30
0.0
 11
90.444976
 21
133.050612
 31
0.0
  0
LINE
  5
21E
100
AcDbEntity
  8
0
  6
Continuous
 62
   174
100
AcDbLine
 10
76.744976
 20
174.976828
 30
0.0
 11
76.744976
 21
170.55529
 31
0.0
  0
LINE
  5
21F
100
AcDbEntity
  8
0
  6
Continuous
 62
   174
100
AcDbLine
 10
90.444976
 20
137.969017
 30
0.0
 11
91.944976
 21
137.969017
 31
0.0
  0
LINE
  5
220
100
AcDbEntity
  8
0
  6
HIDDEN
 62
   174
100
AcDbLine
 10
95.444976
 20
170.977602
 30
0.0
 11
95.444976
 21
173.97734
 31
0.0
  0
LINE
  5
221
100
AcDbEntity
  8
0
  6
Continuous
 62
   174
100
AcDbLine
 10
84.244976
 20
130.469017
 30
0.0
 11
90.444976
 21
130.469017
 31
0.0
  0
LINE
  5
222
100
AcDbEntity
  8
0
  6
HIDDEN
 62
   174
100
AcDbLine
 10
92.444976
 20
157.978315
 30
0.0
 11
92.444976
 21
163.194132
 31
0.0
  0
LINE
  5
223
100
AcDbEntity
  8
0
  6
Continuous
 62
   174
100
AcDbLine
 10
207.944976
 20
121.565893
 30
0.0
 11
208.944976
 21
121.565893
 31
0.0
  0
LINE
  5
224
100
AcDbEntity
  8
0
  6
HIDDEN
 62
   174
100
AcDbLine
 10
80.444976
 20
172.477365
 30
0.0
 11
80.444976
 21
165.977828
 31
0.0
  0
LWPOLYLINE
  5
225
100
AcDbEntity
  8
0
  6
HIDDEN
 62
   174
100
AcDbPolyline
 90
        4
 70
   128
 10
92.444976
 20
168.752899
 10
92.457536
 20
167.856164
 10
92.477941
 20
166.91801
 10
92.486936
 20
165.969017
  0
LINE
  5
226
100
AcDbEntity
  8
0
  6
Continuous
 62
   174
100
AcDbLine
 10
84.244976
 20
122.890087
 30
0.0
 11
84.244976
 21
119.354298
 31
0.0
  0
LINE
  5
227
100
AcDbEntity
  8
0
  6
Continuous
 62
   174
100
AcDbLine
 10
90.444976
 20
133.058252
 30
0.0
 11
90.444976
 21
136.593316
 31
0.0
  0
LINE
  5
228
100
AcDbEntity
  8
0
  6
Continuous
 62
   174
100
AcDbLine
 10
91.944976
 20
116.969017
 30
0.0
 11
121.944976
 21
116.969017
 31
0.0
  0
LINE
  5
229
100
AcDbEntity
  8
0
  6
HIDDEN
 62
   174
100
AcDbLine
 10
118.444976
 20
170.977602
 30
0.0
 11
118.444976
 21
173.97734
 31
0.0
  0
LINE
  5
22A
100
AcDbEntity
  8
0
  6
HIDDEN
 62
   174
100
AcDbLine
 10
76.744976
 20
161.547126
 30
0.0
 11
76.744976
 21
156.969466
 31
0.0
  0
LINE
  5
22B
100
AcDbEntity
  8
0
  6
HIDDEN
 62
   174
100
AcDbLine
 10
92.444976
 20
170.977602
 30
0.0
 11
92.444976
 21
168.761523
 31
0.0
  0
LINE
  5
22C
100
AcDbEntity
  8
0
  6
HIDDEN
 62
   174
100
AcDbLine
 10
95.463072
 20
170.969017
 30
0.0
 11
92.463122
 21
170.969017
 31
0.0
  0
LINE
  5
22D
100
AcDbEntity
  8
0
  6
HIDDEN
 62
   174
100
AcDbLine
 10
118.444976
 20
144.969017
 30
0.0
 11
118.444976
 21
170.969017
 31
0.0
  0
LINE
  5
22E
100
AcDbEntity
  8
0
  6
Continuous
 62
   174
100
AcDbLine
 10
95.444976
 20
170.977602
 30
0.0
 11
95.444976
 21
173.97734
 31
0.0
  0
LINE
  5
22F
100
AcDbEntity
  8
0
  6
HIDDEN
 62
   174
100
AcDbLine
 10
76.744976
 20
161.547126
 30
0.0
 11
73.637796
 21
161.547126
 31
0.0
  0
LINE
  5
230
100
AcDbEntity
  8
0
  6
HIDDEN
 62
   174
100
AcDbLine
 10
76.744976
 20
170.390908
 30
0.0
 11
73.637796
 21
170.390908
 31
0.0
  0
LINE
  5
231
100
AcDbEntity
  8
0
  6
Continuous
 62
   174
100
AcDbLine
 10
90.444976
 20
117.969017
 30
0.0
 11
91.944976
 21
117.969017
 31
0.0
  0
ARC
  5
232
100
AcDbEntity
  8
0
  6
Continuous
 62
   174
100
AcDbCircle
 10
118.444976
 20
170.969017
 30
0.0
 40
3.0
100
AcDbArc
 50
-342.0
 51
-324.0
  0
LINE
  5
233
100
AcDbEntity
  8
0
  6
HIDDEN
 62
   174
100
AcDbLine
 10
104.57636
 20
173.919017
 30
0.0
 11
103.963072
 21
173.919017
 31
0.0
  0
LINE
  5
234
100
AcDbEntity
  8
0
  6
Continuous
 62
   174
100
AcDbLine
 10
118.444976
 20
170.969017
 30
0.0
 11
118.444976
 21
144.969017
 31
0.0
  0
LINE
  5
235
100
AcDbEntity
  8
0
  6
Continuous
 62
   174
100
AcDbLine
 10
73.094487
 20
173.691483
 30
0.0
 11
73.611142
 21
174.921184
 31
0.0
  0
LINE
  5
236
100
AcDbEntity
  8
0
  6
HIDDEN
 62
   174
100
AcDbLine
 10
92.463122
 20
144.969017
 30
0.0
 11
95.463072
 21
144.969017
 31
0.0
  0
LINE
  5
237
100
AcDbEntity
  8
0
  6
HIDDEN
 62
   174
100
AcDbLine
 10
129.944976
 20
145.919017
 30
0.0
 11
129.944976
 21
145.969017
 31
0.0
  0
ARC
  5
238
100
AcDbEntity
  8
0
  6
Continuous
 62
   174
100
AcDbCircle
 10
118.444976
 20
170.969017
 30
0.0
 40
3.0
100
AcDbArc
 50
0.0
 51
90.0
  0
LINE
  5
239
100
AcDbEntity
  8
0
  6
HIDDEN
 62
   174
100
AcDbLine
 10
92.444976
 20
168.752899
 30
0.0
 11
92.444976
 21
170.969017
 31
0.0
  0
LINE
  5
23A
100
AcDbEntity
  8
0
  6
Continuous
 62
   174
100
AcDbLine
 10
137.944976
 20
145.969017
 30
0.0
 11
137.944976
 21
109.969017
 31
0.0
  0
LINE
  5
23B
100
AcDbEntity
  8
0
  6
Continuous
 62
   174
100
AcDbLine
 10
72.944976
 20
173.777442
 30
0.0
 11
72.944976
 21
166.8694
 31
0.0
  0
LINE
  5
23C
100
AcDbEntity
  8
0
  6
Continuous
 62
   174
100
AcDbLine
 10
84.244976
 20
137.651153
 30
0.0
 11
90.444976
 21
137.651153
 31
0.0
  0
ARC
  5
23D
100
AcDbEntity
  8
0
  6
HIDDEN
 62
   174
100
AcDbCircle
 10
95.444976
 20
170.969017
 30
0.0
 40
3.0
100
AcDbArc
 50
90.0
 51
180.0
  0
LINE
  5
23E
100
AcDbEntity
  8
0
  6
Continuous
 62
   174
100
AcDbLine
 10
207.944976
 20
147.969017
 30
0.0
 11
207.944976
 21
107.969017
 31
0.0
  0
LINE
  5
23F
100
AcDbEntity
  8
0
  6
Continuous
 62
   174
100
AcDbLine
 10
80.444976
 20
159.371225
 30
0.0
 11
80.444976
 21
157.978315
 31
0.0
  0
LWPOLYLINE
  5
240
100
AcDbEntity
  8
0
  6
HIDDEN
 62
   174
100
AcDbPolyline
 90
        4
 70
   128
 10
72.944976
 20
172.233932
 10
73.078096
 20
171.625573
 10
73.311179
 20
171.014498
 10
73.637796
 20
170.390908
  0
LINE
  5
241
100
AcDbEntity
  8
0
  6
Continuous
 62
   174
100
AcDbLine
 10
84.244976
 20
136.582896
 30
0.0
 11
90.444976
 21
136.582896
 31
0.0
  0
LINE
  5
242
100
AcDbEntity
  8
0
  6
Continuous
 62
   174
100
AcDbLine
 10
207.944976
 20
121.565893
 30
0.0
 11
208.944976
 21
121.565893
 31
0.0
  0
LINE
  5
243
100
AcDbEntity
  8
0
  6
Continuous
 62
   174
100
AcDbLine
 10
121.444976
 20
170.969017
 30
0.0
 11
121.444976
 21
144.969017
 31
0.0
  0
LINE
  5
244
100
AcDbEntity
  8
0
  6
HIDDEN
 62
   174
100
AcDbLine
 10
130.224682
 20
145.919017
 30
0.0
 11
130.224682
 21
145.969017
 31
0.0
  0
LINE
  5
245
100
AcDbEntity
  8
0
  6
HIDDEN
 62
   174
100
AcDbLine
 10
130.215289
 20
145.969017
 30
0.0
 11
129.963133
 21
145.969017
 31
0.0
  0
LINE
  5
246
100
AcDbEntity
  8
0
  6
Continuous
 62
   174
100
AcDbLine
 10
208.944976
 20
121.577209
 30
0.0
 11
208.944976
 21
134.382759
 31
0.0
  0
LINE
  5
247
100
AcDbEntity
  8
0
  6
Continuous
 62
   174
100
AcDbLine
 10
137.944976
 20
107.969017
 30
0.0
 11
137.944976
 21
109.969017
 31
0.0
  0
ARC
  5
248
100
AcDbEntity
  8
0
  6
Continuous
 62
   174
100
AcDbCircle
 10
172.944976
 20
111.969017
 30
0.0
 40
2.75
100
AcDbArc
 50
0.0
 51
180.0
  0
LINE
  5
249
100
AcDbEntity
  8
0
  6
HIDDEN
 62
   174
100
AcDbLine
 10
132.461109
 20
145.969017
 30
0.0
 11
130.439404
 21
145.969017
 31
0.0
  0
LINE
  5
24A
100
AcDbEntity
  8
0
  6
Continuous
 62
   174
100
AcDbLine
 10
84.244976
 20
137.661631
 30
0.0
 11
84.244976
 21
136.593316
 31
0.0
  0
LWPOLYLINE
  5
24B
100
AcDbEntity
  8
0
  6
Continuous
 62
   174
100
AcDbPolyline
 90
        4
 70
   128
 10
72.944976
 20
166.860628
 10
73.078096
 20
168.077343
 10
73.311181
 20
169.299507
 10
73.637796
 20
170.546677
  0
LINE
  5
24C
100
AcDbEntity
  8
0
  6
Continuous
 62
   174
100
AcDbLine
 10
73.610355
 20
174.919774
 30
0.0
 11
73.637796
 21
174.968567
 31
0.0
  0
LINE
  5
24D
100
AcDbEntity
  8
0
  6
Continuous
 62
   174
100
AcDbLine
 10
90.444976
 20
125.480203
 30
0.0
 11
90.444976
 21
129.476029
 31
0.0
  0
LINE
  5
24E
100
AcDbEntity
  8
0
  6
Continuous
 62
   174
100
AcDbLine
 10
91.944976
 20
116.969017
 30
0.0
 11
91.944976
 21
144.969017
 31
0.0
  0
LINE
  5
24F
100
AcDbEntity
  8
0
  6
HIDDEN
 62
   174
100
AcDbLine
 10
106.963022
 20
173.919017
 30
0.0
 11
110.363191
 21
173.919017
 31
0.0
  0
ARC
  5
250
100
AcDbEntity
  8
0
  6
Continuous
 62
   174
100
AcDbCircle
 10
118.444976
 20
170.969017
 30
0.0
 40
3.0
100
AcDbArc
 50
-324.0
 51
-306.0
  0
LINE
  5
251
100
AcDbEntity
  8
0
  6
Continuous
 62
   174
100
AcDbLine
 10
121.463134
 20
170.969017
 30
0.0
 11
118.463184
 21
170.969017
 31
0.0
  0
LINE
  5
252
100
AcDbEntity
  8
0
  6
HIDDEN
 62
   174
100
AcDbLine
 10
137.944976
 20
133.979565
 30
0.0
 11
137.944976
 21
121.980403
 31
0.0
  0
ARC
  5
253
100
AcDbEntity
  8
0
  6
Continuous
 62
   174
100
AcDbCircle
 10
160.944976
 20
111.969017
 30
0.0
 40
2.5
100
AcDbArc
 50
-360.0
 51
-180.0
  0
ARC
  5
254
100
AcDbEntity
  8
0
  6
Continuous
 62
   174
100
AcDbCircle
 10
184.944976
 20
143.969017
 30
0.0
 40
2.5
100
AcDbArc
 50
-180.0
 51
0.0
  0
LINE
  5
255
100
AcDbEntity
  8
0
  6
Continuous
 62
   174
100
AcDbLine
 10
84.244976
 20
125.480203
 30
0.0
 11
84.244976
 21
122.901291
 31
0.0
  0
LINE
  5
256
100
AcDbEntity
  8
0
  6
Continuous
 62
   174
100
AcDbLine
 10
84.244976
 20
119.354298
 30
0.0
 11
90.444976
 21
119.354298
 31
0.0
  0
ARC
  5
257
100
AcDbEntity
  8
0
  6
Continuous
 62
   174
100
AcDbCircle
 10
95.444976
 20
170.969017
 30
0.0
 40
3.0
100
AcDbArc
 50
-270.0
 51
-180.0
  0
LINE
  5
258
100
AcDbEntity
  8
0
  6
HIDDEN
 62
   174
100
AcDbLine
 10
108.76238
 20
173.969017
 30
0.0
 11
109.201244
 21
173.969017
 31
0.0
  0
LINE
  5
259
100
AcDbEntity
  8
0
  6
Continuous
 62
   174
100
AcDbLine
 10
90.444976
 20
119.365803
 30
0.0
 11
90.444976
 21
122.901291
 31
0.0
  0
LINE
  5
25A
100
AcDbEntity
  8
0
  6
Continuous
 62
   174
100
AcDbLine
 10
121.944976
 20
144.969017
 30
0.0
 11
91.944976
 21
144.969017
 31
0.0
  0
LINE
  5
25B
100
AcDbEntity
  8
0
  6
Continuous
 62
   174
100
AcDbLine
 10
207.944976
 20
134.372141
 30
0.0
 11
208.944976
 21
134.372141
 31
0.0
  0
LINE
  5
25C
100
AcDbEntity
  8
0
  6
Continuous
 62
   174
100
AcDbLine
 10
137.944976
 20
109.969017
 30
0.0
 11
121.944976
 21
109.969017
 31
0.0
  0
LINE
  5
25D
100
AcDbEntity
  8
0
  6
Continuous
 62
   174
100
AcDbLine
 10
95.444976
 20
170.969017
 30
0.0
 11
95.444976
 21
144.969017
 31
0.0
  0
LINE
  5
25E
100
AcDbEntity
  8
0
  6
HIDDEN
 62
   174
100
AcDbLine
 10
133.390069
 20
145.969017
 30
0.0
 11
132.536097
 21
145.969017
 31
0.0
  0
LINE
  5
25F
100
AcDbEntity
  8
0
  6
HIDDEN
 62
   174
100
AcDbLine
 10
137.944976
 20
121.969017
 30
0.0
 11
137.894976
 21
121.969017
 31
0.0
  0
LINE
  5
260
100
AcDbEntity
  8
0
  6
Continuous
 62
   174
100
AcDbLine
 10
77.444976
 20
172.692133
 30
0.0
 11
77.444976
 21
174.977252
 31
0.0
  0
LINE
  5
261
100
AcDbEntity
  8
0
  6
HIDDEN
 62
   174
100
AcDbLine
 10
95.444976
 20
173.969017
 30
0.0
 11
103.544976
 21
173.969017
 31
0.0
  0
LINE
  5
262
100
AcDbEntity
  8
0
  6
Continuous
 62
   174
100
AcDbLine
 10
95.463072
 20
170.969017
 30
0.0
 11
92.463122
 21
170.969017
 31
0.0
  0
LINE
  5
263
100
AcDbEntity
  8
0
  6
HIDDEN
 62
   174
100
AcDbLine
 10
103.945301
 20
173.969017
 30
0.0
 11
104.967793
 21
173.969017
 31
0.0
  0
LINE
  5
264
100
AcDbEntity
  8
0
  6
HIDDEN
 62
   174
100
AcDbLine
 10
132.444976
 20
145.969017
 30
0.0
 11
132.444976
 21
145.919017
 31
0.0
  0
LINE
  5
265
100
AcDbEntity
  8
0
  6
HIDDEN
 62
   174
100
AcDbLine
 10
91.944976
 20
127.979878
 30
0.0
 11
91.944976
 21
137.979428
 31
0.0
  0
LINE
  5
266
100
AcDbEntity
  8
0
  6
HIDDEN
 62
   174
100
AcDbLine
 10
84.244976
 20
119.356065
 30
0.0
 11
90.444976
 21
119.356065
 31
0.0
  0
LINE
  5
267
100
AcDbEntity
  8
0
  6
Continuous
 62
   174
100
AcDbLine
 10
84.244976
 20
133.047617
 30
0.0
 11
90.444976
 21
133.047617
 31
0.0
  0
LINE
  5
268
100
AcDbEntity
  8
0
  6
HIDDEN
 62
   174
100
AcDbLine
 10
129.963133
 20
145.919017
 30
0.0
 11
135.963033
 21
145.919017
 31
0.0
  0
LINE
  5
269
100
AcDbEntity
  8
0
  6
Continuous
 62
   174
100
AcDbLine
 10
207.944976
 20
107.969017
 30
0.0
 11
137.944976
 21
107.969017
 31
0.0
  0
ARC
  5
26A
100
AcDbEntity
  8
0
  6
Continuous
 62
   174
100
AcDbCircle
 10
184.944976
 20
143.969017
 30
0.0
 40
2.5
100
AcDbArc
 50
-360.0
 51
-180.0
  0
LINE
  5
26B
100
AcDbEntity
  8
0
  6
HIDDEN
 62
   174
100
AcDbLine
 10
84.244976
 20
125.472384
 30
0.0
 11
90.444976
 21
125.472384
 31
0.0
  0
LINE
  5
26C
100
AcDbEntity
  8
0
  6
HIDDEN
 62
   174
100
AcDbLine
 10
109.201244
 20
173.969017
 30
0.0
 11
109.944976
 21
173.969017
 31
0.0
  0
LINE
  5
26D
100
AcDbEntity
  8
0
  6
HIDDEN
 62
   174
100
AcDbLine
 10
133.465058
 20
145.969017
 30
0.0
 11
133.390069
 21
145.969017
 31
0.0
  0
LINE
  5
26E
100
AcDbEntity
  8
0
  6
HIDDEN
 62
   174
100
AcDbLine
 10
73.637796
 20
174.968567
 30
0.0
 11
73.608944
 21
174.919044
 31
0.0
  0
LINE
  5
26F
100
AcDbEntity
  8
0
  6
Continuous
 62
   174
100
AcDbLine
 10
95.444976
 20
170.969017
 30
0.0
 11
118.444976
 21
170.969017
 31
0.0
  0
LWPOLYLINE
  5
270
100
AcDbEntity
  8
0
  6
HIDDEN
 62
   174
100
AcDbPolyline
 90
        4
 70
   128
 10
73.637796
 20
161.547126
 10
73.309895
 20
160.920719
 10
73.077141
 20
160.309306
 10
72.944976
 20
159.704102
  0
LINE
  5
271
100
AcDbEntity
  8
0
  6
Continuous
 62
   174
100
AcDbLine
 10
84.244976
 20
118.286236
 30
0.0
 11
90.444976
 21
118.286236
 31
0.0
  0
LINE
  5
272
100
AcDbEntity
  8
0
  6
HIDDEN
 62
   174
100
AcDbLine
 10
104.967793
 20
173.969017
 30
0.0
 11
106.944976
 21
173.969017
 31
0.0
  0
LINE
  5
273
100
AcDbEntity
  8
0
  6
Continuous
 62
   174
100
AcDbLine
 10
118.444976
 20
173.969017
 30
0.0
 11
95.444976
 21
173.969017
 31
0.0
  0
LINE
  5
274
100
AcDbEntity
  8
0
  6
Continuous
 62
   174
100
AcDbLine
 10
76.744976
 20
170.55529
 30
0.0
 11
76.744976
 21
165.977828
 31
0.0
  0
LINE
  5
275
100
AcDbEntity
  8
0
  6
HIDDEN
 62
   174
100
AcDbLine
 10
133.444976
 20
145.969017
 30
0.0
 11
133.444976
 21
145.919017
 31
0.0
  0
LINE
  5
276
100
AcDbEntity
  8
0
  6
Continuous
 62
   174
100
AcDbLine
 10
77.444976
 20
156.978403
 30
0.0
 11
77.444976
 21
159.263947
 31
0.0
  0
LINE
  5
277
100
AcDbEntity
  8
0
  6
Continuous
 62
   174
100
AcDbLine
 10
76.744976
 20
156.969466
 30
0.0
 11
73.637796
 21
156.969466
 31
0.0
  0
LINE
  5
278
100
AcDbEntity
  8
0
  6
HIDDEN
 62
   174
100
AcDbLine
 10
132.463021
 20
145.969017
 30
0.0
 11
130.242905
 21
145.969017
 31
0.0
  0
LINE
  5
279
100
AcDbEntity
  8
0
  6
Continuous
 62
   174
100
AcDbLine
 10
207.944976
 20
134.372141
 30
0.0
 11
208.944976
 21
134.372141
 31
0.0
  0
LINE
  5
27A
100
AcDbEntity
  8
0
  6
Continuous
 62
   174
100
AcDbLine
 10
77.444976
 20
165.977828
 30
0.0
 11
77.444976
 21
172.692133
 31
0.0
  0
LINE
  5
27B
100
AcDbEntity
  8
0
  6
Continuous
 62
   174
100
AcDbLine
 10
73.637796
 20
170.546677
 30
0.0
 11
76.744976
 21
170.546677
 31
0.0
  0
LINE
  5
27C
100
AcDbEntity
  8
0
  6
Continuous
 62
   174
100
AcDbLine
 10
84.244976
 20
130.469017
 30
0.0
 11
84.244976
 21
125.469017
 31
0.0
  0
LINE
  5
27D
100
AcDbEntity
  8
0
  6
HIDDEN
 62
   174
100
AcDbLine
 10
95.444976
 20
144.969017
 30
0.0
 11
95.444976
 21
170.969017
 31
0.0
  0
LINE
  5
27E
100
AcDbEntity
  8
0
  6
HIDDEN
 62
   174
100
AcDbLine
 10
109.944976
 20
173.969017
 30
0.0
 11
110.344976
 21
173.969017
 31
0.0
  0
LINE
  5
27F
100
AcDbEntity
  8
0
  6
HIDDEN
 62
   174
100
AcDbLine
 10
106.944976
 20
173.969017
 30
0.0
 11
108.76238
 21
173.969017
 31
0.0
  0
ARC
  5
280
100
AcDbEntity
  8
0
  6
Continuous
 62
   174
100
AcDbCircle
 10
160.944976
 20
111.969017
 30
0.0
 40
2.5
100
AcDbArc
 50
-180.0
 51
0.0
  0
LINE
  5
281
100
AcDbEntity
  8
0
  6
HIDDEN
 62
   174
100
AcDbLine
 10
73.608989
 20
157.018916
 30
0.0
 11
73.637796
 21
156.969466
 31
0.0
  0
LINE
  5
282
100
AcDbEntity
  8
0
  6
HIDDEN
 62
   174
100
AcDbLine
 10
137.944976
 20
133.969017
 30
0.0
 11
137.894976
 21
133.969017
 31
0.0
  0
LINE
  5
283
100
AcDbEntity
  8
0
  6
Continuous
 62
   174
100
AcDbLine
 10
84.244976
 20
125.469017
 30
0.0
 11
90.444976
 21
125.469017
 31
0.0
  0
LWPOLYLINE
  5
284
100
AcDbEntity
  8
0
  6
Continuous
 62
   174
100
AcDbPolyline
 90
        6
 70
   128
 10
73.637796
 20
170.546677
 10
73.271669
 20
171.298367
 10
73.043571
 20
172.035414
 10
72.966668
 20
172.757662
 10
73.043586
 20
173.479901
 10
73.094487
 20
173.691483
  0
LINE
  5
285
100
AcDbEntity
  8
0
  6
HIDDEN
 62
   174
100
AcDbLine
 10
110.344976
 20
173.969017
 30
0.0
 11
118.444976
 21
173.969017
 31
0.0
  0
LINE
  5
286
100
AcDbEntity
  8
0
  6
HIDDEN
 62
   174
100
AcDbLine
 10
132.463021
 20
145.919017
 30
0.0
 11
130.242905
 21
145.919017
 31
0.0
  0
ARC
  5
287
100
AcDbEntity
  8
0
  6
Continuous
 62
   174
100
AcDbCircle
 10
184.944976
 20
127.969017
 30
0.0
 40
10.0
100
AcDbArc
 50
-180.0
 51
0.0
  0
LINE
  5
288
100
AcDbEntity
  8
0
  6
Continuous
 62
   174
100
AcDbLine
 10
76.744976
 20
165.977828
 30
0.0
 11
76.744976
 21
161.400365
 31
0.0
  0
LINE
  5
289
100
AcDbEntity
  8
0
  6
Continuous
 62
   174
100
AcDbLine
 10
76.744976
 20
174.968567
 30
0.0
 11
73.637796
 21
174.968567
 31
0.0
  0
LWPOLYLINE
  5
28A
100
AcDbEntity
  8
0
  6
HIDDEN
 62
   174
100
AcDbPolyline
 90
        4
 70
   128
 10
92.444976
 20
163.185135
 10
92.457535
 20
164.081836
 10
92.47794
 20
165.01999
 10
92.486936
 20
165.969017
  0
LWPOLYLINE
  5
28B
100
AcDbEntity
  8
0
  6
Continuous
 62
   174
100
AcDbPolyline
 90
        4
 70
   128
 10
92.486936
 20
165.969017
 10
92.477941
 20
165.02001
 10
92.457535
 20
164.081844
 10
92.444976
 20
163.185135
  0
LINE
  5
28C
100
AcDbEntity
  8
0
  6
Continuous
 62
   174
100
AcDbLine
 10
90.444976
 20
137.661631
 30
0.0
 11
90.444976
 21
137.979428
 31
0.0
  0
LINE
  5
28D
100
AcDbEntity
  8
0
  6
HIDDEN
 62
   174
100
AcDbLine
 10
118.444976
 20
144.969017
 30
0.0
 11
95.444976
 21
144.969017
 31
0.0
  0
LINE
  5
28E
100
AcDbEntity
  8
0
  6
Continuous
 62
   174
100
AcDbLine
 10
121.944976
 20
144.969017
 30
0.0
 11
121.944976
 21
116.969017
 31
0.0
  0
LINE
  5
28F
100
AcDbEntity
  8
0
  6
Continuous
 62
   174
100
AcDbLine
 10
72.944976
 20
165.086255
 30
0.0
 11
72.944976
 21
158.178213
 31
0.0
  0
LWPOLYLINE
  5
290
100
AcDbEntity
  8
0
  6
HIDDEN
 62
   174
100
AcDbPolyline
 90
        4
 70
   128
 10
73.609035
 20
174.919197
 10
73.309895
 20
174.34216
 10
73.077141
 20
173.730747
 10
72.944976
 20
173.125543
  0
LINE
  5
291
100
AcDbEntity
  8
0
  6
HIDDEN
 62
   174
100
AcDbLine
 10
84.244976
 20
122.893083
 30
0.0
 11
90.444976
 21
122.893083
 31
0.0
  0
LINE
  5
292
100
AcDbEntity
  8
0
  6
HIDDEN
 62
   174
100
AcDbLine
 10
76.744976
 20
174.968567
 30
0.0
 11
76.744976
 21
170.390908
 31
0.0
  0
LINE
  5
293
100
AcDbEntity
  8
0
  6
HIDDEN
 62
   174
100
AcDbLine
 10
135.944976
 20
145.919017
 30
0.0
 11
135.944976
 21
145.969017
 31
0.0
  0
LINE
  5
294
100
AcDbEntity
  8
0
  6
HIDDEN
 62
   174
100
AcDbLine
 10
135.944976
 20
145.919017
 30
0.0
 11
135.944976
 21
145.969017
 31
0.0
  0
ARC
  5
295
100
AcDbEntity
  8
0
  6
HIDDEN
 62
   174
100
AcDbCircle
 10
118.444976
 20
170.969017
 30
0.0
 40
3.0
100
AcDbArc
 50
-288.0
 51
-270.0
  0
LINE
  5
296
100
AcDbEntity
  8
0
  6
HIDDEN
 62
   174
100
AcDbLine
 10
77.444976
 20
172.477365
 30
0.0
 11
77.444976
 21
165.977828
 31
0.0
  0
LINE
  5
297
100
AcDbEntity
  8
0
  6
Continuous
 62
   174
100
AcDbLine
 10
80.444976
 20
165.977828
 30
0.0
 11
80.444976
 21
159.371225
 31
0.0
  0
LINE
  5
298
100
AcDbEntity
  8
0
  6
Continuous
 62
   174
100
AcDbLine
 10
76.744976
 20
161.391357
 30
0.0
 11
73.637796
 21
161.391357
 31
0.0
  0
LINE
  5
299
100
AcDbEntity
  8
0
  6
HIDDEN
 62
   174
100
AcDbLine
 10
207.944976
 20
121.577209
 30
0.0
 11
207.944976
 21
134.382759
 31
0.0
  0
LINE
  5
29A
100
AcDbEntity
  8
0
  6
HIDDEN
 62
   174
100
AcDbLine
 10
137.944976
 20
121.969017
 30
0.0
 11
137.894976
 21
121.969017
 31
0.0
  0
LINE
  5
29B
100
AcDbEntity
  8
0
  6
HIDDEN
 62
   174
100
AcDbLine
 10
135.710878
 20
145.969017
 30
0.0
 11
135.486763
 21
145.969017
 31
0.0
  0
ARC
  5
29C
100
AcDbEntity
  8
0
  6
Continuous
 62
   174
100
AcDbCircle
 10
184.944976
 20
127.969017
 30
0.0
 40
10.0
100
AcDbArc
 50
0.0
 51
180.0
  0
LINE
  5
29D
100
AcDbEntity
  8
0
  6
HIDDEN
 62
   174
100
AcDbLine
 10
135.683474
 20
145.919017
 30
0.0
 11
133.463146
 21
145.919017
 31
0.0
  0
LINE
  5
29E
100
AcDbEntity
  8
0
  6
Continuous
 62
   174
100
AcDbLine
 10
73.637796
 20
156.969466
 30
0.0
 11
73.610323
 21
157.018303
 31
0.0
  0
LINE
  5
29F
100
AcDbEntity
  8
0
  6
HIDDEN
 62
   174
100
AcDbLine
 10
129.944976
 20
145.919017
 30
0.0
 11
129.944976
 21
145.969017
 31
0.0
  0
ENDBLK
  5
2A0
100
AcDbEntity
  8
0
100
AcDbBlockEnd
  0
BLOCK
  5
2A3
100
AcDbEntity
  8
0
100
AcDbBlockBegin
  2
*B5
 70
     0
 10
0.0
 20
0.0
 30
0.0
  3
*B5
  1

  0
LINE
  5
2A4
100
AcDbEntity
  8
0
  6
Continuous
 62
   172
100
AcDbLine
 10
115.924093
 20
74.949303
 30
0.0
 11
107.515542
 21
74.949303
 31
0.0
  0
LINE
  5
2A5
100
AcDbEntity
  8
0
  6
Continuous
 62
   172
100
AcDbLine
 10
127.388538
 20
55.453597
 30
0.0
 11
115.924093
 21
74.949303
 31
0.0
  0
ENDBLK
  5
2A6
100
AcDbEntity
  8
0
100
AcDbBlockEnd
  0
BLOCK
  5
2A9
100
AcDbEntity
  8
0
100
AcDbBlockBegin
  2
*B6
 70
     0
 10
0.0
 20
0.0
 30
0.0
  3
*B6
  1

  0
LINE
  5
2AA
100
AcDbEntity
  8
0
  6
Continuous
 62
   172
100
AcDbLine
 10
114.176937
 20
76.772861
 30
0.0
 11
112.376937
 21
77.434256
 31
0.0
  0
LINE
  5
2AB
100
AcDbEntity
  8
0
  6
Continuous
 62
   172
100
AcDbLine
 10
114.176937
 20
76.772861
 30
0.0
 11
112.376937
 21
76.234256
 31
0.0
  0
LINE
  5
2AC
100
AcDbEntity
  8
0
  6
Continuous
 62
   172
100
AcDbLine
 10
112.976937
 20
76.772861
 30
0.0
 11
114.176937
 21
76.772861
 31
0.0
  0
LINE
  5
2AD
100
AcDbEntity
  8
0
  6
Continuous
 62
   172
100
AcDbLine
 10
114.176937
 20
87.095651
 30
0.0
 11
112.376937
 21
86.434256
 31
0.0
  0
LINE
  5
2AE
100
AcDbEntity
  8
0
  6
Continuous
 62
   172
100
AcDbLine
 10
114.176937
 20
87.095651
 30
0.0
 11
112.376937
 21
87.634256
 31
0.0
  0
LINE
  5
2AF
100
AcDbEntity
  8
0
  6
Continuous
 62
   172
100
AcDbLine
 10
112.976937
 20
87.095651
 30
0.0
 11
114.176937
 21
87.095651
 31
0.0
  0
ARC
  5
2B0
100
AcDbEntity
  8
0
  6
Continuous
 62
   172
100
AcDbCircle
 10
112.976937
 20
81.934256
 30
0.0
 40
5.161395
100
AcDbArc
 50
-270.0
 51
-90.0
  0
ENDBLK
  5
2B1
100
AcDbEntity
  8
0
100
AcDbBlockEnd
  0
BLOCK
  5
2B4
100
AcDbEntity
  8
0
100
AcDbBlockBegin
  2
*B7
 70
     0
 10
0.0
 20
0.0
 30
0.0
  3
*B7
  1

  0
ENDBLK
  5
2B5
100
AcDbEntity
  8
0
100
AcDbBlockEnd
  0
BLOCK
  5
2B7
100
AcDbEntity
  8
0
100
AcDbBlockBegin
  2
*B8
 70
     0
 10
0.0
 20
0.0
 30
0.0
  3
*B8
  1

  0
LINE
  5
2B8
100
AcDbEntity
  8
0
  6
Continuous
 62
   172
100
AcDbLine
 10
105.258097
 20
122.127083
 30
0.0
 11
87.566648
 21
92.04213
 31
0.0
  0
LINE
  5
2B9
100
AcDbEntity
  8
0
  6
Continuous
 62
   172
100
AcDbLine
 10
87.566648
 20
92.04213
 30
0.0
 11
79.158097
 21
92.04213
 31
0.0
  0
ENDBLK
  5
2BA
100
AcDbEntity
  8
0
100
AcDbBlockEnd
  0
BLOCK
  5
2BD
100
AcDbEntity
  8
0
100
AcDbBlockBegin
  2
*B9
 70
     0
 10
0.0
 20
0.0
 30
0.0
  3
*B9
  1

  0
LINE
  5
2BE
100
AcDbEntity
  8
0
  6
Continuous
 62
   172
100
AcDbLine
 10
85.819492
 20
93.865688
 30
0.0
 11
84.019492
 21
94.527083
 31
0.0
  0
LINE
  5
2BF
100
AcDbEntity
  8
0
  6
Continuous
 62
   172
100
AcDbLine
 10
85.819492
 20
93.865688
 30
0.0
 11
84.019492
 21
93.327083
 31
0.0
  0
LINE
  5
2C0
100
AcDbEntity
  8
0
  6
Continuous
 62
   172
100
AcDbLine
 10
84.619492
 20
93.865688
 30
0.0
 11
85.819492
 21
93.865688
 31
0.0
  0
LINE
  5
2C1
100
AcDbEntity
  8
0
  6
Continuous
 62
   172
100
AcDbLine
 10
85.819492
 20
104.188478
 30
0.0
 11
84.019492
 21
103.527083
 31
0.0
  0
LINE
  5
2C2
100
AcDbEntity
  8
0
  6
Continuous
 62
   172
100
AcDbLine
 10
85.819492
 20
104.188478
 30
0.0
 11
84.019492
 21
104.727083
 31
0.0
  0
LINE
  5
2C3
100
AcDbEntity
  8
0
  6
Continuous
 62
   172
100
AcDbLine
 10
84.619492
 20
104.188478
 30
0.0
 11
85.819492
 21
104.188478
 31
0.0
  0
ARC
  5
2C4
100
AcDbEntity
  8
0
  6
Continuous
 62
   172
100
AcDbCircle
 10
84.619492
 20
99.027083
 30
0.0
 40
5.161395
100
AcDbArc
 50
-270.0
 51
-90.0
  0
ENDBLK
  5
2C5
100
AcDbEntity
  8
0
100
AcDbBlockEnd
  0
BLOCK
  5
2C8
100
AcDbEntity
  8
0
100
AcDbBlockBegin
  2
*B10
 70
     0
 10
0.0
 20
0.0
 30
0.0
  3
*B10
  1

  0
ENDBLK
  5
2C9
100
AcDbEntity
  8
0
100
AcDbBlockEnd
  0
BLOCK
  5
2CB
100
AcDbEntity
  8
0
100
AcDbBlockBegin
  2
*B11
 70
     0
 10
0.0
 20
0.0
 30
0.0
  3
*B11
  1

  0
LINE
  5
2CC
100
AcDbEntity
  8
0
  6
Continuous
 62
     0
100
AcDbLine
 10
160.963182
 20
97.012756
 30
0.0
 11
184.962994
 21
97.012756
 31
0.0
  0
SOLID
  5
2CD
100
AcDbEntity
  8
0
  6
Continuous
 62
     0
100
AcDbTrace
 10
164.463195
 20
97.612661
 30
0.0
 11
160.963182
 21
97.012756
 31
0.0
 12
164.463195
 22
96.412851
 32
0.0
 13
164.463195
 23
96.412851
 33
0.0
  0
SOLID
  5
2CE
100
AcDbEntity
  8
0
  6
Continuous
 62
     0
100
AcDbTrace
 10
181.462982
 20
96.412851
 30
0.0
 11
184.962994
 21
97.012756
 31
0.0
 12
181.462982
 22
97.612661
 32
0.0
 13
181.462982
 23
97.612661
 33
0.0
  0
ENDBLK
  5
2CF
100
AcDbEntity
  8
0
100
AcDbBlockEnd
  0
BLOCK
  5
2D2
100
AcDbEntity
  8
0
100
AcDbBlockBegin
  2
*B12
 70
     0
 10
0.0
 20
0.0
 30
0.0
  3
*B12
  1

  0
LINE
  5
2D3
100
AcDbEntity
  8
0
  6
Continuous
 62
     0
100
AcDbLine
 10
184.962994
 20
97.012756
 30
0.0
 11
207.963106
 21
97.012756
 31
0.0
  0
SOLID
  5
2D4
100
AcDbEntity
  8
0
  6
Continuous
 62
     0
100
AcDbTrace
 10
188.463007
 20
97.612661
 30
0.0
 11
184.962994
 21
97.012756
 31
0.0
 12
188.463007
 22
96.412851
 32
0.0
 13
188.463007
 23
96.412851
 33
0.0
  0
SOLID
  5
2D5
100
AcDbEntity
  8
0
  6
Continuous
 62
     0
100
AcDbTrace
 10
204.463094
 20
96.412851
 30
0.0
 11
207.963106
 21
97.012756
 31
0.0
 12
204.463094
 22
97.612661
 32
0.0
 13
204.463094
 23
97.612661
 33
0.0
  0
ENDBLK
  5
2D6
100
AcDbEntity
  8
0
100
AcDbBlockEnd
  0
BLOCK
  5
2D9
100
AcDbEntity
  8
0
100
AcDbBlockBegin
  2
*B13
 70
     0
 10
0.0
 20
0.0
 30
0.0
  3
*B13
  1

  0
LINE
  5
2DA
100
AcDbEntity
  8
0
  6
Continuous
 62
     0
100
AcDbLine
 10
150.962995
 20
73.014006
 30
0.0
 11
137.963071
 21
73.014006
 31
0.0
  0
SOLID
  5
2DB
100
AcDbEntity
  8
0
  6
Continuous
 62
     0
100
AcDbTrace
 10
147.463195
 20
72.414101
 30
0.0
 11
150.962995
 21
73.014006
 31
0.0
 12
147.463195
 22
73.614123
 32
0.0
 13
147.463195
 23
73.614123
 33
0.0
  0
SOLID
  5
2DC
100
AcDbEntity
  8
0
  6
Continuous
 62
     0
100
AcDbTrace
 10
141.463083
 20
73.614123
 30
0.0
 11
137.963071
 21
73.014006
 31
0.0
 12
141.463083
 22
72.414101
 32
0.0
 13
141.463083
 23
72.414101
 33
0.0
  0
ENDBLK
  5
2DD
100
AcDbEntity
  8
0
100
AcDbBlockEnd
  0
BLOCK
  5
2E0
100
AcDbEntity
  8
0
100
AcDbBlockBegin
  2
*B14
 70
     0
 10
0.0
 20
0.0
 30
0.0
  3
*B14
  1

  0
LINE
  5
2E1
100
AcDbEntity
  8
0
  6
Continuous
 62
     0
100
AcDbLine
 10
150.962995
 20
73.014006
 30
0.0
 11
172.963195
 21
73.014006
 31
0.0
  0
SOLID
  5
2E2
100
AcDbEntity
  8
0
  6
Continuous
 62
     0
100
AcDbTrace
 10
154.463008
 20
73.614123
 30
0.0
 11
150.962995
 21
73.014006
 31
0.0
 12
154.463008
 22
72.414101
 32
0.0
 13
154.463008
 23
72.414101
 33
0.0
  0
SOLID
  5
2E3
100
AcDbEntity
  8
0
  6
Continuous
 62
     0
100
AcDbTrace
 10
169.463182
 20
72.414101
 30
0.0
 11
172.963195
 21
73.014006
 31
0.0
 12
169.463182
 22
73.614123
 32
0.0
 13
169.463182
 23
73.614123
 33
0.0
  0
ENDBLK
  5
2E4
100
AcDbEntity
  8
0
100
AcDbBlockEnd
  0
BLOCK
  5
2E7
100
AcDbEntity
  8
0
100
AcDbBlockBegin
  2
*B15
 70
     0
 10
0.0
 20
0.0
 30
0.0
  3
*B15
  1

  0
LINE
  5
2E8
100
AcDbEntity
  8
0
  6
Continuous
 62
     0
100
AcDbLine
 10
172.963195
 20
73.014006
 30
0.0
 11
194.963181
 21
73.014006
 31
0.0
  0
SOLID
  5
2E9
100
AcDbEntity
  8
0
  6
Continuous
 62
     0
100
AcDbTrace
 10
176.462995
 20
73.614123
 30
0.0
 11
172.963195
 21
73.014006
 31
0.0
 12
176.462995
 22
72.414101
 32
0.0
 13
176.462995
 23
72.414101
 33
0.0
  0
SOLID
  5
2EA
100
AcDbEntity
  8
0
  6
Continuous
 62
     0
100
AcDbTrace
 10
191.463169
 20
72.414101
 30
0.0
 11
194.963181
 21
73.014006
 31
0.0
 12
191.463169
 22
73.614123
 32
0.0
 13
191.463169
 23
73.614123
 33
0.0
  0
ENDBLK
  5
2EB
100
AcDbEntity
  8
0
100
AcDbBlockEnd
  0
BLOCK
  5
2EE
100
AcDbEntity
  8
0
100
AcDbBlockBegin
  2
*B16
 70
     0
 10
0.0
 20
0.0
 30
0.0
  3
*B16
  1

  0
LINE
  5
2EF
100
AcDbEntity
  8
0
  6
Continuous
 62
     0
100
AcDbLine
 10
194.963181
 20
73.014006
 30
0.0
 11
207.963106
 21
73.014006
 31
0.0
  0
SOLID
  5
2F0
100
AcDbEntity
  8
0
  6
Continuous
 62
     0
100
AcDbTrace
 10
198.462981
 20
73.614123
 30
0.0
 11
194.963181
 21
73.014006
 31
0.0
 12
198.462981
 22
72.414101
 32
0.0
 13
198.462981
 23
72.414101
 33
0.0
  0
SOLID
  5
2F1
100
AcDbEntity
  8
0
  6
Continuous
 62
     0
100
AcDbTrace
 10
204.463094
 20
72.414101
 30
0.0
 11
207.963106
 21
73.014006
 31
0.0
 12
204.463094
 22
73.614123
 32
0.0
 13
204.463094
 23
73.614123
 33
0.0
  0
ENDBLK
  5
2F2
100
AcDbEntity
  8
0
100
AcDbBlockEnd
  0
BLOCK
  5
2F5
100
AcDbEntity
  8
0
100
AcDbBlockBegin
  2
*B17
 70
     0
 10
0.0
 20
0.0
 30
0.0
  3
*B17
  1

  0
LINE
  5
2F6
100
AcDbEntity
  8
0
  6
Continuous
 62
     0
100
AcDbLine
 10
231.018025
 20
107.981203
 30
0.0
 11
231.018025
 21
147.978765
 31
0.0
  0
SOLID
  5
2F7
100
AcDbEntity
  8
0
  6
Continuous
 62
     0
100
AcDbTrace
 10
230.41812
 20
111.481003
 30
0.0
 11
231.018025
 21
107.981203
 31
0.0
 12
231.618143
 22
111.481003
 32
0.0
 13
231.618143
 23
111.481003
 33
0.0
  0
SOLID
  5
2F8
100
AcDbEntity
  8
0
  6
Continuous
 62
     0
100
AcDbTrace
 10
231.618143
 20
144.478965
 30
0.0
 11
231.018025
 21
147.978765
 31
0.0
 12
230.41812
 22
144.478965
 32
0.0
 13
230.41812
 23
144.478965
 33
0.0
  0
ENDBLK
  5
2F9
100
AcDbEntity
  8
0
100
AcDbBlockEnd
  0
BLOCK
  5
2FC
100
AcDbEntity
  8
0
100
AcDbBlockBegin
  2
*B18
 70
     0
 10
0.0
 20
0.0
 30
0.0
  3
*B18
  1

  0
LINE
  5
2FD
100
AcDbEntity
  8
0
  6
Continuous
 62
     0
100
AcDbLine
 10
220.018138
 20
143.979115
 30
0.0
 11
220.018138
 21
111.980853
 31
0.0
  0
SOLID
  5
2FE
100
AcDbEntity
  8
0
  6
Continuous
 62
     0
100
AcDbTrace
 10
220.618043
 20
140.479315
 30
0.0
 11
220.018138
 21
143.979115
 31
0.0
 12
219.41802
 22
140.479315
 32
0.0
 13
219.41802
 23
140.479315
 33
0.0
  0
SOLID
  5
2FF
100
AcDbEntity
  8
0
  6
Continuous
 62
     0
100
AcDbTrace
 10
219.41802
 20
115.480653
 30
0.0
 11
220.018138
 21
111.980853
 31
0.0
 12
220.618043
 22
115.480653
 32
0.0
 13
220.618043
 23
115.480653
 33
0.0
  0
ENDBLK
  5
300
100
AcDbEntity
  8
0
100
AcDbBlockEnd
  0
BLOCK
  5
303
100
AcDbEntity
  8
0
100
AcDbBlockBegin
  2
*B19
 70
     0
 10
0.0
 20
0.0
 30
0.0
  3
*B19
  1

  0
LINE
  5
304
100
AcDbEntity
  8
0
  6
Continuous
 62
     0
100
AcDbLine
 10
231.018025
 20
38.580435
 30
0.0
 11
231.018025
 21
60.57936
 31
0.0
  0
SOLID
  5
305
100
AcDbEntity
  8
0
  6
Continuous
 62
     0
100
AcDbTrace
 10
230.41812
 20
42.080235
 30
0.0
 11
231.018025
 21
38.580435
 31
0.0
 12
231.618143
 22
42.080235
 32
0.0
 13
231.618143
 23
42.080235
 33
0.0
  0
SOLID
  5
306
100
AcDbEntity
  8
0
  6
Continuous
 62
     0
100
AcDbTrace
 10
231.618143
 20
57.079348
 30
0.0
 11
231.018025
 21
60.57936
 31
0.0
 12
230.41812
 22
57.079348
 32
0.0
 13
230.41812
 23
57.079348
 33
0.0
  0
ENDBLK
  5
307
100
AcDbEntity
  8
0
100
AcDbBlockEnd
  0
BLOCK
  5
30A
100
AcDbEntity
  8
0
100
AcDbBlockBegin
  2
*B20
 70
     0
 10
0.0
 20
0.0
 30
0.0
  3
*B20
  1

  0
LINE
  5
30B
100
AcDbEntity
  8
0
  6
Continuous
 62
     0
100
AcDbLine
 10
220.018138
 20
51.711642
 30
0.0
 11
220.018138
 21
24.281283
 31
0.0
  0
SOLID
  5
30C
100
AcDbEntity
  8
0
  6
Continuous
 62
     0
100
AcDbTrace
 10
219.41802
 20
42.080235
 30
0.0
 11
220.018138
 21
38.580435
 31
0.0
 12
220.618043
 22
42.080235
 32
0.0
 13
220.618043
 23
42.080235
 33
0.0
  0
SOLID
  5
30D
100
AcDbEntity
  8
0
  6
Continuous
 62
     0
100
AcDbTrace
 10
220.618043
 20
27.781083
 30
0.0
 11
220.018138
 21
31.280883
 31
0.0
 12
219.41802
 22
27.781083
 32
0.0
 13
219.41802
 23
27.781083
 33
0.0
  0
ENDBLK
  5
30E
100
AcDbEntity
  8
0
100
AcDbBlockEnd
  0
BLOCK
  5
311
100
AcDbEntity
  8
0
100
AcDbBlockBegin
  2
*B21
 70
     0
 10
0.0
 20
0.0
 30
0.0
  3
*B21
  1

  0
LINE
  5
312
100
AcDbEntity
  8
0
  6
Continuous
 62
     0
100
AcDbLine
 10
137.963071
 20
97.012756
 30
0.0
 11
160.963182
 21
97.012756
 31
0.0
  0
SOLID
  5
313
100
AcDbEntity
  8
0
  6
Continuous
 62
     0
100
AcDbTrace
 10
141.463083
 20
97.612661
 30
0.0
 11
137.963071
 21
97.012756
 31
0.0
 12
141.463083
 22
96.412851
 32
0.0
 13
141.463083
 23
96.412851
 33
0.0
  0
SOLID
  5
314
100
AcDbEntity
  8
0
  6
Continuous
 62
     0
100
AcDbTrace
 10
157.46317
 20
96.412851
 30
0.0
 11
160.963182
 21
97.012756
 31
0.0
 12
157.46317
 22
97.612661
 32
0.0
 13
157.46317
 23
97.612661
 33
0.0
  0
ENDBLK
  5
315
100
AcDbEntity
  8
0
100
AcDbBlockEnd
  0
BLOCK
  5
318
100
AcDbEntity
  8
0
100
AcDbBlockBegin
  2
*B22
 70
     0
 10
0.0
 20
0.0
 30
0.0
  3
*B22
  1

  0
LINE
  5
319
100
AcDbEntity
  8
0
  6
Continuous
 62
     0
100
AcDbLine
 10
121.963196
 20
85.013381
 30
0.0
 11
207.963106
 21
85.013381
 31
0.0
  0
SOLID
  5
31A
100
AcDbEntity
  8
0
  6
Continuous
 62
     0
100
AcDbTrace
 10
125.463208
 20
85.613286
 30
0.0
 11
121.963196
 21
85.013381
 31
0.0
 12
125.463208
 22
84.413476
 32
0.0
 13
125.463208
 23
84.413476
 33
0.0
  0
SOLID
  5
31B
100
AcDbEntity
  8
0
  6
Continuous
 62
     0
100
AcDbTrace
 10
204.463094
 20
84.413476
 30
0.0
 11
207.963106
 21
85.013381
 31
0.0
 12
204.463094
 22
85.613286
 32
0.0
 13
204.463094
 23
85.613286
 33
0.0
  0
ENDBLK
  5
31C
100
AcDbEntity
  8
0
100
AcDbBlockEnd
  0
BLOCK
  5
31F
100
AcDbEntity
  8
0
100
AcDbBlockBegin
  2
*B23
 70
     0
 10
0.0
 20
0.0
 30
0.0
  3
*B23
  1

  0
LINE
  5
320
100
AcDbEntity
  8
0
  6
Continuous
 62
     0
100
AcDbLine
 10
200.963081
 20
85.013381
 30
0.0
 11
217.571571
 21
85.013381
 31
0.0
  0
SOLID
  5
321
100
AcDbEntity
  8
0
  6
Continuous
 62
     0
100
AcDbTrace
 10
204.463094
 20
84.413476
 30
0.0
 11
207.963106
 21
85.013381
 31
0.0
 12
204.463094
 22
85.613286
 32
0.0
 13
204.463094
 23
85.613286
 33
0.0
  0
SOLID
  5
322
100
AcDbEntity
  8
0
  6
Continuous
 62
     0
100
AcDbTrace
 10
212.463031
 20
85.613286
 30
0.0
 11
208.963019
 21
85.013381
 31
0.0
 12
212.463031
 22
84.413476
 32
0.0
 13
212.463031
 23
84.413476
 33
0.0
  0
ENDBLK
  5
323
100
AcDbEntity
  8
0
100
AcDbBlockEnd
  0
BLOCK
  5
326
100
AcDbEntity
  8
0
100
AcDbBlockBegin
  2
*B24
 70
     0
 10
0.0
 20
0.0
 30
0.0
  3
*B24
  1

  0
LINE
  5
327
100
AcDbEntity
  8
0
  6
Continuous
 62
     0
100
AcDbLine
 10
175.463082
 20
20.017156
 30
0.0
 11
199.285939
 21
20.017156
 31
0.0
  0
SOLID
  5
328
100
AcDbEntity
  8
0
  6
Continuous
 62
     0
100
AcDbTrace
 10
178.963094
 20
19.417039
 30
0.0
 11
182.463107
 21
20.017156
 31
0.0
 12
178.963094
 22
20.617061
 32
0.0
 13
178.963094
 23
20.617061
 33
0.0
  0
SOLID
  5
329
100
AcDbEntity
  8
0
  6
Continuous
 62
     0
100
AcDbTrace
 10
190.963107
 20
20.617061
 30
0.0
 11
187.463094
 21
20.017156
 31
0.0
 12
190.963107
 22
19.417039
 32
0.0
 13
190.963107
 23
19.417039
 33
0.0
  0
ENDBLK
  5
32A
100
AcDbEntity
  8
0
100
AcDbBlockEnd
  0
BLOCK
  5
32D
100
AcDbEntity
  8
0
100
AcDbBlockBegin
  2
*B25
 70
     0
 10
0.0
 20
0.0
 30
0.0
  3
*B25
  1

  0
LINE
  5
32E
100
AcDbEntity
  8
0
  6
Continuous
 62
     0
100
AcDbLine
 10
121.463134
 20
184.007905
 30
0.0
 11
72.963235
 21
184.007905
 31
0.0
  0
SOLID
  5
32F
100
AcDbEntity
  8
0
  6
Continuous
 62
     0
100
AcDbTrace
 10
117.963121
 20
183.407787
 30
0.0
 11
121.463134
 21
184.007905
 31
0.0
 12
117.963121
 22
184.60781
 32
0.0
 13
117.963121
 23
184.60781
 33
0.0
  0
SOLID
  5
330
100
AcDbEntity
  8
0
  6
Continuous
 62
     0
100
AcDbTrace
 10
76.463035
 20
184.60781
 30
0.0
 11
72.963235
 21
184.007905
 31
0.0
 12
76.463035
 22
183.407787
 32
0.0
 13
76.463035
 23
183.407787
 33
0.0
  0
ENDBLK
  5
331
100
AcDbEntity
  8
0
100
AcDbBlockEnd
  0
BLOCK
  5
334
100
AcDbEntity
  8
0
100
AcDbBlockBegin
  2
*B26
 70
     0
 10
0.0
 20
0.0
 30
0.0
  3
*B26
  1

  0
LINE
  5
335
100
AcDbEntity
  8
0
  6
Continuous
 62
     0
100
AcDbLine
 10
163.838011
 20
20.017156
 30
0.0
 11
122.678876
 21
20.017156
 31
0.0
  0
SOLID
  5
336
100
AcDbEntity
  8
0
  6
Continuous
 62
     0
100
AcDbTrace
 10
160.337998
 20
20.617061
 30
0.0
 11
156.837986
 21
20.017156
 31
0.0
 12
160.337998
 22
19.417039
 32
0.0
 13
160.337998
 23
19.417039
 33
0.0
  0
SOLID
  5
337
100
AcDbEntity
  8
0
  6
Continuous
 62
     0
100
AcDbTrace
 10
141.588205
 20
19.417039
 30
0.0
 11
145.088005
 21
20.017156
 31
0.0
 12
141.588205
 22
20.617061
 32
0.0
 13
141.588205
 23
20.617061
 33
0.0
  0
ENDBLK
  5
338
100
AcDbEntity
  8
0
100
AcDbBlockEnd
  0
BLOCK
  5
33B
100
AcDbEntity
  8
0
100
AcDbBlockBegin
  2
*B27
 70
     0
 10
0.0
 20
0.0
 30
0.0
  3
*B27
  1

  0
LINE
  5
33C
100
AcDbEntity
  8
0
  6
Continuous
 62
     0
100
AcDbLine
 10
63.018067
 20
174.976828
 30
0.0
 11
63.018067
 21
107.981203
 31
0.0
  0
SOLID
  5
33D
100
AcDbEntity
  8
0
  6
Continuous
 62
     0
100
AcDbTrace
 10
63.618185
 20
171.477028
 30
0.0
 11
63.018067
 21
174.976828
 31
0.0
 12
62.418162
 22
171.477028
 32
0.0
 13
62.418162
 23
171.477028
 33
0.0
  0
SOLID
  5
33E
100
AcDbEntity
  8
0
  6
Continuous
 62
     0
100
AcDbTrace
 10
62.418162
 20
111.481003
 30
0.0
 11
63.018067
 21
107.981203
 31
0.0
 12
63.618185
 22
111.481003
 32
0.0
 13
63.618185
 23
111.481003
 33
0.0
  0
ENDBLK
  5
33F
100
AcDbEntity
  8
0
100
AcDbBlockEnd
  0
BLOCK
  5
342
100
AcDbEntity
  8
0
100
AcDbBlockBegin
  2
*B28
 70
     0
 10
0.0
 20
0.0
 30
0.0
  3
*B28
  1

  0
LINE
  5
343
100
AcDbEntity
  8
0
  6
Continuous
 62
     8
100
AcDbLine
 10
61.018242
 20
107.981203
 30
0.0
 11
136.963158
 21
107.981203
 31
0.0
  0
LINE
  5
344
100
AcDbEntity
  8
0
  6
Continuous
 62
     8
100
AcDbLine
 10
208.963019
 20
107.981203
 30
0.0
 11
233.018063
 21
107.981203
 31
0.0
  0
ENDBLK
  5
345
100
AcDbEntity
  8
0
100
AcDbBlockEnd
  0
BLOCK
  5
348
100
AcDbEntity
  8
0
100
AcDbBlockBegin
  2
*B29
 70
     0
 10
0.0
 20
0.0
 30
0.0
  3
*B29
  1

  0
LINE
  5
349
100
AcDbEntity
  8
0
  6
Continuous
 62
     8
100
AcDbLine
 10
81.263125
 20
127.979878
 30
0.0
 11
86.383136
 21
127.979878
 31
0.0
  0
LINE
  5
34A
100
AcDbEntity
  8
0
  6
Continuous
 62
     8
100
AcDbLine
 10
87.383048
 20
127.979878
 30
0.0
 11
88.383173
 21
127.979878
 31
0.0
  0
LINE
  5
34B
100
AcDbEntity
  8
0
  6
Continuous
 62
     8
100
AcDbLine
 10
89.383085
 20
127.979878
 30
0.0
 11
94.503096
 21
127.979878
 31
0.0
  0
LINE
  5
34C
100
AcDbEntity
  8
0
  6
Continuous
 62
     8
100
AcDbLine
 10
95.503221
 20
127.979878
 30
0.0
 11
96.503134
 21
127.979878
 31
0.0
  0
LINE
  5
34D
100
AcDbEntity
  8
0
  6
Continuous
 62
     8
100
AcDbLine
 10
97.503046
 20
127.979878
 30
0.0
 11
102.623057
 21
127.979878
 31
0.0
  0
LINE
  5
34E
100
AcDbEntity
  8
0
  6
Continuous
 62
     8
100
AcDbLine
 10
103.623182
 20
127.979878
 30
0.0
 11
104.623095
 21
127.979878
 31
0.0
  0
LINE
  5
34F
100
AcDbEntity
  8
0
  6
Continuous
 62
     8
100
AcDbLine
 10
105.623219
 20
127.979878
 30
0.0
 11
110.743018
 21
127.979878
 31
0.0
  0
LINE
  5
350
100
AcDbEntity
  8
0
  6
Continuous
 62
     8
100
AcDbLine
 10
111.743143
 20
127.979878
 30
0.0
 11
112.743055
 21
127.979878
 31
0.0
  0
LINE
  5
351
100
AcDbEntity
  8
0
  6
Continuous
 62
     8
100
AcDbLine
 10
113.74318
 20
127.979878
 30
0.0
 11
118.863191
 21
127.979878
 31
0.0
  0
LINE
  5
352
100
AcDbEntity
  8
0
  6
Continuous
 62
     8
100
AcDbLine
 10
119.863104
 20
127.979878
 30
0.0
 11
120.863016
 21
127.979878
 31
0.0
  0
LINE
  5
353
100
AcDbEntity
  8
0
  6
Continuous
 62
     8
100
AcDbLine
 10
121.863141
 20
127.979878
 30
0.0
 11
126.983152
 21
127.979878
 31
0.0
  0
LINE
  5
354
100
AcDbEntity
  8
0
  6
Continuous
 62
     8
100
AcDbLine
 10
127.983064
 20
127.979878
 30
0.0
 11
128.983189
 21
127.979878
 31
0.0
  0
LINE
  5
355
100
AcDbEntity
  8
0
  6
Continuous
 62
     8
100
AcDbLine
 10
129.983102
 20
127.979878
 30
0.0
 11
135.103113
 21
127.979878
 31
0.0
  0
LINE
  5
356
100
AcDbEntity
  8
0
  6
Continuous
 62
     8
100
AcDbLine
 10
136.103025
 20
127.979878
 30
0.0
 11
137.10315
 21
127.979878
 31
0.0
  0
LINE
  5
357
100
AcDbEntity
  8
0
  6
Continuous
 62
     8
100
AcDbLine
 10
138.103063
 20
127.979878
 30
0.0
 11
143.223073
 21
127.979878
 31
0.0
  0
LINE
  5
358
100
AcDbEntity
  8
0
  6
Continuous
 62
     8
100
AcDbLine
 10
144.223198
 20
127.979878
 30
0.0
 11
145.223111
 21
127.979878
 31
0.0
  0
LINE
  5
359
100
AcDbEntity
  8
0
  6
Continuous
 62
     8
100
AcDbLine
 10
146.223023
 20
127.979878
 30
0.0
 11
151.343034
 21
127.979878
 31
0.0
  0
LINE
  5
35A
100
AcDbEntity
  8
0
  6
Continuous
 62
     8
100
AcDbLine
 10
152.343159
 20
127.979878
 30
0.0
 11
153.343072
 21
127.979878
 31
0.0
  0
LINE
  5
35B
100
AcDbEntity
  8
0
  6
Continuous
 62
     8
100
AcDbLine
 10
154.343197
 20
127.979878
 30
0.0
 11
159.462995
 21
127.979878
 31
0.0
  0
LINE
  5
35C
100
AcDbEntity
  8
0
  6
Continuous
 62
     8
100
AcDbLine
 10
162.463157
 20
127.979878
 30
0.0
 11
167.463145
 21
127.979878
 31
0.0
  0
LINE
  5
35D
100
AcDbEntity
  8
0
  6
Continuous
 62
     8
100
AcDbLine
 10
168.463057
 20
127.979878
 30
0.0
 11
169.463182
 21
127.979878
 31
0.0
  0
LINE
  5
35E
100
AcDbEntity
  8
0
  6
Continuous
 62
     8
100
AcDbLine
 10
170.463095
 20
127.979878
 30
0.0
 11
175.463082
 21
127.979878
 31
0.0
  0
LINE
  5
35F
100
AcDbEntity
  8
0
  6
Continuous
 62
     8
100
AcDbLine
 10
176.462995
 20
127.979878
 30
0.0
 11
177.46312
 21
127.979878
 31
0.0
  0
LINE
  5
360
100
AcDbEntity
  8
0
  6
Continuous
 62
     8
100
AcDbLine
 10
178.463032
 20
127.979878
 30
0.0
 11
183.463019
 21
127.979878
 31
0.0
  0
LINE
  5
361
100
AcDbEntity
  8
0
  6
Continuous
 62
     8
100
AcDbLine
 10
186.463182
 20
127.979878
 30
0.0
 11
192.62984
 21
127.979878
 31
0.0
  0
LINE
  5
362
100
AcDbEntity
  8
0
  6
Continuous
 62
     8
100
AcDbLine
 10
193.629752
 20
127.979878
 30
0.0
 11
194.629665
 21
127.979878
 31
0.0
  0
LINE
  5
363
100
AcDbEntity
  8
0
  6
Continuous
 62
     8
100
AcDbLine
 10
195.62979
 20
127.979878
 30
0.0
 11
201.796448
 21
127.979878
 31
0.0
  0
LINE
  5
364
100
AcDbEntity
  8
0
  6
Continuous
 62
     8
100
AcDbLine
 10
202.79636
 20
127.979878
 30
0.0
 11
203.796485
 21
127.979878
 31
0.0
  0
LINE
  5
365
100
AcDbEntity
  8
0
  6
Continuous
 62
     8
100
AcDbLine
 10
204.796398
 20
127.979878
 30
0.0
 11
210.963056
 21
127.979878
 31
0.0
  0
ENDBLK
  5
366
100
AcDbEntity
  8
0
100
AcDbBlockEnd
  0
BLOCK
  5
369
100
AcDbEntity
  8
0
100
AcDbBlockBegin
  2
*B30
 70
     0
 10
0.0
 20
0.0
 30
0.0
  3
*B30
  1

  0
LINE
  5
36A
100
AcDbEntity
  8
0
  6
Continuous
 62
     8
100
AcDbLine
 10
208.963019
 20
147.978765
 30
0.0
 11
233.018063
 21
147.978765
 31
0.0
  0
ENDBLK
  5
36B
100
AcDbEntity
  8
0
100
AcDbBlockEnd
  0
BLOCK
  5
36E
100
AcDbEntity
  8
0
100
AcDbBlockBegin
  2
*B31
 70
     0
 10
0.0
 20
0.0
 30
0.0
  3
*B31
  1

  0
LINE
  5
36F
100
AcDbEntity
  8
0
  6
Continuous
 62
     8
100
AcDbLine
 10
184.962994
 20
95.012931
 30
0.0
 11
184.962994
 21
99.012581
 31
0.0
  0
LINE
  5
370
100
AcDbEntity
  8
0
  6
Continuous
 62
     8
100
AcDbLine
 10
184.962994
 20
99.012581
 30
0.0
 11
184.962994
 21
106.16853
 31
0.0
  0
LINE
  5
371
100
AcDbEntity
  8
0
  6
Continuous
 62
     8
100
AcDbLine
 10
184.962994
 20
107.168442
 30
0.0
 11
184.962994
 21
108.168355
 31
0.0
  0
LINE
  5
372
100
AcDbEntity
  8
0
  6
Continuous
 62
     8
100
AcDbLine
 10
184.962994
 20
109.16848
 30
0.0
 11
184.962994
 21
116.324216
 31
0.0
  0
LINE
  5
373
100
AcDbEntity
  8
0
  6
Continuous
 62
     8
100
AcDbLine
 10
184.962994
 20
117.324341
 30
0.0
 11
184.962994
 21
118.324254
 31
0.0
  0
LINE
  5
374
100
AcDbEntity
  8
0
  6
Continuous
 62
     8
100
AcDbLine
 10
184.962994
 20
119.324166
 30
0.0
 11
184.962994
 21
126.480115
 31
0.0
  0
LINE
  5
375
100
AcDbEntity
  8
0
  6
Continuous
 62
     8
100
AcDbLine
 10
184.962994
 20
129.479853
 30
0.0
 11
184.962994
 21
134.479628
 31
0.0
  0
LINE
  5
376
100
AcDbEntity
  8
0
  6
Continuous
 62
     8
100
AcDbLine
 10
184.962994
 20
135.47954
 30
0.0
 11
184.962994
 21
136.479453
 31
0.0
  0
LINE
  5
377
100
AcDbEntity
  8
0
  6
Continuous
 62
     8
100
AcDbLine
 10
184.962994
 20
137.479365
 30
0.0
 11
184.962994
 21
142.47914
 31
0.0
  0
LINE
  5
378
100
AcDbEntity
  8
0
  6
Continuous
 62
     8
100
AcDbLine
 10
184.962994
 20
145.47909
 30
0.0
 11
184.962994
 21
151.228746
 31
0.0
  0
ENDBLK
  5
379
100
AcDbEntity
  8
0
100
AcDbBlockEnd
  0
BLOCK
  5
37C
100
AcDbEntity
  8
0
100
AcDbBlockBegin
  2
*B32
 70
     0
 10
0.0
 20
0.0
 30
0.0
  3
*B32
  1

  0
LINE
  5
37D
100
AcDbEntity
  8
0
  6
Continuous
 62
     8
100
AcDbLine
 10
184.962994
 20
28.281145
 30
0.0
 11
184.962994
 21
34.780683
 31
0.0
  0
LINE
  5
37E
100
AcDbEntity
  8
0
  6
Continuous
 62
     8
100
AcDbLine
 10
184.962994
 20
35.780595
 30
0.0
 11
184.962994
 21
36.780508
 31
0.0
  0
LINE
  5
37F
100
AcDbEntity
  8
0
  6
Continuous
 62
     8
100
AcDbLine
 10
184.962994
 20
37.780633
 30
0.0
 11
184.962994
 21
44.28017
 31
0.0
  0
LINE
  5
380
100
AcDbEntity
  8
0
  6
Continuous
 62
     8
100
AcDbLine
 10
184.962994
 20
45.280083
 30
0.0
 11
184.962994
 21
46.279995
 31
0.0
  0
LINE
  5
381
100
AcDbEntity
  8
0
  6
Continuous
 62
     8
100
AcDbLine
 10
184.962994
 20
47.279908
 30
0.0
 11
184.962994
 21
53.779658
 31
0.0
  0
LINE
  5
382
100
AcDbEntity
  8
0
  6
Continuous
 62
     8
100
AcDbLine
 10
184.962994
 20
54.77957
 30
0.0
 11
184.962994
 21
55.779483
 31
0.0
  0
LINE
  5
383
100
AcDbEntity
  8
0
  6
Continuous
 62
     8
100
AcDbLine
 10
184.962994
 20
56.779395
 30
0.0
 11
184.962994
 21
63.279145
 31
0.0
  0
ENDBLK
  5
384
100
AcDbEntity
  8
0
100
AcDbBlockEnd
  0
BLOCK
  5
387
100
AcDbEntity
  8
0
100
AcDbBlockBegin
  2
*B33
 70
     0
 10
0.0
 20
0.0
 30
0.0
  3
*B33
  1

  0
LINE
  5
388
100
AcDbEntity
  8
0
  6
Continuous
 62
     8
100
AcDbLine
 10
194.963181
 20
133.979565
 30
0.0
 11
194.963181
 21
140.979165
 31
0.0
  0
LINE
  5
389
100
AcDbEntity
  8
0
  6
Continuous
 62
     8
100
AcDbLine
 10
194.963181
 20
141.97929
 30
0.0
 11
194.963181
 21
142.979203
 31
0.0
  0
LINE
  5
38A
100
AcDbEntity
  8
0
  6
Continuous
 62
     8
100
AcDbLine
 10
194.963181
 20
143.979115
 30
0.0
 11
194.963181
 21
150.978715
 31
0.0
  0
ENDBLK
  5
38B
100
AcDbEntity
  8
0
100
AcDbBlockEnd
  0
BLOCK
  5
38E
100
AcDbEntity
  8
0
100
AcDbBlockBegin
  2
*B34
 70
     0
 10
0.0
 20
0.0
 30
0.0
  3
*B34
  1

  0
LINE
  5
38F
100
AcDbEntity
  8
0
  6
Continuous
 62
     8
100
AcDbLine
 10
194.963181
 20
71.014181
 30
0.0
 11
194.963181
 21
75.014043
 31
0.0
  0
LINE
  5
390
100
AcDbEntity
  8
0
  6
Continuous
 62
     8
100
AcDbLine
 10
194.963181
 20
40.705382
 30
0.0
 11
194.963181
 21
48.079923
 31
0.0
  0
LINE
  5
391
100
AcDbEntity
  8
0
  6
Continuous
 62
     8
100
AcDbLine
 10
194.963181
 20
51.079873
 30
0.0
 11
194.963181
 21
59.547158
 31
0.0
  0
LINE
  5
392
100
AcDbEntity
  8
0
  6
Continuous
 62
     8
100
AcDbLine
 10
194.963181
 20
60.547071
 30
0.0
 11
194.963181
 21
61.546983
 31
0.0
  0
LINE
  5
393
100
AcDbEntity
  8
0
  6
Continuous
 62
     8
100
AcDbLine
 10
194.963181
 20
62.546896
 30
0.0
 11
194.963181
 21
71.014181
 31
0.0
  0
ENDBLK
  5
394
100
AcDbEntity
  8
0
100
AcDbBlockEnd
  0
BLOCK
  5
397
100
AcDbEntity
  8
0
100
AcDbBlockBegin
  2
*B35
 70
     0
 10
0.0
 20
0.0
 30
0.0
  3
*B35
  1

  0
LINE
  5
398
100
AcDbEntity
  8
0
  6
Continuous
 62
     8
100
AcDbLine
 10
72.963235
 20
174.776505
 30
0.0
 11
72.963235
 21
186.00773
 31
0.0
  0
ENDBLK
  5
399
100
AcDbEntity
  8
0
100
AcDbBlockEnd
  0
BLOCK
  5
39C
100
AcDbEntity
  8
0
100
AcDbBlockBegin
  2
*B36
 70
     0
 10
0.0
 20
0.0
 30
0.0
  3
*B36
  1

  0
LINE
  5
39D
100
AcDbEntity
  8
0
  6
Continuous
 62
     8
100
AcDbLine
 10
69.963073
 20
165.977828
 30
0.0
 11
74.838151
 21
165.977828
 31
0.0
  0
LINE
  5
39E
100
AcDbEntity
  8
0
  6
Continuous
 62
     8
100
AcDbLine
 10
75.838063
 20
165.977828
 30
0.0
 11
76.838188
 21
165.977828
 31
0.0
  0
LINE
  5
39F
100
AcDbEntity
  8
0
  6
Continuous
 62
     8
100
AcDbLine
 10
77.8381
 20
165.977828
 30
0.0
 11
82.713178
 21
165.977828
 31
0.0
  0
LINE
  5
3A0
100
AcDbEntity
  8
0
  6
Continuous
 62
     8
100
AcDbLine
 10
83.713091
 20
165.977828
 30
0.0
 11
84.713216
 21
165.977828
 31
0.0
  0
LINE
  5
3A1
100
AcDbEntity
  8
0
  6
Continuous
 62
     8
100
AcDbLine
 10
85.713128
 20
165.977828
 30
0.0
 11
90.588206
 21
165.977828
 31
0.0
  0
LINE
  5
3A2
100
AcDbEntity
  8
0
  6
Continuous
 62
     8
100
AcDbLine
 10
91.588119
 20
165.977828
 30
0.0
 11
92.588031
 21
165.977828
 31
0.0
  0
LINE
  5
3A3
100
AcDbEntity
  8
0
  6
Continuous
 62
     8
100
AcDbLine
 10
93.588156
 20
165.977828
 30
0.0
 11
98.463022
 21
165.977828
 31
0.0
  0
ENDBLK
  5
3A4
100
AcDbEntity
  8
0
100
AcDbBlockEnd
  0
BLOCK
  5
3A7
100
AcDbEntity
  8
0
100
AcDbBlockBegin
  2
*B37
 70
     0
 10
0.0
 20
0.0
 30
0.0
  3
*B37
  1

  0
LINE
  5
3A8
100
AcDbEntity
  8
0
  6
Continuous
 62
     8
100
AcDbLine
 10
132.963083
 20
43.58021
 30
0.0
 11
132.963083
 21
48.079923
 31
0.0
  0
LINE
  5
3A9
100
AcDbEntity
  8
0
  6
Continuous
 62
     8
100
AcDbLine
 10
132.963083
 20
51.079873
 30
0.0
 11
132.963083
 21
55.579585
 31
0.0
  0
ENDBLK
  5
3AA
100
AcDbEntity
  8
0
100
AcDbBlockEnd
  0
BLOCK
  5
3AD
100
AcDbEntity
  8
0
100
AcDbBlockBegin
  2
*B38
 70
     0
 10
0.0
 20
0.0
 30
0.0
  3
*B38
  1

  0
LINE
  5
3AE
100
AcDbEntity
  8
0
  6
Continuous
 62
     8
100
AcDbLine
 10
172.963195
 20
106.231197
 30
0.0
 11
172.963195
 21
110.480878
 31
0.0
  0
LINE
  5
3AF
100
AcDbEntity
  8
0
  6
Continuous
 62
     8
100
AcDbLine
 10
172.963195
 20
113.480828
 30
0.0
 11
172.963195
 21
118.580446
 31
0.0
  0
LINE
  5
3B0
100
AcDbEntity
  8
0
  6
Continuous
 62
     8
100
AcDbLine
 10
172.963195
 20
119.580358
 30
0.0
 11
172.963195
 21
120.580483
 31
0.0
  0
LINE
  5
3B1
100
AcDbEntity
  8
0
  6
Continuous
 62
     8
100
AcDbLine
 10
172.963195
 20
121.580395
 30
0.0
 11
172.963195
 21
126.680013
 31
0.0
  0
LINE
  5
3B2
100
AcDbEntity
  8
0
  6
Continuous
 62
     8
100
AcDbLine
 10
172.963195
 20
127.679925
 30
0.0
 11
172.963195
 21
128.68005
 31
0.0
  0
LINE
  5
3B3
100
AcDbEntity
  8
0
  6
Continuous
 62
     8
100
AcDbLine
 10
172.963195
 20
129.679963
 30
0.0
 11
172.963195
 21
134.77958
 31
0.0
  0
LINE
  5
3B4
100
AcDbEntity
  8
0
  6
Continuous
 62
     8
100
AcDbLine
 10
172.963195
 20
135.779493
 30
0.0
 11
172.963195
 21
136.779405
 31
0.0
  0
LINE
  5
3B5
100
AcDbEntity
  8
0
  6
Continuous
 62
     8
100
AcDbLine
 10
172.963195
 20
137.77953
 30
0.0
 11
172.963195
 21
142.879148
 31
0.0
  0
LINE
  5
3B6
100
AcDbEntity
  8
0
  6
Continuous
 62
     8
100
AcDbLine
 10
172.963195
 20
143.87906
 30
0.0
 11
172.963195
 21
144.878973
 31
0.0
  0
LINE
  5
3B7
100
AcDbEntity
  8
0
  6
Continuous
 62
     8
100
AcDbLine
 10
172.963195
 20
145.878885
 30
0.0
 11
172.963195
 21
150.978715
 31
0.0
  0
ENDBLK
  5
3B8
100
AcDbEntity
  8
0
100
AcDbBlockEnd
  0
BLOCK
  5
3BB
100
AcDbEntity
  8
0
100
AcDbBlockBegin
  2
*B39
 70
     0
 10
0.0
 20
0.0
 30
0.0
  3
*B39
  1

  0
LINE
  5
3BC
100
AcDbEntity
  8
0
  6
Continuous
 62
     8
100
AcDbLine
 10
172.963195
 20
71.014181
 30
0.0
 11
172.963195
 21
75.014043
 31
0.0
  0
LINE
  5
3BD
100
AcDbEntity
  8
0
  6
Continuous
 62
     8
100
AcDbLine
 10
172.963195
 20
40.705382
 30
0.0
 11
172.963195
 21
48.079923
 31
0.0
  0
LINE
  5
3BE
100
AcDbEntity
  8
0
  6
Continuous
 62
     8
100
AcDbLine
 10
172.963195
 20
51.079873
 30
0.0
 11
172.963195
 21
59.547158
 31
0.0
  0
LINE
  5
3BF
100
AcDbEntity
  8
0
  6
Continuous
 62
     8
100
AcDbLine
 10
172.963195
 20
60.547071
 30
0.0
 11
172.963195
 21
61.546983
 31
0.0
  0
LINE
  5
3C0
100
AcDbEntity
  8
0
  6
Continuous
 62
     8
100
AcDbLine
 10
172.963195
 20
62.546896
 30
0.0
 11
172.963195
 21
71.014181
 31
0.0
  0
ENDBLK
  5
3C1
100
AcDbEntity
  8
0
100
AcDbBlockEnd
  0
BLOCK
  5
3C4
100
AcDbEntity
  8
0
100
AcDbBlockBegin
  2
*B40
 70
     0
 10
0.0
 20
0.0
 30
0.0
  3
*B40
  1

  0
LINE
  5
3C5
100
AcDbEntity
  8
0
  6
Continuous
 62
     8
100
AcDbLine
 10
121.463134
 20
171.977515
 30
0.0
 11
121.463134
 21
186.00773
 31
0.0
  0
ENDBLK
  5
3C6
100
AcDbEntity
  8
0
100
AcDbBlockEnd
  0
BLOCK
  5
3C9
100
AcDbEntity
  8
0
100
AcDbBlockBegin
  2
*B41
 70
     0
 10
0.0
 20
0.0
 30
0.0
  3
*B41
  1

  0
LINE
  5
3CA
100
AcDbEntity
  8
0
  6
Continuous
 62
     8
100
AcDbLine
 10
137.963071
 20
61.579273
 30
0.0
 11
137.963071
 21
75.014043
 31
0.0
  0
ENDBLK
  5
3CB
100
AcDbEntity
  8
0
100
AcDbBlockEnd
  0
BLOCK
  5
3CE
100
AcDbEntity
  8
0
100
AcDbBlockBegin
  2
*B42
 70
     0
 10
0.0
 20
0.0
 30
0.0
  3
*B42
  1

  0
LINE
  5
3CF
100
AcDbEntity
  8
0
  6
Continuous
 62
     8
100
AcDbLine
 10
207.963106
 20
61.579273
 30
0.0
 11
207.963106
 21
75.014043
 31
0.0
  0
ENDBLK
  5
3D0
100
AcDbEntity
  8
0
100
AcDbBlockEnd
  0
BLOCK
  5
3D3
100
AcDbEntity
  8
0
100
AcDbBlockBegin
  2
*B43
 70
     0
 10
0.0
 20
0.0
 30
0.0
  3
*B43
  1

  0
LINE
  5
3D4
100
AcDbEntity
  8
0
  6
Continuous
 62
     8
100
AcDbLine
 10
218.018101
 20
143.979115
 30
0.0
 11
222.018175
 21
143.979115
 31
0.0
  0
LINE
  5
3D5
100
AcDbEntity
  8
0
  6
Continuous
 62
     8
100
AcDbLine
 10
177.713151
 20
143.979115
 30
0.0
 11
183.463019
 21
143.979115
 31
0.0
  0
LINE
  5
3D6
100
AcDbEntity
  8
0
  6
Continuous
 62
     8
100
AcDbLine
 10
186.463182
 20
143.979115
 30
0.0
 11
192.101737
 21
143.979115
 31
0.0
  0
LINE
  5
3D7
100
AcDbEntity
  8
0
  6
Continuous
 62
     8
100
AcDbLine
 10
193.101861
 20
143.979115
 30
0.0
 11
194.101774
 21
143.979115
 31
0.0
  0
LINE
  5
3D8
100
AcDbEntity
  8
0
  6
Continuous
 62
     8
100
AcDbLine
 10
195.101899
 20
143.979115
 30
0.0
 11
200.740666
 21
143.979115
 31
0.0
  0
LINE
  5
3D9
100
AcDbEntity
  8
0
  6
Continuous
 62
     8
100
AcDbLine
 10
201.740579
 20
143.979115
 30
0.0
 11
202.740704
 21
143.979115
 31
0.0
  0
LINE
  5
3DA
100
AcDbEntity
  8
0
  6
Continuous
 62
     8
100
AcDbLine
 10
203.740616
 20
143.979115
 30
0.0
 11
209.379383
 21
143.979115
 31
0.0
  0
LINE
  5
3DB
100
AcDbEntity
  8
0
  6
Continuous
 62
     8
100
AcDbLine
 10
210.379296
 20
143.979115
 30
0.0
 11
211.379421
 21
143.979115
 31
0.0
  0
LINE
  5
3DC
100
AcDbEntity
  8
0
  6
Continuous
 62
     8
100
AcDbLine
 10
212.379333
 20
143.979115
 30
0.0
 11
218.018101
 21
143.979115
 31
0.0
  0
ENDBLK
  5
3DD
100
AcDbEntity
  8
0
100
AcDbBlockEnd
  0
BLOCK
  5
3E0
100
AcDbEntity
  8
0
100
AcDbBlockBegin
  2
*B44
 70
     0
 10
0.0
 20
0.0
 30
0.0
  3
*B44
  1

  0
LINE
  5
3E1
100
AcDbEntity
  8
0
  6
Continuous
 62
     8
100
AcDbLine
 10
150.962995
 20
133.979565
 30
0.0
 11
150.962995
 21
140.979165
 31
0.0
  0
LINE
  5
3E2
100
AcDbEntity
  8
0
  6
Continuous
 62
     8
100
AcDbLine
 10
150.962995
 20
141.97929
 30
0.0
 11
150.962995
 21
142.979203
 31
0.0
  0
LINE
  5
3E3
100
AcDbEntity
  8
0
  6
Continuous
 62
     8
100
AcDbLine
 10
150.962995
 20
143.979115
 30
0.0
 11
150.962995
 21
150.978715
 31
0.0
  0
ENDBLK
  5
3E4
100
AcDbEntity
  8
0
100
AcDbBlockEnd
  0
BLOCK
  5
3E7
100
AcDbEntity
  8
0
100
AcDbBlockBegin
  2
*B45
 70
     0
 10
0.0
 20
0.0
 30
0.0
  3
*B45
  1

  0
LINE
  5
3E8
100
AcDbEntity
  8
0
  6
Continuous
 62
     8
100
AcDbLine
 10
187.463094
 20
18.017119
 30
0.0
 11
187.463094
 21
30.28097
 31
0.0
  0
ENDBLK
  5
3E9
100
AcDbEntity
  8
0
100
AcDbBlockEnd
  0
BLOCK
  5
3EC
100
AcDbEntity
  8
0
100
AcDbBlockBegin
  2
*B46
 70
     0
 10
0.0
 20
0.0
 30
0.0
  3
*B46
  1

  0
LINE
  5
3ED
100
AcDbEntity
  8
0
  6
Continuous
 62
     8
100
AcDbLine
 10
150.962995
 20
71.014181
 30
0.0
 11
150.962995
 21
75.014043
 31
0.0
  0
LINE
  5
3EE
100
AcDbEntity
  8
0
  6
Continuous
 62
     8
100
AcDbLine
 10
150.962995
 20
40.705382
 30
0.0
 11
150.962995
 21
48.079923
 31
0.0
  0
LINE
  5
3EF
100
AcDbEntity
  8
0
  6
Continuous
 62
     8
100
AcDbLine
 10
150.962995
 20
51.079873
 30
0.0
 11
150.962995
 21
59.547158
 31
0.0
  0
LINE
  5
3F0
100
AcDbEntity
  8
0
  6
Continuous
 62
     8
100
AcDbLine
 10
150.962995
 20
60.547071
 30
0.0
 11
150.962995
 21
61.546983
 31
0.0
  0
LINE
  5
3F1
100
AcDbEntity
  8
0
  6
Continuous
 62
     8
100
AcDbLine
 10
150.962995
 20
62.546896
 30
0.0
 11
150.962995
 21
71.014181
 31
0.0
  0
ENDBLK
  5
3F2
100
AcDbEntity
  8
0
100
AcDbBlockEnd
  0
BLOCK
  5
3F5
100
AcDbEntity
  8
0
100
AcDbBlockBegin
  2
*B47
 70
     0
 10
0.0
 20
0.0
 30
0.0
  3
*B47
  1

  0
LINE
  5
3F6
100
AcDbEntity
  8
0
  6
Continuous
 62
     8
100
AcDbLine
 10
218.018101
 20
111.980853
 30
0.0
 11
222.018175
 21
111.980853
 31
0.0
  0
LINE
  5
3F7
100
AcDbEntity
  8
0
  6
Continuous
 62
     8
100
AcDbLine
 10
153.713126
 20
111.980853
 30
0.0
 11
159.462995
 21
111.980853
 31
0.0
  0
LINE
  5
3F8
100
AcDbEntity
  8
0
  6
Continuous
 62
     8
100
AcDbLine
 10
162.463157
 20
111.980853
 30
0.0
 11
171.463007
 21
111.980853
 31
0.0
  0
LINE
  5
3F9
100
AcDbEntity
  8
0
  6
Continuous
 62
     8
100
AcDbLine
 10
174.46317
 20
111.980853
 30
0.0
 11
180.774068
 21
111.980853
 31
0.0
  0
LINE
  5
3FA
100
AcDbEntity
  8
0
  6
Continuous
 62
     8
100
AcDbLine
 10
181.773981
 20
111.980853
 30
0.0
 11
182.774106
 21
111.980853
 31
0.0
  0
LINE
  5
3FB
100
AcDbEntity
  8
0
  6
Continuous
 62
     8
100
AcDbLine
 10
183.774018
 20
111.980853
 30
0.0
 11
190.085129
 21
111.980853
 31
0.0
  0
LINE
  5
3FC
100
AcDbEntity
  8
0
  6
Continuous
 62
     8
100
AcDbLine
 10
191.085042
 20
111.980853
 30
0.0
 11
192.085167
 21
111.980853
 31
0.0
  0
LINE
  5
3FD
100
AcDbEntity
  8
0
  6
Continuous
 62
     8
100
AcDbLine
 10
193.085079
 20
111.980853
 30
0.0
 11
199.396191
 21
111.980853
 31
0.0
  0
LINE
  5
3FE
100
AcDbEntity
  8
0
  6
Continuous
 62
     8
100
AcDbLine
 10
200.396103
 20
111.980853
 30
0.0
 11
201.396016
 21
111.980853
 31
0.0
  0
LINE
  5
3FF
100
AcDbEntity
  8
0
  6
Continuous
 62
     8
100
AcDbLine
 10
202.396141
 20
111.980853
 30
0.0
 11
208.707039
 21
111.980853
 31
0.0
  0
LINE
  5
400
100
AcDbEntity
  8
0
  6
Continuous
 62
     8
100
AcDbLine
 10
209.707164
 20
111.980853
 30
0.0
 11
210.707077
 21
111.980853
 31
0.0
  0
LINE
  5
401
100
AcDbEntity
  8
0
  6
Continuous
 62
     8
100
AcDbLine
 10
211.706989
 20
111.980853
 30
0.0
 11
218.018101
 21
111.980853
 31
0.0
  0
ENDBLK
  5
402
100
AcDbEntity
  8
0
100
AcDbBlockEnd
  0
BLOCK
  5
405
100
AcDbEntity
  8
0
100
AcDbBlockBegin
  2
*B48
 70
     0
 10
0.0
 20
0.0
 30
0.0
  3
*B48
  1

  0
LINE
  5
406
100
AcDbEntity
  8
0
  6
Continuous
 62
     8
100
AcDbLine
 10
208.963019
 20
60.57936
 30
0.0
 11
233.018063
 21
60.57936
 31
0.0
  0
ENDBLK
  5
407
100
AcDbEntity
  8
0
100
AcDbBlockEnd
  0
BLOCK
  5
40A
100
AcDbEntity
  8
0
100
AcDbBlockBegin
  2
*B49
 70
     0
 10
0.0
 20
0.0
 30
0.0
  3
*B49
  1

  0
LINE
  5
40B
100
AcDbEntity
  8
0
  6
Continuous
 62
     8
100
AcDbLine
 10
208.963019
 20
83.013556
 30
0.0
 11
208.963019
 21
120.577296
 31
0.0
  0
ENDBLK
  5
40C
100
AcDbEntity
  8
0
100
AcDbBlockEnd
  0
BLOCK
  5
40F
100
AcDbEntity
  8
0
100
AcDbBlockBegin
  2
*B50
 70
     0
 10
0.0
 20
0.0
 30
0.0
  3
*B50
  1

  0
LINE
  5
410
100
AcDbEntity
  8
0
  6
Continuous
 62
     8
100
AcDbLine
 10
208.963019
 20
38.580435
 30
0.0
 11
233.018063
 21
38.580435
 31
0.0
  0
ENDBLK
  5
411
100
AcDbEntity
  8
0
100
AcDbBlockEnd
  0
BLOCK
  5
414
100
AcDbEntity
  8
0
100
AcDbBlockBegin
  2
*B51
 70
     0
 10
0.0
 20
0.0
 30
0.0
  3
*B51
  1

  0
LINE
  5
415
100
AcDbEntity
  8
0
  6
Continuous
 62
     8
100
AcDbLine
 10
182.463107
 20
18.017119
 30
0.0
 11
182.463107
 21
30.28097
 31
0.0
  0
ENDBLK
  5
416
100
AcDbEntity
  8
0
100
AcDbBlockEnd
  0
BLOCK
  5
419
100
AcDbEntity
  8
0
100
AcDbBlockBegin
  2
*B52
 70
     0
 10
0.0
 20
0.0
 30
0.0
  3
*B52
  1

  0
LINE
  5
41A
100
AcDbEntity
  8
0
  6
Continuous
 62
     8
100
AcDbLine
 10
145.088005
 20
18.017119
 30
0.0
 11
145.088005
 21
48.579985
 31
0.0
  0
ENDBLK
  5
41B
100
AcDbEntity
  8
0
100
AcDbBlockEnd
  0
BLOCK
  5
41E
100
AcDbEntity
  8
0
100
AcDbBlockBegin
  2
*B53
 70
     0
 10
0.0
 20
0.0
 30
0.0
  3
*B53
  1

  0
LINE
  5
41F
100
AcDbEntity
  8
0
  6
Continuous
 62
     8
100
AcDbLine
 10
106.963022
 20
43.180203
 30
0.0
 11
106.963022
 21
48.079923
 31
0.0
  0
LINE
  5
420
100
AcDbEntity
  8
0
  6
Continuous
 62
     8
100
AcDbLine
 10
106.963022
 20
51.079873
 30
0.0
 11
106.963022
 21
55.979593
 31
0.0
  0
ENDBLK
  5
421
100
AcDbEntity
  8
0
100
AcDbBlockEnd
  0
BLOCK
  5
424
100
AcDbEntity
  8
0
100
AcDbBlockBegin
  2
*B54
 70
     0
 10
0.0
 20
0.0
 30
0.0
  3
*B54
  1

  0
LINE
  5
425
100
AcDbEntity
  8
0
  6
Continuous
 62
     8
100
AcDbLine
 10
188.463007
 20
31.280883
 30
0.0
 11
222.018175
 21
31.280883
 31
0.0
  0
ENDBLK
  5
426
100
AcDbEntity
  8
0
100
AcDbBlockEnd
  0
BLOCK
  5
429
100
AcDbEntity
  8
0
100
AcDbBlockBegin
  2
*B55
 70
     0
 10
0.0
 20
0.0
 30
0.0
  3
*B55
  1

  0
LINE
  5
42A
100
AcDbEntity
  8
0
  6
Continuous
 62
     8
100
AcDbLine
 10
156.837986
 20
18.017119
 30
0.0
 11
156.837986
 21
48.579985
 31
0.0
  0
ENDBLK
  5
42B
100
AcDbEntity
  8
0
100
AcDbBlockEnd
  0
BLOCK
  5
42E
100
AcDbEntity
  8
0
100
AcDbBlockBegin
  2
*B56
 70
     0
 10
0.0
 20
0.0
 30
0.0
  3
*B56
  1

  0
LINE
  5
42F
100
AcDbEntity
  8
0
  6
Continuous
 62
     8
100
AcDbLine
 10
73.463085
 20
49.579898
 30
0.0
 11
79.213166
 21
49.579898
 31
0.0
  0
LINE
  5
430
100
AcDbEntity
  8
0
  6
Continuous
 62
     8
100
AcDbLine
 10
80.213078
 20
49.579898
 30
0.0
 11
81.213203
 21
49.579898
 31
0.0
  0
LINE
  5
431
100
AcDbEntity
  8
0
  6
Continuous
 62
     8
100
AcDbLine
 10
82.213116
 20
49.579898
 30
0.0
 11
87.963197
 21
49.579898
 31
0.0
  0
LINE
  5
432
100
AcDbEntity
  8
0
  6
Continuous
 62
     8
100
AcDbLine
 10
88.963109
 20
49.579898
 30
0.0
 11
89.963234
 21
49.579898
 31
0.0
  0
LINE
  5
433
100
AcDbEntity
  8
0
  6
Continuous
 62
     8
100
AcDbLine
 10
90.963147
 20
49.579898
 30
0.0
 11
96.713228
 21
49.579898
 31
0.0
  0
LINE
  5
434
100
AcDbEntity
  8
0
  6
Continuous
 62
     8
100
AcDbLine
 10
97.71314
 20
49.579898
 30
0.0
 11
98.713053
 21
49.579898
 31
0.0
  0
LINE
  5
435
100
AcDbEntity
  8
0
  6
Continuous
 62
     8
100
AcDbLine
 10
99.713178
 20
49.579898
 30
0.0
 11
105.463047
 21
49.579898
 31
0.0
  0
LINE
  5
436
100
AcDbEntity
  8
0
  6
Continuous
 62
     8
100
AcDbLine
 10
108.463209
 20
49.579898
 30
0.0
 11
114.129805
 21
49.579898
 31
0.0
  0
LINE
  5
437
100
AcDbEntity
  8
0
  6
Continuous
 62
     8
100
AcDbLine
 10
115.129717
 20
49.579898
 30
0.0
 11
116.129842
 21
49.579898
 31
0.0
  0
LINE
  5
438
100
AcDbEntity
  8
0
  6
Continuous
 62
     8
100
AcDbLine
 10
117.129755
 20
49.579898
 30
0.0
 11
122.79635
 21
49.579898
 31
0.0
  0
LINE
  5
439
100
AcDbEntity
  8
0
  6
Continuous
 62
     8
100
AcDbLine
 10
123.796475
 20
49.579898
 30
0.0
 11
124.796388
 21
49.579898
 31
0.0
  0
LINE
  5
43A
100
AcDbEntity
  8
0
  6
Continuous
 62
     8
100
AcDbLine
 10
125.796513
 20
49.579898
 30
0.0
 11
131.463108
 21
49.579898
 31
0.0
  0
LINE
  5
43B
100
AcDbEntity
  8
0
  6
Continuous
 62
     8
100
AcDbLine
 10
134.463058
 20
49.579898
 30
0.0
 11
140.463171
 21
49.579898
 31
0.0
  0
LINE
  5
43C
100
AcDbEntity
  8
0
  6
Continuous
 62
     8
100
AcDbLine
 10
141.463083
 20
49.579898
 30
0.0
 11
142.462996
 21
49.579898
 31
0.0
  0
LINE
  5
43D
100
AcDbEntity
  8
0
  6
Continuous
 62
     8
100
AcDbLine
 10
143.46312
 20
49.579898
 30
0.0
 11
149.46302
 21
49.579898
 31
0.0
  0
LINE
  5
43E
100
AcDbEntity
  8
0
  6
Continuous
 62
     8
100
AcDbLine
 10
152.463183
 20
49.579898
 30
0.0
 11
160.46312
 21
49.579898
 31
0.0
  0
LINE
  5
43F
100
AcDbEntity
  8
0
  6
Continuous
 62
     8
100
AcDbLine
 10
161.463032
 20
49.579898
 30
0.0
 11
162.463157
 21
49.579898
 31
0.0
  0
LINE
  5
440
100
AcDbEntity
  8
0
  6
Continuous
 62
     8
100
AcDbLine
 10
163.46307
 20
49.579898
 30
0.0
 11
171.463007
 21
49.579898
 31
0.0
  0
LINE
  5
441
100
AcDbEntity
  8
0
  6
Continuous
 62
     8
100
AcDbLine
 10
174.46317
 20
49.579898
 30
0.0
 11
182.463107
 21
49.579898
 31
0.0
  0
LINE
  5
442
100
AcDbEntity
  8
0
  6
Continuous
 62
     8
100
AcDbLine
 10
183.463019
 20
49.579898
 30
0.0
 11
184.463144
 21
49.579898
 31
0.0
  0
LINE
  5
443
100
AcDbEntity
  8
0
  6
Continuous
 62
     8
100
AcDbLine
 10
185.463057
 20
49.579898
 30
0.0
 11
193.462994
 21
49.579898
 31
0.0
  0
LINE
  5
444
100
AcDbEntity
  8
0
  6
Continuous
 62
     8
100
AcDbLine
 10
196.463156
 20
49.579898
 30
0.0
 11
202.213025
 21
49.579898
 31
0.0
  0
LINE
  5
445
100
AcDbEntity
  8
0
  6
Continuous
 62
     8
100
AcDbLine
 10
203.21315
 20
49.579898
 30
0.0
 11
204.213063
 21
49.579898
 31
0.0
  0
LINE
  5
446
100
AcDbEntity
  8
0
  6
Continuous
 62
     8
100
AcDbLine
 10
205.212975
 20
49.579898
 30
0.0
 11
210.963056
 21
49.579898
 31
0.0
  0
ENDBLK
  5
447
100
AcDbEntity
  8
0
100
AcDbBlockEnd
  0
BLOCK
  5
44A
100
AcDbEntity
  8
0
100
AcDbBlockBegin
  2
*B57
 70
     0
 10
0.0
 20
0.0
 30
0.0
  3
*B57
  1

  0
LINE
  5
44B
100
AcDbEntity
  8
0
  6
Continuous
 62
     8
100
AcDbLine
 10
61.018242
 20
174.976828
 30
0.0
 11
72.65606
 21
174.976828
 31
0.0
  0
ENDBLK
  5
44C
100
AcDbEntity
  8
0
100
AcDbBlockEnd
  0
BLOCK
  5
44F
100
AcDbEntity
  8
0
100
AcDbBlockBegin
  2
*B58
 70
     0
 10
0.0
 20
0.0
 30
0.0
  3
*B58
  1

  0
LINE
  5
450
100
AcDbEntity
  8
0
  6
Continuous
 62
     8
100
AcDbLine
 10
160.963182
 20
53.279595
 30
0.0
 11
160.963182
 21
63.279145
 31
0.0
  0
ENDBLK
  5
451
100
AcDbEntity
  8
0
100
AcDbBlockEnd
  0
BLOCK
  5
454
100
AcDbEntity
  8
0
100
AcDbBlockBegin
  2
*B59
 70
     0
 10
0.0
 20
0.0
 30
0.0
  3
*B59
  1

  0
LINE
  5
455
100
AcDbEntity
  8
0
  6
Continuous
 62
     8
100
AcDbLine
 10
160.963182
 20
95.012931
 30
0.0
 11
160.963182
 21
99.012581
 31
0.0
  0
LINE
  5
456
100
AcDbEntity
  8
0
  6
Continuous
 62
     8
100
AcDbLine
 10
160.963182
 20
99.012581
 30
0.0
 11
160.963182
 21
110.480878
 31
0.0
  0
LINE
  5
457
100
AcDbEntity
  8
0
  6
Continuous
 62
     8
100
AcDbLine
 10
160.963182
 20
113.480828
 30
0.0
 11
160.963182
 21
118.480603
 31
0.0
  0
LINE
  5
458
100
AcDbEntity
  8
0
  6
Continuous
 62
     8
100
AcDbLine
 10
160.963182
 20
119.480515
 30
0.0
 11
160.963182
 21
120.480428
 31
0.0
  0
LINE
  5
459
100
AcDbEntity
  8
0
  6
Continuous
 62
     8
100
AcDbLine
 10
160.963182
 20
121.48034
 30
0.0
 11
160.963182
 21
126.480115
 31
0.0
  0
LINE
  5
45A
100
AcDbEntity
  8
0
  6
Continuous
 62
     8
100
AcDbLine
 10
160.963182
 20
129.479853
 30
0.0
 11
160.963182
 21
140.979165
 31
0.0
  0
ENDBLK
  5
45B
100
AcDbEntity
  8
0
100
AcDbBlockEnd
  0
BLOCK
  5
45E
100
AcDbEntity
  8
0
100
AcDbBlockBegin
  2
*B60
 70
     0
 10
0.0
 20
0.0
 30
0.0
  3
*B60
  1

  0
LINE
  5
45F
100
AcDbEntity
  8
0
  6
Continuous
 62
     8
100
AcDbLine
 10
207.963106
 20
83.013556
 30
0.0
 11
207.963106
 21
106.981078
 31
0.0
  0
ENDBLK
  5
460
100
AcDbEntity
  8
0
100
AcDbBlockEnd
  0
BLOCK
  5
463
100
AcDbEntity
  8
0
100
AcDbBlockBegin
  2
*B61
 70
     0
 10
0.0
 20
0.0
 30
0.0
  3
*B61
  1

  0
LINE
  5
464
100
AcDbEntity
  8
0
  6
Continuous
 62
     8
100
AcDbLine
 10
121.963196
 20
83.013556
 30
0.0
 11
121.963196
 21
108.981116
 31
0.0
  0
ENDBLK
  5
465
100
AcDbEntity
  8
0
100
AcDbBlockEnd
  0
BLOCK
  5
468
100
AcDbEntity
  8
0
100
AcDbBlockBegin
  2
*B62
 70
     0
 10
0.0
 20
0.0
 30
0.0
  3
*B62
  1

  0
LINE
  5
469
100
AcDbEntity
  8
0
  6
Continuous
 62
     8
100
AcDbLine
 10
137.963071
 20
95.012931
 30
0.0
 11
137.963071
 21
106.981078
 31
0.0
  0
ENDBLK
  5
46A
100
AcDbEntity
  8
0
100
AcDbBlockEnd
  0
BLOCK
  5
46D
100
AcDbEntity
  8
0
100
AcDbBlockBegin
  2
*B63
 70
     0
 10
0.0
 20
0.0
 30
0.0
  3
*B63
  1

  0
LINE
  5
46E
100
AcDbEntity
  8
0
  6
Continuous
 62
     6
100
AcDbLine
 10
106.463171
 20
49.579898
 30
0.0
 11
107.463084
 21
49.579898
 31
0.0
  0
LINE
  5
46F
100
AcDbEntity
  8
0
  6
Continuous
 62
     6
100
AcDbLine
 10
106.963022
 20
49.079835
 30
0.0
 11
106.963022
 21
50.079748
 31
0.0
  0
ENDBLK
  5
470
100
AcDbEntity
  8
0
100
AcDbBlockEnd
  0
BLOCK
  5
473
100
AcDbEntity
  8
0
100
AcDbBlockBegin
  2
*B64
 70
     0
 10
0.0
 20
0.0
 30
0.0
  3
*B64
  1

  0
LINE
  5
474
100
AcDbEntity
  8
0
  6
Continuous
 62
     6
100
AcDbLine
 10
132.963083
 20
49.079835
 30
0.0
 11
132.963083
 21
50.079748
 31
0.0
  0
LINE
  5
475
100
AcDbEntity
  8
0
  6
Continuous
 62
     6
100
AcDbLine
 10
132.463021
 20
49.579898
 30
0.0
 11
133.463146
 21
49.579898
 31
0.0
  0
ENDBLK
  5
476
100
AcDbEntity
  8
0
100
AcDbBlockEnd
  0
BLOCK
  5
479
100
AcDbEntity
  8
0
100
AcDbBlockBegin
  2
*B65
 70
     0
 10
0.0
 20
0.0
 30
0.0
  3
*B65
  1

  0
LINE
  5
47A
100
AcDbEntity
  8
0
  6
Continuous
 62
     6
100
AcDbLine
 10
184.962994
 20
143.479053
 30
0.0
 11
184.962994
 21
144.478965
 31
0.0
  0
LINE
  5
47B
100
AcDbEntity
  8
0
  6
Continuous
 62
     6
100
AcDbLine
 10
184.463144
 20
143.979115
 30
0.0
 11
185.463057
 21
143.979115
 31
0.0
  0
ENDBLK
  5
47C
100
AcDbEntity
  8
0
100
AcDbBlockEnd
  0
BLOCK
  5
47F
100
AcDbEntity
  8
0
100
AcDbBlockBegin
  2
*B66
 70
     0
 10
0.0
 20
0.0
 30
0.0
  3
*B66
  1

  0
LINE
  5
480
100
AcDbEntity
  8
0
  6
Continuous
 62
     6
100
AcDbLine
 10
194.463119
 20
49.579898
 30
0.0
 11
195.463032
 21
49.579898
 31
0.0
  0
LINE
  5
481
100
AcDbEntity
  8
0
  6
Continuous
 62
     6
100
AcDbLine
 10
194.963181
 20
49.079835
 30
0.0
 11
194.963181
 21
50.079748
 31
0.0
  0
ENDBLK
  5
482
100
AcDbEntity
  8
0
100
AcDbBlockEnd
  0
BLOCK
  5
485
100
AcDbEntity
  8
0
100
AcDbBlockBegin
  2
*B67
 70
     0
 10
0.0
 20
0.0
 30
0.0
  3
*B67
  1

  0
LINE
  5
486
100
AcDbEntity
  8
0
  6
Continuous
 62
     6
100
AcDbLine
 10
160.963182
 20
111.481003
 30
0.0
 11
160.963182
 21
112.480916
 31
0.0
  0
LINE
  5
487
100
AcDbEntity
  8
0
  6
Continuous
 62
     6
100
AcDbLine
 10
160.46312
 20
111.980853
 30
0.0
 11
161.463032
 21
111.980853
 31
0.0
  0
ENDBLK
  5
488
100
AcDbEntity
  8
0
100
AcDbBlockEnd
  0
BLOCK
  5
48B
100
AcDbEntity
  8
0
100
AcDbBlockBegin
  2
*B68
 70
     0
 10
0.0
 20
0.0
 30
0.0
  3
*B68
  1

  0
LINE
  5
48C
100
AcDbEntity
  8
0
  6
Continuous
 62
     6
100
AcDbLine
 10
172.963195
 20
111.481003
 30
0.0
 11
172.963195
 21
112.480916
 31
0.0
  0
LINE
  5
48D
100
AcDbEntity
  8
0
  6
Continuous
 62
     6
100
AcDbLine
 10
172.463132
 20
111.980853
 30
0.0
 11
173.463045
 21
111.980853
 31
0.0
  0
ENDBLK
  5
48E
100
AcDbEntity
  8
0
100
AcDbBlockEnd
  0
BLOCK
  5
491
100
AcDbEntity
  8
0
100
AcDbBlockBegin
  2
*B69
 70
     0
 10
0.0
 20
0.0
 30
0.0
  3
*B69
  1

  0
LINE
  5
492
100
AcDbEntity
  8
0
  6
Continuous
 62
     6
100
AcDbLine
 10
184.463144
 20
127.979878
 30
0.0
 11
185.463057
 21
127.979878
 31
0.0
  0
LINE
  5
493
100
AcDbEntity
  8
0
  6
Continuous
 62
     6
100
AcDbLine
 10
184.962994
 20
127.480028
 30
0.0
 11
184.962994
 21
128.47994
 31
0.0
  0
ENDBLK
  5
494
100
AcDbEntity
  8
0
100
AcDbBlockEnd
  0
BLOCK
  5
497
100
AcDbEntity
  8
0
100
AcDbBlockBegin
  2
*B70
 70
     0
 10
0.0
 20
0.0
 30
0.0
  3
*B70
  1

  0
LINE
  5
498
100
AcDbEntity
  8
0
  6
Continuous
 62
     6
100
AcDbLine
 10
172.963195
 20
49.079835
 30
0.0
 11
172.963195
 21
50.079748
 31
0.0
  0
LINE
  5
499
100
AcDbEntity
  8
0
  6
Continuous
 62
     6
100
AcDbLine
 10
172.463132
 20
49.579898
 30
0.0
 11
173.463045
 21
49.579898
 31
0.0
  0
ENDBLK
  5
49A
100
AcDbEntity
  8
0
100
AcDbBlockEnd
  0
BLOCK
  5
49D
100
AcDbEntity
  8
0
100
AcDbBlockBegin
  2
*B71
 70
     0
 10
0.0
 20
0.0
 30
0.0
  3
*B71
  1

  0
LINE
  5
49E
100
AcDbEntity
  8
0
  6
Continuous
 62
     6
100
AcDbLine
 10
150.962995
 20
49.079835
 30
0.0
 11
150.962995
 21
50.079748
 31
0.0
  0
LINE
  5
49F
100
AcDbEntity
  8
0
  6
Continuous
 62
     6
100
AcDbLine
 10
150.463145
 20
49.579898
 30
0.0
 11
151.463058
 21
49.579898
 31
0.0
  0
ENDBLK
  5
4A0
100
AcDbEntity
  8
0
100
AcDbBlockEnd
  0
BLOCK
  5
4A3
100
AcDbEntity
  8
0
100
AcDbBlockBegin
  2
*B72
 70
     0
 10
0.0
 20
0.0
 30
0.0
  3
*B72
  1

  0
LINE
  5
4A4
100
AcDbEntity
  8
0
  6
Continuous
 62
     6
100
AcDbLine
 10
160.46312
 20
127.979878
 30
0.0
 11
161.463032
 21
127.979878
 31
0.0
  0
LINE
  5
4A5
100
AcDbEntity
  8
0
  6
Continuous
 62
     6
100
AcDbLine
 10
160.963182
 20
127.480028
 30
0.0
 11
160.963182
 21
128.47994
 31
0.0
  0
ENDBLK
  5
4A6
100
AcDbEntity
  8
0
100
AcDbBlockEnd
  0
BLOCK
  5
4A9
100
AcDbEntity
  8
0
100
AcDbBlockBegin
  2
*B73
 70
     0
 10
0.0
 20
0.0
 30
0.0
  3
*B73
  1

  0
LINE
  5
4AA
100
AcDbEntity
  8
0
  6
Continuous
 62
     6
100
AcDbLine
 10
72.963235
 20
49.079835
 30
0.0
 11
72.963235
 21
50.079748
 31
0.0
  0
LINE
  5
4AB
100
AcDbEntity
  8
0
  6
Continuous
 62
     6
100
AcDbLine
 10
72.463172
 20
49.579898
 30
0.0
 11
73.463085
 21
49.579898
 31
0.0
  0
ENDBLK
  5
4AC
100
AcDbEntity
  8
0
100
AcDbBlockEnd
  0
BLOCK
  5
4AF
100
AcDbEntity
  8
0
100
AcDbBlockBegin
  2
*B74
 70
     0
 10
0.0
 20
0.0
 30
0.0
  3
*B74
  1

  0
TEXT
  5
4B0
100
AcDbEntity
  8
TEXT
  6
Continuous
 62
     0
100
AcDbText
 10
201.23575
 20
54.5
 30
0.0
 40
5.0
  1
3
100
AcDbText
  0
ENDBLK
  5
4B1
100
AcDbEntity
  8
0
100
AcDbBlockEnd
  0
BLOCK
  5
4B4
100
AcDbEntity
  8
0
100
AcDbBlockBegin
  2
*B75
 70
     0
 10
0.0
 20
0.0
 30
0.0
  3
*B75
  1

  0
TEXT
  5
4B5
100
AcDbEntity
  8
TEXT
  6
Continuous
 62
     0
100
AcDbText
 10
140.43575
 20
54.3
 30
0.0
 40
5.0
  1
5
100
AcDbText
  0
ENDBLK
  5
4B6
100
AcDbEntity
  8
0
100
AcDbBlockEnd
  0
BLOCK
  5
4B9
100
AcDbEntity
  8
0
100
AcDbBlockBegin
  2
*B76
 70
     0
 10
0.0
 20
0.0
 30
0.0
  3
*B76
  1

  0
TEXT
  5
4BA
100
AcDbEntity
  8
TEXT
  6
Continuous
 62
     0
100
AcDbText
 10
191.23575
 20
114.5
 30
0.0
 40
5.0
  1
2
100
AcDbText
  0
ENDBLK
  5
4BB
100
AcDbEntity
  8
0
100
AcDbBlockEnd
  0
BLOCK
  5
4BE
100
AcDbEntity
  8
0
100
AcDbBlockBegin
  2
*B77
 70
     0
 10
0.0
 20
0.0
 30
0.0
  3
*B77
  1

  0
TEXT
  5
4BF
100
AcDbEntity
  8
TEXT
  6
Continuous
 62
     0
100
AcDbText
 10
176.23575
 20
54.5
 30
0.0
 40
5.0
  1
1
100
AcDbText
  0
ENDBLK
  5
4C0
100
AcDbEntity
  8
0
100
AcDbBlockEnd
  0
BLOCK
  5
4C3
100
AcDbEntity
  8
0
100
AcDbBlockBegin
  2
*B78
 70
     0
 10
0.0
 20
0.0
 30
0.0
  3
*B78
  1

  0
TEXT
  5
4C4
100
AcDbEntity
  8
TEXT
  6
Continuous
 62
     0
100
AcDbText
 10
150.23575
 20
115.5
 30
0.0
 40
5.0
  1
4
100
AcDbText
  0
ENDBLK
  5
4C5
100
AcDbEntity
  8
0
100
AcDbBlockEnd
  0
BLOCK
  5
4C8
100
AcDbEntity
  8
0
100
AcDbBlockBegin
  2
*B79
 70
     0
 10
0.0
 20
0.0
 30
0.0
  3
*B79
  1

  0
TEXT
  5
4C9
100
AcDbEntity
  8
TEXT
  6
Continuous
 62
     0
100
AcDbText
 10
140.471499
 20
125.5
 30
0.0
 40
5.0
  1
14
100
AcDbText
  0
ENDBLK
  5
4CA
100
AcDbEntity
  8
0
100
AcDbBlockEnd
  0
BLOCK
  5
4CD
100
AcDbEntity
  8
0
100
AcDbBlockBegin
  2
*B80
 70
     0
 10
0.0
 20
0.0
 30
0.0
  3
*B80
  1

  0
TEXT
  5
4CE
100
AcDbEntity
  8
TEXT
  6
Continuous
 62
     0
100
AcDbText
 10
198.471499
 20
125.5
 30
0.0
 40
5.0
  1
12
100
AcDbText
  0
ENDBLK
  5
4CF
100
AcDbEntity
  8
0
100
AcDbBlockEnd
  0
BLOCK
  5
4D2
100
AcDbEntity
  8
0
100
AcDbBlockBegin
  2
*B81
 70
     0
 10
0.0
 20
0.0
 30
0.0
  3
*B81
  1

  0
TEXT
  5
4D3
100
AcDbEntity
  8
TEXT
  6
Continuous
 62
     0
100
AcDbText
 10
93.438662
 20
79.5
 30
0.0
 40
5.0
  1
180░
100
AcDbText
  0
ENDBLK
  5
4D4
100
AcDbEntity
  8
0
100
AcDbBlockEnd
  0
BLOCK
  5
4D7
100
AcDbEntity
  8
0
100
AcDbBlockBegin
  2
*B82
 70
     0
 10
0.0
 20
0.0
 30
0.0
  3
*B82
  1

  0
TEXT
  5
4D8
100
AcDbEntity
  8
TEXT
  6
Continuous
 62
     0
100
AcDbText
 10
134.8
 20
41.9886
 30
0.0
 40
4.0
  1
0
 50
90.0
100
AcDbText
  0
ENDBLK
  5
4D9
100
AcDbEntity
  8
0
100
AcDbBlockEnd
  0
BLOCK
  5
4DC
100
AcDbEntity
  8
0
100
AcDbBlockBegin
  2
*B83
 70
     0
 10
0.0
 20
0.0
 30
0.0
  3
*B83
  1

  0
TEXT
  5
4DD
100
AcDbEntity
  8
TEXT
  6
Continuous
 62
     0
100
AcDbText
 10
128.1
 20
47.8886
 30
0.0
 40
4.0
  1
1
 50
90.0
100
AcDbText
  0
ENDBLK
  5
4DE
100
AcDbEntity
  8
0
100
AcDbBlockEnd
  0
BLOCK
  5
4E1
100
AcDbEntity
  8
0
100
AcDbBlockBegin
  2
*B84
 70
     0
 10
0.0
 20
0.0
 30
0.0
  3
*B84
  1

  0
TEXT
  5
4E2
100
AcDbEntity
  8
TEXT
  6
Continuous
 62
     0
100
AcDbText
 10
170.087833
 20
98.5
 30
0.0
 40
3.0
  1
24
100
AcDbText
  0
ENDBLK
  5
4E3
100
AcDbEntity
  8
0
100
AcDbBlockEnd
  0
BLOCK
  5
4E6
100
AcDbEntity
  8
0
100
AcDbBlockBegin
  2
*B85
 70
     0
 10
0.0
 20
0.0
 30
0.0
  3
*B85
  1

  0
TEXT
  5
4E7
100
AcDbEntity
  8
TEXT
  6
Continuous
 62
     0
100
AcDbText
 10
193.587833
 20
98.5
 30
0.0
 40
3.0
  1
23
100
AcDbText
  0
ENDBLK
  5
4E8
100
AcDbEntity
  8
0
100
AcDbBlockEnd
  0
BLOCK
  5
4EB
100
AcDbEntity
  8
0
100
AcDbBlockBegin
  2
*B86
 70
     0
 10
0.0
 20
0.0
 30
0.0
  3
*B86
  1

  0
TEXT
  5
4EC
100
AcDbEntity
  8
TEXT
  6
Continuous
 62
     0
100
AcDbText
 10
141.587833
 20
74.5
 30
0.0
 40
3.0
  1
13
100
AcDbText
  0
ENDBLK
  5
4ED
100
AcDbEntity
  8
0
100
AcDbBlockEnd
  0
BLOCK
  5
4F0
100
AcDbEntity
  8
0
100
AcDbBlockBegin
  2
*B87
 70
     0
 10
0.0
 20
0.0
 30
0.0
  3
*B87
  1

  0
TEXT
  5
4F1
100
AcDbEntity
  8
TEXT
  6
Continuous
 62
     0
100
AcDbText
 10
159.087833
 20
74.5
 30
0.0
 40
3.0
  1
22
100
AcDbText
  0
ENDBLK
  5
4F2
100
AcDbEntity
  8
0
100
AcDbBlockEnd
  0
BLOCK
  5
4F5
100
AcDbEntity
  8
0
100
AcDbBlockBegin
  2
*B88
 70
     0
 10
0.0
 20
0.0
 30
0.0
  3
*B88
  1

  0
TEXT
  5
4F6
100
AcDbEntity
  8
TEXT
  6
Continuous
 62
     0
100
AcDbText
 10
181.087833
 20
74.5
 30
0.0
 40
3.0
  1
22
100
AcDbText
  0
ENDBLK
  5
4F7
100
AcDbEntity
  8
0
100
AcDbBlockEnd
  0
BLOCK
  5
4FA
100
AcDbEntity
  8
0
100
AcDbBlockBegin
  2
*B89
 70
     0
 10
0.0
 20
0.0
 30
0.0
  3
*B89
  1

  0
TEXT
  5
4FB
100
AcDbEntity
  8
TEXT
  6
Continuous
 62
     0
100
AcDbText
 10
198.587833
 20
74.5
 30
0.0
 40
3.0
  1
13
100
AcDbText
  0
ENDBLK
  5
4FC
100
AcDbEntity
  8
0
100
AcDbBlockEnd
  0
BLOCK
  5
4FF
100
AcDbEntity
  8
0
100
AcDbBlockBegin
  2
*B90
 70
     0
 10
0.0
 20
0.0
 30
0.0
  3
*B90
  1

  0
TEXT
  5
500
100
AcDbEntity
  8
TEXT
  6
Continuous
 62
     0
100
AcDbText
 10
229.5
 20
125.111874
 30
0.0
 40
3.0
  1
40
 50
90.0
100
AcDbText
  0
ENDBLK
  5
501
100
AcDbEntity
  8
0
100
AcDbBlockEnd
  0
BLOCK
  5
504
100
AcDbEntity
  8
0
100
AcDbBlockBegin
  2
*B91
 70
     0
 10
0.0
 20
0.0
 30
0.0
  3
*B91
  1

  0
TEXT
  5
505
100
AcDbEntity
  8
TEXT
  6
Continuous
 62
     0
100
AcDbText
 10
218.5
 20
125.111874
 30
0.0
 40
3.0
  1
32
 50
90.0
100
AcDbText
  0
ENDBLK
  5
506
100
AcDbEntity
  8
0
100
AcDbBlockEnd
  0
BLOCK
  5
509
100
AcDbEntity
  8
0
100
AcDbBlockBegin
  2
*B92
 70
     0
 10
0.0
 20
0.0
 30
0.0
  3
*B92
  1

  0
TEXT
  5
50A
100
AcDbEntity
  8
TEXT
  6
Continuous
 62
     0
100
AcDbText
 10
229.5
 20
46.707337
 30
0.0
 40
3.0
  1
22
 50
90.0
100
AcDbText
  0
ENDBLK
  5
50B
100
AcDbEntity
  8
0
100
AcDbBlockEnd
  0
BLOCK
  5
50E
100
AcDbEntity
  8
0
100
AcDbBlockBegin
  2
*B93
 70
     0
 10
0.0
 20
0.0
 30
0.0
  3
*B93
  1

  0
TEXT
  5
50F
100
AcDbEntity
  8
TEXT
  6
Continuous
 62
     0
100
AcDbText
 10
218.5
 20
43.428571
 30
0.0
 40
3.0
  1
7,2
 50
90.0
100
AcDbText
  0
ENDBLK
  5
510
100
AcDbEntity
  8
0
100
AcDbBlockEnd
  0
BLOCK
  5
513
100
AcDbEntity
  8
0
100
AcDbBlockBegin
  2
*B94
 70
     0
 10
0.0
 20
0.0
 30
0.0
  3
*B94
  1

  0
TEXT
  5
514
100
AcDbEntity
  8
TEXT
  6
Continuous
 62
     0
100
AcDbText
 10
146.587833
 20
98.5
 30
0.0
 40
3.0
  1
23
100
AcDbText
  0
ENDBLK
  5
515
100
AcDbEntity
  8
0
100
AcDbBlockEnd
  0
BLOCK
  5
518
100
AcDbEntity
  8
0
100
AcDbBlockBegin
  2
*B95
 70
     0
 10
0.0
 20
0.0
 30
0.0
  3
*B95
  1

  0
TEXT
  5
519
100
AcDbEntity
  8
TEXT
  6
Continuous
 62
     0
100
AcDbText
 10
162.087833
 20
86.5
 30
0.0
 40
3.0
  1
86
100
AcDbText
  0
ENDBLK
  5
51A
100
AcDbEntity
  8
0
100
AcDbBlockEnd
  0
BLOCK
  5
51D
100
AcDbEntity
  8
0
100
AcDbBlockBegin
  2
*B96
 70
     0
 10
0.0
 20
0.0
 30
0.0
  3
*B96
  1

  0
TEXT
  5
51E
100
AcDbEntity
  8
TEXT
  6
Continuous
 62
     0
100
AcDbText
 10
213.571429
 20
86.5
 30
0.0
 40
3.0
  1
1
100
AcDbText
  0
ENDBLK
  5
51F
100
AcDbEntity
  8
0
100
AcDbBlockEnd
  0
BLOCK
  5
522
100
AcDbEntity
  8
0
100
AcDbBlockBegin
  2
*B97
 70
     0
 10
0.0
 20
0.0
 30
0.0
  3
*B97
  1

  0
TEXT
  5
523
100
AcDbEntity
  8
TEXT
  6
Continuous
 62
     0
100
AcDbText
 10
191.857143
 20
21.5
 30
0.0
 40
3.0
  1
M5
100
AcDbText
  0
ENDBLK
  5
524
100
AcDbEntity
  8
0
100
AcDbBlockEnd
  0
BLOCK
  5
527
100
AcDbEntity
  8
0
100
AcDbBlockBegin
  2
*B98
 70
     0
 10
0.0
 20
0.0
 30
0.0
  3
*B98
  1

  0
TEXT
  5
528
100
AcDbEntity
  8
TEXT
  6
Continuous
 62
     0
100
AcDbText
 10
94.337833
 20
185.5
 30
0.0
 40
3.0
  1
48
100
AcDbText
  0
ENDBLK
  5
529
100
AcDbEntity
  8
0
100
AcDbBlockEnd
  0
BLOCK
  5
52C
100
AcDbEntity
  8
0
100
AcDbBlockBegin
  2
*B99
 70
     0
 10
0.0
 20
0.0
 30
0.0
  3
*B99
  1

  0
TEXT
  5
52D
100
AcDbEntity
  8
TEXT
  6
Continuous
 62
     0
100
AcDbText
 10
123.785714
 20
21.5
 30
0.0
 40
3.0
  1
G 1/4"
100
AcDbText
  0
ENDBLK
  5
52E
100
AcDbEntity
  8
0
100
AcDbBlockEnd
  0
BLOCK
  5
531
100
AcDbEntity
  8
0
100
AcDbBlockBegin
  2
*B100
 70
     0
 10
0.0
 20
0.0
 30
0.0
  3
*B100
  1

  0
TEXT
  5
532
100
AcDbEntity
  8
TEXT
  6
Continuous
 62
     0
100
AcDbText
 10
61.5
 20
138.611649
 30
0.0
 40
3.0
  1
67
 50
90.0
100
AcDbText
  0
ENDBLK
  5
533
100
AcDbEntity
  8
0
100
AcDbBlockEnd
  0
ENDSEC
  0
SECTION
  2
ENTITIES
  0
INSERT
  5
30
100
AcDbEntity
  8
0
  6
Continuous
 62
   172
100
AcDbBlockReference
  2
*B0
 10
0.0
 20
0.0
 30
0.0
  0
INSERT
  5
168
100
AcDbEntity
  8
0
  6
Continuous
 62
   174
100
AcDbBlockReference
  2
*B2
 10
0.0
 20
0.0
 30
0.0
  0
INSERT
  5
172
100
AcDbEntity
  8
0
  6
HIDDEN
 62
   172
100
AcDbBlockReference
  2
*B3
 10
0.0
 20
0.0
 30
0.0
  0
INSERT
  5
2A1
100
AcDbEntity
  8
0
  6
HIDDEN
 62
   174
100
AcDbBlockReference
  2
*B4
 10
0.0
 20
0.0
 30
0.0
  0
INSERT
  5
2A7
100
AcDbEntity
  8
0
  6
Continuous
 62
   172
100
AcDbBlockReference
  2
*B5
 10
0.0
 20
0.0
 30
0.0
  0
INSERT
  5
2B2
100
AcDbEntity
  8
0
  6
Continuous
 62
   172
100
AcDbBlockReference
  2
*B6
 10
0.0
 20
0.0
 30
0.0
  0
INSERT
  5
2BB
100
AcDbEntity
  8
0
  6
Continuous
 62
   172
100
AcDbBlockReference
  2
*B8
 10
0.0
 20
0.0
 30
0.0
  0
INSERT
  5
2C6
100
AcDbEntity
  8
0
  6
Continuous
 62
   172
100
AcDbBlockReference
  2
*B9
 10
0.0
 20
0.0
 30
0.0
  0
INSERT
  5
2D0
100
AcDbEntity
  8
0
  6
Continuous
 62
     0
100
AcDbBlockReference
  2
*B11
 10
0.0
 20
0.0
 30
0.0
  0
INSERT
  5
2D7
100
AcDbEntity
  8
0
  6
Continuous
 62
     0
100
AcDbBlockReference
  2
*B12
 10
0.0
 20
0.0
 30
0.0
  0
INSERT
  5
2DE
100
AcDbEntity
  8
0
  6
Continuous
 62
     0
100
AcDbBlockReference
  2
*B13
 10
0.0
 20
0.0
 30
0.0
  0
INSERT
  5
2E5
100
AcDbEntity
  8
0
  6
Continuous
 62
     0
100
AcDbBlockReference
  2
*B14
 10
0.0
 20
0.0
 30
0.0
  0
INSERT
  5
2EC
100
AcDbEntity
  8
0
  6
Continuous
 62
     0
100
AcDbBlockReference
  2
*B15
 10
0.0
 20
0.0
 30
0.0
  0
INSERT
  5
2F3
100
AcDbEntity
  8
0
  6
Continuous
 62
     0
100
AcDbBlockReference
  2
*B16
 10
0.0
 20
0.0
 30
0.0
  0
INSERT
  5
2FA
100
AcDbEntity
  8
0
  6
Continuous
 62
     0
100
AcDbBlockReference
  2
*B17
 10
0.0
 20
0.0
 30
0.0
  0
INSERT
  5
301
100
AcDbEntity
  8
0
  6
Continuous
 62
     0
100
AcDbBlockReference
  2
*B18
 10
0.0
 20
0.0
 30
0.0
  0
INSERT
  5
308
100
AcDbEntity
  8
0
  6
Continuous
 62
     0
100
AcDbBlockReference
  2
*B19
 10
0.0
 20
0.0
 30
0.0
  0
INSERT
  5
30F
100
AcDbEntity
  8
0
  6
Continuous
 62
     0
100
AcDbBlockReference
  2
*B20
 10
0.0
 20
0.0
 30
0.0
  0
INSERT
  5
316
100
AcDbEntity
  8
0
  6
Continuous
 62
     0
100
AcDbBlockReference
  2
*B21
 10
0.0
 20
0.0
 30
0.0
  0
INSERT
  5
31D
100
AcDbEntity
  8
0
  6
Continuous
 62
     0
100
AcDbBlockReference
  2
*B22
 10
0.0
 20
0.0
 30
0.0
  0
INSERT
  5
324
100
AcDbEntity
  8
0
  6
Continuous
 62
     0
100
AcDbBlockReference
  2
*B23
 10
0.0
 20
0.0
 30
0.0
  0
INSERT
  5
32B
100
AcDbEntity
  8
0
  6
Continuous
 62
     0
100
AcDbBlockReference
  2
*B24
 10
0.0
 20
0.0
 30
0.0
  0
INSERT
  5
332
100
AcDbEntity
  8
0
  6
Continuous
 62
     0
100
AcDbBlockReference
  2
*B25
 10
0.0
 20
0.0
 30
0.0
  0
INSERT
  5
339
100
AcDbEntity
  8
0
  6
Continuous
 62
     0
100
AcDbBlockReference
  2
*B26
 10
0.0
 20
0.0
 30
0.0
  0
INSERT
  5
340
100
AcDbEntity
  8
0
  6
Continuous
 62
     0
100
AcDbBlockReference
  2
*B27
 10
0.0
 20
0.0
 30
0.0
  0
INSERT
  5
346
100
AcDbEntity
  8
0
  6
Continuous
 62
     8
100
AcDbBlockReference
  2
*B28
 10
0.0
 20
0.0
 30
0.0
  0
INSERT
  5
367
100
AcDbEntity
  8
0
  6
Continuous
 62
     8
100
AcDbBlockReference
  2
*B29
 10
0.0
 20
0.0
 30
0.0
  0
INSERT
  5
36C
100
AcDbEntity
  8
0
  6
Continuous
 62
     8
100
AcDbBlockReference
  2
*B30
 10
0.0
 20
0.0
 30
0.0
  0
INSERT
  5
37A
100
AcDbEntity
  8
0
  6
Continuous
 62
     8
100
AcDbBlockReference
  2
*B31
 10
0.0
 20
0.0
 30
0.0
  0
INSERT
  5
385
100
AcDbEntity
  8
0
  6
Continuous
 62
     8
100
AcDbBlockReference
  2
*B32
 10
0.0
 20
0.0
 30
0.0
  0
INSERT
  5
38C
100
AcDbEntity
  8
0
  6
Continuous
 62
     8
100
AcDbBlockReference
  2
*B33
 10
0.0
 20
0.0
 30
0.0
  0
INSERT
  5
395
100
AcDbEntity
  8
0
  6
Continuous
 62
     8
100
AcDbBlockReference
  2
*B34
 10
0.0
 20
0.0
 30
0.0
  0
INSERT
  5
39A
100
AcDbEntity
  8
0
  6
Continuous
 62
     8
100
AcDbBlockReference
  2
*B35
 10
0.0
 20
0.0
 30
0.0
  0
INSERT
  5
3A5
100
AcDbEntity
  8
0
  6
Continuous
 62
     8
100
AcDbBlockReference
  2
*B36
 10
0.0
 20
0.0
 30
0.0
  0
INSERT
  5
3AB
100
AcDbEntity
  8
0
  6
Continuous
 62
     8
100
AcDbBlockReference
  2
*B37
 10
0.0
 20
0.0
 30
0.0
  0
INSERT
  5
3B9
100
AcDbEntity
  8
0
  6
Continuous
 62
     8
100
AcDbBlockReference
  2
*B38
 10
0.0
 20
0.0
 30
0.0
  0
INSERT
  5
3C2
100
AcDbEntity
  8
0
  6
Continuous
 62
     8
100
AcDbBlockReference
  2
*B39
 10
0.0
 20
0.0
 30
0.0
  0
INSERT
  5
3C7
100
AcDbEntity
  8
0
  6
Continuous
 62
     8
100
AcDbBlockReference
  2
*B40
 10
0.0
 20
0.0
 30
0.0
  0
INSERT
  5
3CC
100
AcDbEntity
  8
0
  6
Continuous
 62
     8
100
AcDbBlockReference
  2
*B41
 10
0.0
 20
0.0
 30
0.0
  0
INSERT
  5
3D1
100
AcDbEntity
  8
0
  6
Continuous
 62
     8
100
AcDbBlockReference
  2
*B42
 10
0.0
 20
0.0
 30
0.0
  0
INSERT
  5
3DE
100
AcDbEntity
  8
0
  6
Continuous
 62
     8
100
AcDbBlockReference
  2
*B43
 10
0.0
 20
0.0
 30
0.0
  0
INSERT
  5
3E5
100
AcDbEntity
  8
0
  6
Continuous
 62
     8
100
AcDbBlockReference
  2
*B44
 10
0.0
 20
0.0
 30
0.0
  0
INSERT
  5
3EA
100
AcDbEntity
  8
0
  6
Continuous
 62
     8
100
AcDbBlockReference
  2
*B45
 10
0.0
 20
0.0
 30
0.0
  0
INSERT
  5
3F3
100
AcDbEntity
  8
0
  6
Continuous
 62
     8
100
AcDbBlockReference
  2
*B46
 10
0.0
 20
0.0
 30
0.0
  0
INSERT
  5
403
100
AcDbEntity
  8
0
  6
Continuous
 62
     8
100
AcDbBlockReference
  2
*B47
 10
0.0
 20
0.0
 30
0.0
  0
INSERT
  5
408
100
AcDbEntity
  8
0
  6
Continuous
 62
     8
100
AcDbBlockReference
  2
*B48
 10
0.0
 20
0.0
 30
0.0
  0
INSERT
  5
40D
100
AcDbEntity
  8
0
  6
Continuous
 62
     8
100
AcDbBlockReference
  2
*B49
 10
0.0
 20
0.0
 30
0.0
  0
INSERT
  5
412
100
AcDbEntity
  8
0
  6
Continuous
 62
     8
100
AcDbBlockReference
  2
*B50
 10
0.0
 20
0.0
 30
0.0
  0
INSERT
  5
417
100
AcDbEntity
  8
0
  6
Continuous
 62
     8
100
AcDbBlockReference
  2
*B51
 10
0.0
 20
0.0
 30
0.0
  0
INSERT
  5
41C
100
AcDbEntity
  8
0
  6
Continuous
 62
     8
100
AcDbBlockReference
  2
*B52
 10
0.0
 20
0.0
 30
0.0
  0
INSERT
  5
422
100
AcDbEntity
  8
0
  6
Continuous
 62
     8
100
AcDbBlockReference
  2
*B53
 10
0.0
 20
0.0
 30
0.0
  0
INSERT
  5
427
100
AcDbEntity
  8
0
  6
Continuous
 62
     8
100
AcDbBlockReference
  2
*B54
 10
0.0
 20
0.0
 30
0.0
  0
INSERT
  5
42C
100
AcDbEntity
  8
0
  6
Continuous
 62
     8
100
AcDbBlockReference
  2
*B55
 10
0.0
 20
0.0
 30
0.0
  0
INSERT
  5
448
100
AcDbEntity
  8
0
  6
Continuous
 62
     8
100
AcDbBlockReference
  2
*B56
 10
0.0
 20
0.0
 30
0.0
  0
INSERT
  5
44D
100
AcDbEntity
  8
0
  6
Continuous
 62
     8
100
AcDbBlockReference
  2
*B57
 10
0.0
 20
0.0
 30
0.0
  0
INSERT
  5
452
100
AcDbEntity
  8
0
  6
Continuous
 62
     8
100
AcDbBlockReference
  2
*B58
 10
0.0
 20
0.0
 30
0.0
  0
INSERT
  5
45C
100
AcDbEntity
  8
0
  6
Continuous
 62
     8
100
AcDbBlockReference
  2
*B59
 10
0.0
 20
0.0
 30
0.0
  0
INSERT
  5
461
100
AcDbEntity
  8
0
  6
Continuous
 62
     8
100
AcDbBlockReference
  2
*B60
 10
0.0
 20
0.0
 30
0.0
  0
INSERT
  5
466
100
AcDbEntity
  8
0
  6
Continuous
 62
     8
100
AcDbBlockReference
  2
*B61
 10
0.0
 20
0.0
 30
0.0
  0
INSERT
  5
46B
100
AcDbEntity
  8
0
  6
Continuous
 62
     8
100
AcDbBlockReference
  2
*B62
 10
0.0
 20
0.0
 30
0.0
  0
INSERT
  5
471
100
AcDbEntity
  8
0
  6
Continuous
 62
     6
100
AcDbBlockReference
  2
*B63
 10
0.0
 20
0.0
 30
0.0
  0
INSERT
  5
477
100
AcDbEntity
  8
0
  6
Continuous
 62
     6
100
AcDbBlockReference
  2
*B64
 10
0.0
 20
0.0
 30
0.0
  0
INSERT
  5
47D
100
AcDbEntity
  8
0
  6
Continuous
 62
     6
100
AcDbBlockReference
  2
*B65
 10
0.0
 20
0.0
 30
0.0
  0
INSERT
  5
483
100
AcDbEntity
  8
0
  6
Continuous
 62
     6
100
AcDbBlockReference
  2
*B66
 10
0.0
 20
0.0
 30
0.0
  0
INSERT
  5
489
100
AcDbEntity
  8
0
  6
Continuous
 62
     6
100
AcDbBlockReference
  2
*B67
 10
0.0
 20
0.0
 30
0.0
  0
INSERT
  5
48F
100
AcDbEntity
  8
0
  6
Continuous
 62
     6
100
AcDbBlockReference
  2
*B68
 10
0.0
 20
0.0
 30
0.0
  0
INSERT
  5
495
100
AcDbEntity
  8
0
  6
Continuous
 62
     6
100
AcDbBlockReference
  2
*B69
 10
0.0
 20
0.0
 30
0.0
  0
INSERT
  5
49B
100
AcDbEntity
  8
0
  6
Continuous
 62
     6
100
AcDbBlockReference
  2
*B70
 10
0.0
 20
0.0
 30
0.0
  0
INSERT
  5
4A1
100
AcDbEntity
  8
0
  6
Continuous
 62
     6
100
AcDbBlockReference
  2
*B71
 10
0.0
 20
0.0
 30
0.0
  0
INSERT
  5
4A7
100
AcDbEntity
  8
0
  6
Continuous
 62
     6
100
AcDbBlockReference
  2
*B72
 10
0.0
 20
0.0
 30
0.0
  0
INSERT
  5
4AD
100
AcDbEntity
  8
0
  6
Continuous
 62
     6
100
AcDbBlockReference
  2
*B73
 10
0.0
 20
0.0
 30
0.0
  0
INSERT
  5
4B2
100
AcDbEntity
  8
TEXT
  6
Continuous
 62
     0
100
AcDbBlockReference
  2
*B74
 10
0.0
 20
0.0
 30
0.0
  0
INSERT
  5
4B7
100
AcDbEntity
  8
TEXT
  6
Continuous
 62
     0
100
AcDbBlockReference
  2
*B75
 10
0.0
 20
0.0
 30
0.0
  0
INSERT
  5
4BC
100
AcDbEntity
  8
TEXT
  6
Continuous
 62
     0
100
AcDbBlockReference
  2
*B76
 10
0.0
 20
0.0
 30
0.0
  0
INSERT
  5
4C1
100
AcDbEntity
  8
TEXT
  6
Continuous
 62
     0
100
AcDbBlockReference
  2
*B77
 10
0.0
 20
0.0
 30
0.0
  0
INSERT
  5
4C6
100
AcDbEntity
  8
TEXT
  6
Continuous
 62
     0
100
AcDbBlockReference
  2
*B78
 10
0.0
 20
0.0
 30
0.0
  0
INSERT
  5
4CB
100
AcDbEntity
  8
TEXT
  6
Continuous
 62
     0
100
AcDbBlockReference
  2
*B79
 10
0.0
 20
0.0
 30
0.0
  0
INSERT
  5
4D0
100
AcDbEntity
  8
TEXT
  6
Continuous
 62
     0
100
AcDbBlockReference
  2
*B80
 10
0.0
 20
0.0
 30
0.0
  0
INSERT
  5
4D5
100
AcDbEntity
  8
TEXT
  6
Continuous
 62
     0
100
AcDbBlockReference
  2
*B81
 10
0.0
 20
0.0
 30
0.0
  0
INSERT
  5
4DA
100
AcDbEntity
  8
TEXT
  6
Continuous
 62
     0
100
AcDbBlockReference
  2
*B82
 10
0.0
 20
0.0
 30
0.0
  0
INSERT
  5
4DF
100
AcDbEntity
  8
TEXT
  6
Continuous
 62
     0
100
AcDbBlockReference
  2
*B83
 10
0.0
 20
0.0
 30
0.0
  0
INSERT
  5
4E4
100
AcDbEntity
  8
TEXT
  6
Continuous
 62
     0
100
AcDbBlockReference
  2
*B84
 10
0.0
 20
0.0
 30
0.0
  0
INSERT
  5
4E9
100
AcDbEntity
  8
TEXT
  6
Continuous
 62
     0
100
AcDbBlockReference
  2
*B85
 10
0.0
 20
0.0
 30
0.0
  0
INSERT
  5
4EE
100
AcDbEntity
  8
TEXT
  6
Continuous
 62
     0
100
AcDbBlockReference
  2
*B86
 10
0.0
 20
0.0
 30
0.0
  0
INSERT
  5
4F3
100
AcDbEntity
  8
TEXT
  6
Continuous
 62
     0
100
AcDbBlockReference
  2
*B87
 10
0.0
 20
0.0
 30
0.0
  0
INSERT
  5
4F8
100
AcDbEntity
  8
TEXT
  6
Continuous
 62
     0
100
AcDbBlockReference
  2
*B88
 10
0.0
 20
0.0
 30
0.0
  0
INSERT
  5
4FD
100
AcDbEntity
  8
TEXT
  6
Continuous
 62
     0
100
AcDbBlockReference
  2
*B89
 10
0.0
 20
0.0
 30
0.0
  0
INSERT
  5
502
100
AcDbEntity
  8
TEXT
  6
Continuous
 62
     0
100
AcDbBlockReference
  2
*B90
 10
0.0
 20
0.0
 30
0.0
  0
INSERT
  5
507
100
AcDbEntity
  8
TEXT
  6
Continuous
 62
     0
100
AcDbBlockReference
  2
*B91
 10
0.0
 20
0.0
 30
0.0
  0
INSERT
  5
50C
100
AcDbEntity
  8
TEXT
  6
Continuous
 62
     0
100
AcDbBlockReference
  2
*B92
 10
0.0
 20
0.0
 30
0.0
  0
INSERT
  5
511
100
AcDbEntity
  8
TEXT
  6
Continuous
 62
     0
100
AcDbBlockReference
  2
*B93
 10
0.0
 20
0.0
 30
0.0
  0
INSERT
  5
516
100
AcDbEntity
  8
TEXT
  6
Continuous
 62
     0
100
AcDbBlockReference
  2
*B94
 10
0.0
 20
0.0
 30
0.0
  0
INSERT
  5
51B
100
AcDbEntity
  8
TEXT
  6
Continuous
 62
     0
100
AcDbBlockReference
  2
*B95
 10
0.0
 20
0.0
 30
0.0
  0
INSERT
  5
520
100
AcDbEntity
  8
TEXT
  6
Continuous
 62
     0
100
AcDbBlockReference
  2
*B96
 10
0.0
 20
0.0
 30
0.0
  0
INSERT
  5
525
100
AcDbEntity
  8
TEXT
  6
Continuous
 62
     0
100
AcDbBlockReference
  2
*B97
 10
0.0
 20
0.0
 30
0.0
  0
INSERT
  5
52A
100
AcDbEntity
  8
TEXT
  6
Continuous
 62
     0
100
AcDbBlockReference
  2
*B98
 10
0.0
 20
0.0
 30
0.0
  0
INSERT
  5
52F
100
AcDbEntity
  8
TEXT
  6
Continuous
 62
     0
100
AcDbBlockReference
  2
*B99
 10
0.0
 20
0.0
 30
0.0
  0
INSERT
  5
534
100
AcDbEntity
  8
TEXT
  6
Continuous
 62
     0
100
AcDbBlockReference
  2
*B100
 10
0.0
 20
0.0
 30
0.0
  0
ENDSEC
  0
SECTION
  2
OBJECTS
  0
DICTIONARY
  5
19
100
AcDbDictionary
280
     0
281
     1
  3
ACAD_GROUP
350
1A
  3
ACAD_MLINESTYLE
350
1B
  3
ACAD_LAYOUT
350
1E
  3
ACAD_PLOTSETTINGS
350
22
  3
ACAD_PLOTSTYLENAME
350
1F
  3
ACAD_WIPEOUT_VARS
350
23
  0
DICTIONARY
  5
1A
102
{ACAD_REACTORS
330
19
102
}
100
AcDbDictionary
280
     0
281
     1
  0
DICTIONARY
  5
1B
102
{ACAD_REACTORS
330
19
102
}
100
AcDbDictionary
280
     0
281
     1
  3
Standard
350
1C
  0
MLINESTYLE
  5
1C
102
{ACAD_REACTORS
330
1B
102
}
100
AcDbMlineStyle
  2
Standard
 70
     0
  3

 62
     0
 51
90.0
 52
90.0
 71
     2
 49
0.5
 62
   256
  6
BYLAYER
 49
-0.5
 62
   256
  6
BYLAYER
  0
ACDBDICTIONARYWDFLT
  5
1F
102
{ACAD_REACTORS
330
19
102
}
100
AcDbDictionary
281
     1
  3
Normal
350
1D
100
AcDbDictionaryWithDefault
340
1D
  0
ACDBPLACEHOLDER
  5
1D
102
{ACAD_REACTORS
330
1F
102
}
  0
LAYOUT
  5
20
102
{ACAD_REACTORS
330
1E
102
}
100
AcDbPlotSettings
  1

  2

  4

  6

 40
0.0
 41
0.0
 42
0.0
 43
0.0
 44
0.0
 45
0.0
 46
0.0
 47
0.0
 48
0.0
 49
0.0
140
0.0
141
0.0
142
1.0
143
1.0
 70
     0
 72
     0
 73
     0
 74
     0
  7

 75
     0
147
1.0
148
0.0
149
0.0
100
AcDbLayout
  1
Model
 70
     0
 71
     0
 10
0.0
 20
0.0
 11
0.0
 21
0.0
 12
0.0
 22
0.0
 32
0.0
 14
0.0
 24
0.0
 34
0.0
 15
0.0
 25
0.0
 35
0.0
146
0.0
 13
0.0
 23
0.0
 33
0.0
 16
0.0
 26
0.0
 36
0.0
 17
0.0
 27
0.0
 37
0.0
 76
     0
330
A
331
0
345
0
346
0
  0
LAYOUT
  5
21
102
{ACAD_REACTORS
330
1E
102
}
100
AcDbPlotSettings
  1

  2

  4

  6

 40
0.0
 41
0.0
 42
0.0
 43
0.0
 44
0.0
 45
0.0
 46
0.0
 47
0.0
 48
0.0
 49
0.0
140
0.0
141
0.0
142
1.0
143
1.0
 70
     0
 72
     0
 73
     0
 74
     0
  7

 75
     0
147
1.0
148
0.0
149
0.0
100
AcDbLayout
  1
Layout1
 70
     0
 71
     0
 10
0.0
 20
0.0
 11
0.0
 21
0.0
 12
0.0
 22
0.0
 32
0.0
 14
0.0
 24
0.0
 34
0.0
 15
0.0
 25
0.0
 35
0.0
146
0.0
 13
0.0
 23
0.0
 33
0.0
 16
0.0
 26
0.0
 36
0.0
 17
0.0
 27
0.0
 37
0.0
 76
     0
330
B
331
0
345
0
346
0
  0
DICTIONARY
  5
1E
102
{ACAD_REACTORS
330
19
102
}
100
AcDbDictionary
280
     0
281
     1
  3
Layout1
350
21
  3
Model
350
20
  0
DICTIONARY
  5
22
102
{ACAD_REACTORS
330
19
102
}
100
AcDbDictionary
280
     0
281
     1
  0
WIPEOUTVARIABLES
  5
23
100
AcDbWipeoutVariables
 70
     1
  0
ENDSEC
  0
EOF
