  0
SECTION
  2
HEADER
  9
$ACADVER
  1
AC1015
  9
$ACADMAINTVER
 70
     6
  9
$DWGCODEPAGE
  3
DOS850
  9
$INSBASE
 10
0.0
 20
0.0
 30
0.0
  9
$EXTMIN
 10
0.0
 20
0.0
 30
0.0
  9
$EXTMAX
 10
297.0
 20
210.0
 30
0.0
  9
$LIMMIN
 10
0.0
 20
0.0
  9
$LIMMAX
 10
297.0
 20
210.0
  9
$ORTHOMODE
 70
     0
  9
$REGENMODE
 70
     1
  9
$FILLMODE
 70
     1
  9
$QTEXTMODE
 70
     0
  9
$MIRRTEXT
 70
     1
  9
$LTSCALE
 40
25.4
  9
$ATTMODE
 70
     1
  9
$TEXTSIZE
 40
3.5
  9
$TRACEWID
 40
0.05
  9
$TEXTSTYLE
  7
Standard
  9
$CLAYER
  8
0
  9
$CELTYPE
  6
Continuous
  9
$CECOLOR
 62
   256
  9
$CELTSCALE
 40
1.0
  9
$DISPSILH
 70
     0
  9
$DIMSCALE
 40
1.0
  9
$DIMASZ
 40
5.0
  9
$DIMEXO
 40
3.0
  9
$DIMDLI
 40
0.38
  9
$DIMRND
 40
0.0
  9
$DIMDLE
 40
0.0
  9
$DIMEXE
 40
2.0
  9
$DIMTP
 40
0.0
  9
$DIMTM
 40
0.0
  9
$DIMTXT
 40
3.5
  9
$DIMCEN
 40
4.0
  9
$DIMTSZ
 40
0.0
  9
$DIMTOL
 70
     0
  9
$DIMLIM
 70
     0
  9
$DIMTIH
 70
     1
  9
$DIMTOH
 70
     1
  9
$DIMSE1
 70
     0
  9
$DIMSE2
 70
     0
  9
$DIMTAD
 70
     0
  9
$DIMZIN
 70
     0
  9
$DIMBLK
  1

  9
$DIMASO
 70
     1
  9
$DIMSHO
 70
     1
  9
$DIMPOST
  1

  9
$DIMAPOST
  1

  9
$DIMALT
 70
     0
  9
$DIMALTD
 70
     2
  9
$DIMALTF
 40
25.4
  9
$DIMLFAC
 40
1.0
  9
$DIMTOFL
 70
     0
  9
$DIMTVP
 40
0.0
  9
$DIMTIX
 70
     0
  9
$DIMSOXD
 70
     0
  9
$DIMSAH
 70
     0
  9
$DIMBLK1
  1

  9
$DIMBLK2
  1

  9
$DIMSTYLE
  2
Standard
  9
$DIMCLRD
 70
     0
  9
$DIMCLRE
 70
     0
  9
$DIMCLRT
 70
     0
  9
$DIMTFAC
 40
1.0
  9
$DIMGAP
 40
1.0
  9
$DIMJUST
 70
     0
  9
$DIMSD1
 70
     0
  9
$DIMSD2
 70
     0
  9
$DIMTOLJ
 70
     1
  9
$DIMTZIN
 70
     0
  9
$DIMALTZ
 70
     0
  9
$DIMALTTZ
 70
     0
  9
$DIMUPT
 70
     0
  9
$DIMDEC
 70
     4
  9
$DIMTDEC
 70
     4
  9
$DIMALTU
 70
     2
  9
$DIMALTTD
 70
     2
  9
$DIMTXSTY
  7
Standard
  9
$DIMAUNIT
 70
     0
  9
$DIMADEC
 70
     0
  9
$DIMALTRND
 40
0.0
  9
$DIMAZIN
 70
     0
  9
$DIMDSEP
 70
     0
  9
$DIMATFIT
 70
     3
  9
$DIMFRAC
 70
     0
  9
$DIMLDRBLK
  1

  9
$DIMLUNIT
 70
     2
  9
$DIMLWD
 70
     0
  9
$DIMLWE
 70
     0
  9
$DIMTMOVE
 70
     0
  9
$LUNITS
 70
     2
  9
$LUPREC
 70
     4
  9
$SKETCHINC
 40
0.1
  9
$FILLETRAD
 40
0.0
  9
$AUNITS
 70
     0
  9
$AUPREC
 70
     0
  9
$MENU
  1
acad
  9
$ELEVATION
 40
0.0
  9
$PELEVATION
 40
0.0
  9
$THICKNESS
 40
0.0
  9
$LIMCHECK
 70
     0
  9
$CHAMFERA
 40
0.0
  9
$CHAMFERB
 40
0.0
  9
$CHAMFERC
 40
0.0
  9
$CHAMFERD
 40
0.0
  9
$SKPOLY
 70
     0
  9
$TDCREATE
 40
0.000000000
  9
$TDUCREATE
 40
0.000000000
  9
$TDUPDATE
 40
0.000000000
  9
$TDUUPDATE
 40
0.000000000
  9
$TDINDWG
 40
0.0000000000
  9
$TDUSRTIMER
 40
0.0000000000
  9
$USRTIMER
 70
     1
  9
$ANGBASE
 50
0.0
  9
$ANGDIR
 70
     0
  9
$PDMODE
 70
     0
  9
$PDSIZE
 40
0.0
  9
$PLINEWID
 40
0.0
  9
$SPLFRAME
 70
     0
  9
$SPLINETYPE
 70
     6
  9
$SPLINESEGS
 70
     8
  9
$HANDSEED
  5
718
  9
$SURFTAB1
 70
     6
  9
$SURFTAB2
 70
     6
  9
$SURFTYPE
 70
     6
  9
$SURFU
 70
     6
  9
$SURFV
 70
     6
  9
$UCSBASE
  2

  9
$UCSNAME
  2

  9
$UCSORG
 10
0.0
 20
0.0
 30
0.0
  9
$UCSXDIR
 10
1.0
 20
0.0
 30
0.0
  9
$UCSYDIR
 10
0.0
 20
1.0
 30
0.0
  9
$UCSORTHOREF
  2

  9
$UCSORTHOVIEW
 70
     0
  9
$UCSORGTOP
 10
0.0
 20
0.0
 30
0.0
  9
$UCSORGBOTTOM
 10
0.0
 20
0.0
 30
0.0
  9
$UCSORGLEFT
 10
0.0
 20
0.0
 30
0.0
  9
$UCSORGRIGHT
 10
0.0
 20
0.0
 30
0.0
  9
$UCSORGFRONT
 10
0.0
 20
0.0
 30
0.0
  9
$UCSORGBACK
 10
0.0
 20
0.0
 30
0.0
  9
$PUCSBASE
  2

  9
$PUCSNAME
  2

  9
$PUCSORG
 10
0.0
 20
0.0
 30
0.0
  9
$PUCSXDIR
 10
1.0
 20
0.0
 30
0.0
  9
$PUCSYDIR
 10
0.0
 20
1.0
 30
0.0
  9
$PUCSORTHOREF
  2

  9
$PUCSORTHOVIEW
 70
     0
  9
$PUCSORGTOP
 10
0.0
 20
0.0
 30
0.0
  9
$PUCSORGBOTTOM
 10
0.0
 20
0.0
 30
0.0
  9
$PUCSORGLEFT
 10
0.0
 20
0.0
 30
0.0
  9
$PUCSORGRIGHT
 10
0.0
 20
0.0
 30
0.0
  9
$PUCSORGFRONT
 10
0.0
 20
0.0
 30
0.0
  9
$PUCSORGBACK
 10
0.0
 20
0.0
 30
0.0
  9
$USERI1
 70
     0
  9
$USERI2
 70
     0
  9
$USERI3
 70
     0
  9
$USERI4
 70
     0
  9
$USERI5
 70
     0
  9
$USERR1
 40
0.0
  9
$USERR2
 40
0.0
  9
$USERR3
 40
0.0
  9
$USERR4
 40
0.0
  9
$USERR5
 40
0.0
  9
$WORLDVIEW
 70
     1
  9
$SHADEDGE
 70
     3
  9
$SHADEDIF
 70
    70
  9
$TILEMODE
 70
     1
  9
$MAXACTVP
 70
    16
  9
$PINSBASE
 10
0.0
 20
0.0
 30
0.0
  9
$PLIMCHECK
 70
     0
  9
$PEXTMIN
 10
1.000000E+20
 20
1.000000E+20
 30
1.000000E+20
  9
$PEXTMAX
 10
-1.000000E+20
 20
-1.000000E+20
 30
-1.000000E+20
  9
$PLIMMIN
 10
0.0
 20
0.0
  9
$PLIMMAX
 10
297.0
 20
210.0
  9
$UNITMODE
 70
     0
  9
$VISRETAIN
 70
     0
  9
$PLINEGEN
 70
     1
  9
$PSLTSCALE
 70
     0
  9
$TREEDEPTH
 70
  3020
  9
$CMLSTYLE
  2
Standard
  9
$CMLJUST
 70
     0
  9
$CMLSCALE
 40
1.0
  9
$PROXYGRAPHICS
 70
     0
  9
$MEASUREMENT
 70
     0
  9
$CELWEIGHT
370
     0
  9
$ENDCAPS
280
     0
  9
$JOINSTYLE
280
     0
  9
$LWDISPLAY
290
     0
  9
$INSUNITS
 70
     0
  9
$HYPERLINKBASE
  1

  9
$XEDIT
290
     1
  9
$CEPSNTYPE
380
     0
  9
$PSTYLEMODE
290
     0
  9
$FINGERPRINTGUID
  2

  9
$VERSIONGUID
  2

  9
$EXTNAMES
290
     1
  9
$PSVPSCALE
 40
0.0
  0
ENDSEC
  0
SECTION
  2
CLASSES
  0
CLASS
  1
LWPOLYLINE
  2
AcDbPolyline
  3
"AutoCAD"
 90
        0
280
     0
281
     1
  0
CLASS
  1
IMAGE
  2
AcDbRasterImage
  3
ISM
 90
      127
280
     0
281
     1
  0
CLASS
  1
OLE2FRAME
  2
AcDbOle2Frame
  3
""
 90
        0
280
     0
281
     1
  0
CLASS
  1
HATCH
  2
AcDbHatch
  3
"ACAD_SEDONA"
 90
        0
280
     0
281
     1
  0
CLASS
  1
DICTIONARYVAR
  2
AcDbDictionaryVar
  3
"AutoCAD"
 90
        0
280
     0
281
     0
  0
CLASS
  1
RASTERVARIABLES
  2
AcDbRasterVariables
  3
ISM
 90
        0
280
     0
281
     0
  0
CLASS
  1
IMAGEDEF
  2
AcDbRasterImageDef
  3
ISM
 90
        0
280
     0
281
     0
  0
CLASS
  1
IMAGEDEF_REACTOR
  2
AcDbRasterImageDefReactor
  3
ISM
 90
        1
280
     0
281
     0
  0
CLASS
  1
IDBUFFER
  2
AcDbIdBuffer
  3
"Acad"
 90
        0
280
     0
281
     0
  0
CLASS
  1
SPATIAL_FILTER
  2
AcDbSpatialFilter
  3
"Acad"
 90
        0
280
     0
281
     0
  0
CLASS
  1
XRECORD
  2
AcDbXrecord
  3
"<Built In>"
 90
        0
280
     0
281
     0
  0
CLASS
  1
SORTENTSTABLE
  2
AcDbSortentsTable
  3
"AutoCAD"
 90
        0
280
     0
281
     0
  0
CLASS
  1
LAYER_INDEX
  2
AcDbLayerIndex
  3
"Acad"
 90
        0
280
     0
281
     0
  0
CLASS
  1
SPATIAL_INDEX
  2
AcDbSpatialIndex
  3
"Acad"
 90
        0
280
     0
281
     0
  0
CLASS
  1
OBJECT_PTR
  2
CAseDLPNTableRecord
  3
"ASE-LPNTableRecord"
 90
        1
280
     0
281
     0
  0
CLASS
  1
LAYOUT
  2
AcDbLayout
  3
"AutoCAD 2000"
 90
        1
280
     0
281
     0
  0
CLASS
  1
PLOTSETTINGS
  2
AcDbPlotSettings
  3
"AutoCAD 2000"
 90
        1
280
     0
281
     0
  0
CLASS
  1
ACDBDICTIONARYWDFLT
  2
AcDbDictionaryWithDefault
  3
"AutoCAD 2000"
 90
        1
280
     0
281
     0
  0
CLASS
  1
ACDBPLACEHOLDER
  2
AcDbPlaceHolder
  3
"AutoCAD 2000"
 90
        1
280
     0
281
     0
  0
CLASS
  1
VBA_PROJECT
  2
AcDbVbaProject
  3
"acadvba"
 90
        1
280
     0
281
     0
  0
CLASS
  1
WIPEOUT
  2
AcDbWipeout
  3
WipeOut|AutoCAD Express Tool|expresstools@autodesk.com
 90
      127
280
     0
281
     1
  0
CLASS
  1
WIPEOUTVARIABLES
  2
AcDbWipeoutVariables
  3
WipeOut|AutoCAD Express Tool|expresstools@autodesk.com
 90
        0
280
     0
281
     0
  0
CLASS
  1
RTEXT
  2
RText
  3
RText|AutoCAD Express Tool|expresstools@autodesk.com
 90
        0
280
     0
281
     1
  0
CLASS
  1
ARCALIGNEDTEXT
  2
AcDbArcAlignedText
  3
ATEXT|AutoCAD Express Tool|expresstools@autodesk.com
 90
        0
280
     0
281
     1
  0
ENDSEC
  0
SECTION
  2
TABLES
  0
TABLE
  2
VPORT
  5
7
100
AcDbSymbolTable
 70
     1
  0
VPORT
  5
15
100
AcDbSymbolTableRecord
100
AcDbViewportTableRecord
  2
*ACTIVE
 70
     0
 10
0.0
 20
0.0
 11
1.0
 21
1.0
 12
6.591288
 22
4.579184
 13
0.0
 23
0.0
 14
1.0
 24
1.0
 15
0.0
 25
0.0
 16
0.0
 26
0.0
 36
1.0
 17
0.0
 27
0.0
 37
0.0
 40
9.158369
 41
0.688564
 42
50.0
 43
0.0
 44
0.0
 50
0.0
 51
0.0
 71
     0
 72
   100
 73
     1
 74
     1
 75
     0
 76
     0
 77
     0
 78
     0
281
     0
 65
     0
110
0.0
120
0.0
130
0.0
111
1.0
121
0.0
131
0.0
112
0.0
122
1.0
132
0.0
345
0
346
0
 79
     0
146
0.0
  0
ENDTAB
  0
TABLE
  2
LTYPE
  5
4
100
AcDbSymbolTable
 70
     7
  0
LTYPE
  5
11
100
AcDbSymbolTableRecord
100
AcDbLinetypeTableRecord
  2
ByBlock
 70
    64
  3

 72
    65
 73
     0
 40
0.0
  0
LTYPE
  5
12
100
AcDbSymbolTableRecord
100
AcDbLinetypeTableRecord
  2
ByLayer
 70
    64
  3

 72
    65
 73
     0
 40
0.0
  0
LTYPE
  5
13
100
AcDbSymbolTableRecord
100
AcDbLinetypeTableRecord
  2
Continuous
 70
    64
  3
Solid line
 72
    65
 73
     0
 40
0.0
  0
LTYPE
  5
24
100
AcDbSymbolTableRecord
100
AcDbLinetypeTableRecord
  2
HIDDEN
 70
    64
  3
_ _ _ _ _ _ _ _ _ _ _ _ _ _ _ _ _ _ _ _ _ _ _ _
 72
    65
 73
     2
 40
0.1875
 49
0.125
 74
     0
 49
-0.0625
 74
     0
  0
LTYPE
  5
25
100
AcDbSymbolTableRecord
100
AcDbLinetypeTableRecord
  2
DOTTED
 70
    64
  3
...............................................
 72
    65
 73
     2
 40
0.125
 49
0.0
 74
     0
 49
-0.125
 74
     0
  0
LTYPE
  5
26
100
AcDbSymbolTableRecord
100
AcDbLinetypeTableRecord
  2
CENTER
 70
    64
  3
____ _ ____ _ ____ _ ____ _ ____ _ ____ _ ____ 
 72
    65
 73
     4
 40
1.125
 49
0.75
 74
     0
 49
-0.125
 74
     0
 49
0.125
 74
     0
 49
-0.125
 74
     0
  0
LTYPE
  5
27
100
AcDbSymbolTableRecord
100
AcDbLinetypeTableRecord
  2
PHANTOM
 70
    64
  3
______  __  __  ______  __  __  ______  __  __ 
 72
    65
 73
     6
 40
1.25
 49
0.625
 74
     0
 49
-0.125
 74
     0
 49
0.125
 74
     0
 49
-0.125
 74
     0
 49
0.125
 74
     0
 49
-0.125
 74
     0
  0
ENDTAB
  0
TABLE
  2
LAYER
  5
2
100
AcDbSymbolTable
 70
     2
  0
LAYER
  5
14
100
AcDbSymbolTableRecord
100
AcDbLayerTableRecord
  2
0
 70
     0
 62
     7
  6
Continuous
290
     1
370
    -3
390
1D
  0
LAYER
  5
28
100
AcDbSymbolTableRecord
100
AcDbLayerTableRecord
  2
TEXT
 70
     0
 62
     8
  6
Continuous
290
     1
370
    -3
390
1F
  0
ENDTAB
  0
TABLE
  2
STYLE
  5
3
100
AcDbSymbolTable
 70
     1
  0
STYLE
  5
17
100
AcDbSymbolTableRecord
100
AcDbTextStyleTableRecord
  2
Standard
 70
     0
 40
0.0
 41
1.0
 50
0.0
 71
     0
 42
0.0
  3
txt
  4

  0
ENDTAB
  0
TABLE
  2
VIEW
  5
5
100
AcDbSymbolTable
 70
     0
  0
ENDTAB
  0
TABLE
  2
UCS
  5
6
100
AcDbSymbolTable
 70
     0
  0
ENDTAB
  0
TABLE
  2
APPID
  5
8
100
AcDbSymbolTable
 70
     1
  0
APPID
  5
16
100
AcDbSymbolTableRecord
100
AcDbRegAppTableRecord
  2
ACAD
 70
     0
  0
ENDTAB
  0
TABLE
  2
DIMSTYLE
  5
9
100
AcDbSymbolTable
 70
     1
100
AcDbDimStyleTable
 71
     0
  0
DIMSTYLE
105
18
100
AcDbSymbolTableRecord
100
AcDbDimStyleTableRecord
  2
Standard
 70
     0
  3

  4

 40
1.0
 41
0.18
 42
0.0625
 43
0.38
 44
0.18
 45
0.0
 46
0.0
 47
0.0
 48
0.0
 71
     0
 72
     0
 73
     1
 74
     1
 75
     0
 76
     0
 77
     0
 78
     0
 79
     0
140
0.18
141
0.09
142
0.0
143
25.4
144
1.0
145
0.0
146
1.0
147
0.09
148
0.0
170
     0
171
     2
172
     0
173
     0
174
     0
175
     0
176
     0
177
     0
178
     0
179
     0
271
     4
272
     4
273
     2
274
     2
275
     0
276
     0
277
     2
278
    46
279
     0
280
     0
281
     0
282
     0
283
     1
284
     0
285
     0
286
     0
288
     0
340
17
341
0
342
0
343
0
344
0
371
    -2
372
    -2
  0
ENDTAB
  0
TABLE
  2
BLOCK_RECORD
  5
1
100
AcDbSymbolTable
 70
   107
  0
BLOCK_RECORD
  5
A
100
AcDbSymbolTableRecord
100
AcDbBlockTableRecord
  2
*MODEL_SPACE
340
20
  0
BLOCK_RECORD
  5
B
100
AcDbSymbolTableRecord
100
AcDbBlockTableRecord
  2
*PAPER_SPACE
340
21
  0
BLOCK_RECORD
  5
29
100
AcDbSymbolTableRecord
100
AcDbBlockTableRecord
  2
*B0
340
0
  0
BLOCK_RECORD
  5
31
100
AcDbSymbolTableRecord
100
AcDbBlockTableRecord
  2
*B1
340
0
  0
BLOCK_RECORD
  5
34
100
AcDbSymbolTableRecord
100
AcDbBlockTableRecord
  2
*B2
340
0
  0
BLOCK_RECORD
  5
1EE
100
AcDbSymbolTableRecord
100
AcDbBlockTableRecord
  2
*B3
340
0
  0
BLOCK_RECORD
  5
1F8
100
AcDbSymbolTableRecord
100
AcDbBlockTableRecord
  2
*B4
340
0
  0
BLOCK_RECORD
  5
407
100
AcDbSymbolTableRecord
100
AcDbBlockTableRecord
  2
*B5
340
0
  0
BLOCK_RECORD
  5
40D
100
AcDbSymbolTableRecord
100
AcDbBlockTableRecord
  2
*B6
340
0
  0
BLOCK_RECORD
  5
418
100
AcDbSymbolTableRecord
100
AcDbBlockTableRecord
  2
*B7
340
0
  0
BLOCK_RECORD
  5
41B
100
AcDbSymbolTableRecord
100
AcDbBlockTableRecord
  2
*B8
340
0
  0
BLOCK_RECORD
  5
422
100
AcDbSymbolTableRecord
100
AcDbBlockTableRecord
  2
*B9
340
0
  0
BLOCK_RECORD
  5
429
100
AcDbSymbolTableRecord
100
AcDbBlockTableRecord
  2
*B10
340
0
  0
BLOCK_RECORD
  5
430
100
AcDbSymbolTableRecord
100
AcDbBlockTableRecord
  2
*B11
340
0
  0
BLOCK_RECORD
  5
437
100
AcDbSymbolTableRecord
100
AcDbBlockTableRecord
  2
*B12
340
0
  0
BLOCK_RECORD
  5
43E
100
AcDbSymbolTableRecord
100
AcDbBlockTableRecord
  2
*B13
340
0
  0
BLOCK_RECORD
  5
445
100
AcDbSymbolTableRecord
100
AcDbBlockTableRecord
  2
*B14
340
0
  0
BLOCK_RECORD
  5
44C
100
AcDbSymbolTableRecord
100
AcDbBlockTableRecord
  2
*B15
340
0
  0
BLOCK_RECORD
  5
453
100
AcDbSymbolTableRecord
100
AcDbBlockTableRecord
  2
*B16
340
0
  0
BLOCK_RECORD
  5
45A
100
AcDbSymbolTableRecord
100
AcDbBlockTableRecord
  2
*B17
340
0
  0
BLOCK_RECORD
  5
461
100
AcDbSymbolTableRecord
100
AcDbBlockTableRecord
  2
*B18
340
0
  0
BLOCK_RECORD
  5
468
100
AcDbSymbolTableRecord
100
AcDbBlockTableRecord
  2
*B19
340
0
  0
BLOCK_RECORD
  5
46F
100
AcDbSymbolTableRecord
100
AcDbBlockTableRecord
  2
*B20
340
0
  0
BLOCK_RECORD
  5
476
100
AcDbSymbolTableRecord
100
AcDbBlockTableRecord
  2
*B21
340
0
  0
BLOCK_RECORD
  5
47D
100
AcDbSymbolTableRecord
100
AcDbBlockTableRecord
  2
*B22
340
0
  0
BLOCK_RECORD
  5
484
100
AcDbSymbolTableRecord
100
AcDbBlockTableRecord
  2
*B23
340
0
  0
BLOCK_RECORD
  5
48B
100
AcDbSymbolTableRecord
100
AcDbBlockTableRecord
  2
*B24
340
0
  0
BLOCK_RECORD
  5
492
100
AcDbSymbolTableRecord
100
AcDbBlockTableRecord
  2
*B25
340
0
  0
BLOCK_RECORD
  5
497
100
AcDbSymbolTableRecord
100
AcDbBlockTableRecord
  2
*B26
340
0
  0
BLOCK_RECORD
  5
49D
100
AcDbSymbolTableRecord
100
AcDbBlockTableRecord
  2
*B27
340
0
  0
BLOCK_RECORD
  5
4A2
100
AcDbSymbolTableRecord
100
AcDbBlockTableRecord
  2
*B28
340
0
  0
BLOCK_RECORD
  5
4A7
100
AcDbSymbolTableRecord
100
AcDbBlockTableRecord
  2
*B29
340
0
  0
BLOCK_RECORD
  5
4AC
100
AcDbSymbolTableRecord
100
AcDbBlockTableRecord
  2
*B30
340
0
  0
BLOCK_RECORD
  5
4C4
100
AcDbSymbolTableRecord
100
AcDbBlockTableRecord
  2
*B31
340
0
  0
BLOCK_RECORD
  5
4CF
100
AcDbSymbolTableRecord
100
AcDbBlockTableRecord
  2
*B32
340
0
  0
BLOCK_RECORD
  5
4DA
100
AcDbSymbolTableRecord
100
AcDbBlockTableRecord
  2
*B33
340
0
  0
BLOCK_RECORD
  5
4E3
100
AcDbSymbolTableRecord
100
AcDbBlockTableRecord
  2
*B34
340
0
  0
BLOCK_RECORD
  5
4EE
100
AcDbSymbolTableRecord
100
AcDbBlockTableRecord
  2
*B35
340
0
  0
BLOCK_RECORD
  5
4F3
100
AcDbSymbolTableRecord
100
AcDbBlockTableRecord
  2
*B36
340
0
  0
BLOCK_RECORD
  5
4FC
100
AcDbSymbolTableRecord
100
AcDbBlockTableRecord
  2
*B37
340
0
  0
BLOCK_RECORD
  5
507
100
AcDbSymbolTableRecord
100
AcDbBlockTableRecord
  2
*B38
340
0
  0
BLOCK_RECORD
  5
50C
100
AcDbSymbolTableRecord
100
AcDbBlockTableRecord
  2
*B39
340
0
  0
BLOCK_RECORD
  5
511
100
AcDbSymbolTableRecord
100
AcDbBlockTableRecord
  2
*B40
340
0
  0
BLOCK_RECORD
  5
517
100
AcDbSymbolTableRecord
100
AcDbBlockTableRecord
  2
*B41
340
0
  0
BLOCK_RECORD
  5
51D
100
AcDbSymbolTableRecord
100
AcDbBlockTableRecord
  2
*B42
340
0
  0
BLOCK_RECORD
  5
523
100
AcDbSymbolTableRecord
100
AcDbBlockTableRecord
  2
*B43
340
0
  0
BLOCK_RECORD
  5
534
100
AcDbSymbolTableRecord
100
AcDbBlockTableRecord
  2
*B44
340
0
  0
BLOCK_RECORD
  5
543
100
AcDbSymbolTableRecord
100
AcDbBlockTableRecord
  2
*B45
340
0
  0
BLOCK_RECORD
  5
549
100
AcDbSymbolTableRecord
100
AcDbBlockTableRecord
  2
*B46
340
0
  0
BLOCK_RECORD
  5
54E
100
AcDbSymbolTableRecord
100
AcDbBlockTableRecord
  2
*B47
340
0
  0
BLOCK_RECORD
  5
553
100
AcDbSymbolTableRecord
100
AcDbBlockTableRecord
  2
*B48
340
0
  0
BLOCK_RECORD
  5
558
100
AcDbSymbolTableRecord
100
AcDbBlockTableRecord
  2
*B49
340
0
  0
BLOCK_RECORD
  5
58C
100
AcDbSymbolTableRecord
100
AcDbBlockTableRecord
  2
*B50
340
0
  0
BLOCK_RECORD
  5
591
100
AcDbSymbolTableRecord
100
AcDbBlockTableRecord
  2
*B51
340
0
  0
BLOCK_RECORD
  5
596
100
AcDbSymbolTableRecord
100
AcDbBlockTableRecord
  2
*B52
340
0
  0
BLOCK_RECORD
  5
59F
100
AcDbSymbolTableRecord
100
AcDbBlockTableRecord
  2
*B53
340
0
  0
BLOCK_RECORD
  5
5A4
100
AcDbSymbolTableRecord
100
AcDbBlockTableRecord
  2
*B54
340
0
  0
BLOCK_RECORD
  5
5A9
100
AcDbSymbolTableRecord
100
AcDbBlockTableRecord
  2
*B55
340
0
  0
BLOCK_RECORD
  5
5AE
100
AcDbSymbolTableRecord
100
AcDbBlockTableRecord
  2
*B56
340
0
  0
BLOCK_RECORD
  5
5B4
100
AcDbSymbolTableRecord
100
AcDbBlockTableRecord
  2
*B57
340
0
  0
BLOCK_RECORD
  5
5EF
100
AcDbSymbolTableRecord
100
AcDbBlockTableRecord
  2
*B58
340
0
  0
BLOCK_RECORD
  5
5FD
100
AcDbSymbolTableRecord
100
AcDbBlockTableRecord
  2
*B59
340
0
  0
BLOCK_RECORD
  5
60F
100
AcDbSymbolTableRecord
100
AcDbBlockTableRecord
  2
*B60
340
0
  0
BLOCK_RECORD
  5
61E
100
AcDbSymbolTableRecord
100
AcDbBlockTableRecord
  2
*B61
340
0
  0
BLOCK_RECORD
  5
629
100
AcDbSymbolTableRecord
100
AcDbBlockTableRecord
  2
*B62
340
0
  0
BLOCK_RECORD
  5
62E
100
AcDbSymbolTableRecord
100
AcDbBlockTableRecord
  2
*B63
340
0
  0
BLOCK_RECORD
  5
633
100
AcDbSymbolTableRecord
100
AcDbBlockTableRecord
  2
*B64
340
0
  0
BLOCK_RECORD
  5
638
100
AcDbSymbolTableRecord
100
AcDbBlockTableRecord
  2
*B65
340
0
  0
BLOCK_RECORD
  5
63E
100
AcDbSymbolTableRecord
100
AcDbBlockTableRecord
  2
*B66
340
0
  0
BLOCK_RECORD
  5
644
100
AcDbSymbolTableRecord
100
AcDbBlockTableRecord
  2
*B67
340
0
  0
BLOCK_RECORD
  5
64A
100
AcDbSymbolTableRecord
100
AcDbBlockTableRecord
  2
*B68
340
0
  0
BLOCK_RECORD
  5
650
100
AcDbSymbolTableRecord
100
AcDbBlockTableRecord
  2
*B69
340
0
  0
BLOCK_RECORD
  5
656
100
AcDbSymbolTableRecord
100
AcDbBlockTableRecord
  2
*B70
340
0
  0
BLOCK_RECORD
  5
65C
100
AcDbSymbolTableRecord
100
AcDbBlockTableRecord
  2
*B71
340
0
  0
BLOCK_RECORD
  5
662
100
AcDbSymbolTableRecord
100
AcDbBlockTableRecord
  2
*B72
340
0
  0
BLOCK_RECORD
  5
668
100
AcDbSymbolTableRecord
100
AcDbBlockTableRecord
  2
*B73
340
0
  0
BLOCK_RECORD
  5
66E
100
AcDbSymbolTableRecord
100
AcDbBlockTableRecord
  2
*B74
340
0
  0
BLOCK_RECORD
  5
674
100
AcDbSymbolTableRecord
100
AcDbBlockTableRecord
  2
*B75
340
0
  0
BLOCK_RECORD
  5
67A
100
AcDbSymbolTableRecord
100
AcDbBlockTableRecord
  2
*B76
340
0
  0
BLOCK_RECORD
  5
680
100
AcDbSymbolTableRecord
100
AcDbBlockTableRecord
  2
*B77
340
0
  0
BLOCK_RECORD
  5
686
100
AcDbSymbolTableRecord
100
AcDbBlockTableRecord
  2
*B78
340
0
  0
BLOCK_RECORD
  5
68C
100
AcDbSymbolTableRecord
100
AcDbBlockTableRecord
  2
*B79
340
0
  0
BLOCK_RECORD
  5
691
100
AcDbSymbolTableRecord
100
AcDbBlockTableRecord
  2
*B80
340
0
  0
BLOCK_RECORD
  5
696
100
AcDbSymbolTableRecord
100
AcDbBlockTableRecord
  2
*B81
340
0
  0
BLOCK_RECORD
  5
69B
100
AcDbSymbolTableRecord
100
AcDbBlockTableRecord
  2
*B82
340
0
  0
BLOCK_RECORD
  5
6A0
100
AcDbSymbolTableRecord
100
AcDbBlockTableRecord
  2
*B83
340
0
  0
BLOCK_RECORD
  5
6A5
100
AcDbSymbolTableRecord
100
AcDbBlockTableRecord
  2
*B84
340
0
  0
BLOCK_RECORD
  5
6AA
100
AcDbSymbolTableRecord
100
AcDbBlockTableRecord
  2
*B85
340
0
  0
BLOCK_RECORD
  5
6AF
100
AcDbSymbolTableRecord
100
AcDbBlockTableRecord
  2
*B86
340
0
  0
BLOCK_RECORD
  5
6B4
100
AcDbSymbolTableRecord
100
AcDbBlockTableRecord
  2
*B87
340
0
  0
BLOCK_RECORD
  5
6B9
100
AcDbSymbolTableRecord
100
AcDbBlockTableRecord
  2
*B88
340
0
  0
BLOCK_RECORD
  5
6BE
100
AcDbSymbolTableRecord
100
AcDbBlockTableRecord
  2
*B89
340
0
  0
BLOCK_RECORD
  5
6C3
100
AcDbSymbolTableRecord
100
AcDbBlockTableRecord
  2
*B90
340
0
  0
BLOCK_RECORD
  5
6C8
100
AcDbSymbolTableRecord
100
AcDbBlockTableRecord
  2
*B91
340
0
  0
BLOCK_RECORD
  5
6CD
100
AcDbSymbolTableRecord
100
AcDbBlockTableRecord
  2
*B92
340
0
  0
BLOCK_RECORD
  5
6D2
100
AcDbSymbolTableRecord
100
AcDbBlockTableRecord
  2
*B93
340
0
  0
BLOCK_RECORD
  5
6D7
100
AcDbSymbolTableRecord
100
AcDbBlockTableRecord
  2
*B94
340
0
  0
BLOCK_RECORD
  5
6DC
100
AcDbSymbolTableRecord
100
AcDbBlockTableRecord
  2
*B95
340
0
  0
BLOCK_RECORD
  5
6E1
100
AcDbSymbolTableRecord
100
AcDbBlockTableRecord
  2
*B96
340
0
  0
BLOCK_RECORD
  5
6E6
100
AcDbSymbolTableRecord
100
AcDbBlockTableRecord
  2
*B97
340
0
  0
BLOCK_RECORD
  5
6EB
100
AcDbSymbolTableRecord
100
AcDbBlockTableRecord
  2
*B98
340
0
  0
BLOCK_RECORD
  5
6F0
100
AcDbSymbolTableRecord
100
AcDbBlockTableRecord
  2
*B99
340
0
  0
BLOCK_RECORD
  5
6F5
100
AcDbSymbolTableRecord
100
AcDbBlockTableRecord
  2
*B100
340
0
  0
BLOCK_RECORD
  5
6FA
100
AcDbSymbolTableRecord
100
AcDbBlockTableRecord
  2
*B101
340
0
  0
BLOCK_RECORD
  5
6FF
100
AcDbSymbolTableRecord
100
AcDbBlockTableRecord
  2
*B102
340
0
  0
BLOCK_RECORD
  5
704
100
AcDbSymbolTableRecord
100
AcDbBlockTableRecord
  2
*B103
340
0
  0
BLOCK_RECORD
  5
709
100
AcDbSymbolTableRecord
100
AcDbBlockTableRecord
  2
*B104
340
0
  0
BLOCK_RECORD
  5
70E
100
AcDbSymbolTableRecord
100
AcDbBlockTableRecord
  2
*B105
340
0
  0
BLOCK_RECORD
  5
713
100
AcDbSymbolTableRecord
100
AcDbBlockTableRecord
  2
*B106
340
0
  0
ENDTAB
  0
ENDSEC
  0
SECTION
  2
BLOCKS
  0
BLOCK
  5
D
100
AcDbEntity
  8
0
100
AcDbBlockBegin
  2
*MODEL_SPACE
 70
     0
 10
0.0
 20
0.0
 30
0.0
  3
*MODEL_SPACE
  1

  0
ENDBLK
  5
E
100
AcDbEntity
  8
0
100
AcDbBlockEnd
  0
BLOCK
  5
F
100
AcDbEntity
 67
     1
  8
0
100
AcDbBlockBegin
  2
*PAPER_SPACE
 70
     0
 10
0.0
 20
0.0
 30
0.0
  3
*PAPER_SPACE
  1

  0
ENDBLK
  5
10
100
AcDbEntity
 67
     1
  8
0
100
AcDbBlockEnd
  0
BLOCK
  5
2A
100
AcDbEntity
  8
0
100
AcDbBlockBegin
  2
*B0
 70
     0
 10
0.0
 20
0.0
 30
0.0
  3
*B0
  1

  0
LINE
  5
2B
100
AcDbEntity
  8
0
  6
Continuous
 62
   172
100
AcDbLine
 10
129.02
 20
40.64
 30
0.0
 11
129.02
 21
32.69
 31
0.0
  0
LINE
  5
2C
100
AcDbEntity
  8
0
  6
Continuous
 62
   172
100
AcDbLine
 10
133.52
 20
40.64
 30
0.0
 11
133.52
 21
32.69
 31
0.0
  0
LINE
  5
2D
100
AcDbEntity
  8
0
  6
Continuous
 62
   172
100
AcDbLine
 10
173.5
 20
40.64
 30
0.0
 11
173.5
 21
32.69
 31
0.0
  0
LINE
  5
2E
100
AcDbEntity
  8
0
  6
Continuous
 62
   172
100
AcDbLine
 10
169.0
 20
40.64
 30
0.0
 11
169.0
 21
32.69
 31
0.0
  0
ENDBLK
  5
2F
100
AcDbEntity
  8
0
100
AcDbBlockEnd
  0
BLOCK
  5
32
100
AcDbEntity
  8
0
100
AcDbBlockBegin
  2
*B1
 70
     0
 10
0.0
 20
0.0
 30
0.0
  3
*B1
  1

  0
ENDBLK
  5
33
100
AcDbEntity
  8
0
100
AcDbBlockEnd
  0
BLOCK
  5
35
100
AcDbEntity
  8
0
100
AcDbBlockBegin
  2
*B2
 70
     0
 10
0.0
 20
0.0
 30
0.0
  3
*B2
  1

  0
ARC
  5
36
100
AcDbEntity
  8
0
  6
Continuous
 62
   174
100
AcDbCircle
 10
63.279904
 20
55.693777
 30
0.0
 40
3.4
100
AcDbArc
 50
-270.0
 51
-90.0
  0
ARC
  5
37
100
AcDbEntity
  8
0
  6
Continuous
 62
   174
100
AcDbCircle
 10
63.279904
 20
55.693777
 30
0.0
 40
3.4
100
AcDbArc
 50
-90.0
 51
90.0
  0
ARC
  5
38
100
AcDbEntity
  8
0
  6
Continuous
 62
   174
100
AcDbCircle
 10
239.279904
 20
55.693777
 30
0.0
 40
3.4
100
AcDbArc
 50
-90.0
 51
90.0
  0
ARC
  5
39
100
AcDbEntity
  8
0
  6
Continuous
 62
   174
100
AcDbCircle
 10
239.279904
 20
55.693777
 30
0.0
 40
3.4
100
AcDbArc
 50
-270.0
 51
-90.0
  0
ARC
  5
3A
100
AcDbEntity
  8
0
  6
Continuous
 62
   174
100
AcDbCircle
 10
63.279904
 20
55.693777
 30
0.0
 40
3.0
100
AcDbArc
 50
-217.286546
 51
-52.713454
  0
ARC
  5
3B
100
AcDbEntity
  8
0
  6
Continuous
 62
   174
100
AcDbCircle
 10
239.279904
 20
55.693777
 30
0.0
 40
3.0
100
AcDbArc
 50
-37.286546
 51
127.286546
  0
LINE
  5
3C
100
AcDbEntity
  8
0
  6
Continuous
 62
   174
100
AcDbLine
 10
60.893057
 20
57.511181
 30
0.0
 11
65.097309
 21
53.306929
 31
0.0
  0
LINE
  5
3D
100
AcDbEntity
  8
0
  6
Continuous
 62
   174
100
AcDbLine
 10
241.666751
 20
53.876372
 30
0.0
 11
237.462499
 21
58.080624
 31
0.0
  0
ARC
  5
3E
100
AcDbEntity
  8
0
  6
Continuous
 62
   174
100
AcDbCircle
 10
63.279904
 20
55.693777
 30
0.0
 40
3.0
100
AcDbArc
 50
-41.228296
 51
131.228296
  0
ARC
  5
3F
100
AcDbEntity
  8
0
  6
Continuous
 62
   174
100
AcDbCircle
 10
239.279904
 20
55.693777
 30
0.0
 40
3.0
100
AcDbArc
 50
-221.228296
 51
-48.771704
  0
LINE
  5
40
100
AcDbEntity
  8
0
  6
Continuous
 62
   174
100
AcDbLine
 10
65.536173
 20
53.716594
 30
0.0
 11
61.302721
 21
57.950045
 31
0.0
  0
LINE
  5
41
100
AcDbEntity
  8
0
  6
Continuous
 62
   174
100
AcDbLine
 10
237.023636
 20
57.670959
 30
0.0
 11
241.257087
 21
53.437508
 31
0.0
  0
LINE
  5
42
100
AcDbEntity
  8
0
  6
Continuous
 62
   174
100
AcDbLine
 10
36.779904
 20
49.193777
 30
0.0
 11
33.779904
 21
49.193777
 31
0.0
  0
LINE
  5
43
100
AcDbEntity
  8
0
  6
Continuous
 62
   174
100
AcDbLine
 10
33.779904
 20
46.693777
 30
0.0
 11
33.079904
 21
46.693777
 31
0.0
  0
LINE
  5
44
100
AcDbEntity
  8
0
  6
Continuous
 62
   174
100
AcDbLine
 10
268.779904
 20
64.693777
 30
0.0
 11
269.479904
 21
64.693777
 31
0.0
  0
LINE
  5
45
100
AcDbEntity
  8
0
  6
Continuous
 62
   174
100
AcDbLine
 10
268.779904
 20
46.693777
 30
0.0
 11
269.479904
 21
46.693777
 31
0.0
  0
LINE
  5
46
100
AcDbEntity
  8
0
  6
Continuous
 62
   174
100
AcDbLine
 10
265.779904
 20
47.693777
 30
0.0
 11
253.737944
 21
47.693777
 31
0.0
  0
LINE
  5
47
100
AcDbEntity
  8
0
  6
Continuous
 62
   174
100
AcDbLine
 10
48.779904
 20
61.938774
 30
0.0
 11
48.779904
 21
63.193777
 31
0.0
  0
LINE
  5
48
100
AcDbEntity
  8
0
  6
Continuous
 62
   174
100
AcDbLine
 10
253.779904
 20
49.448779
 30
0.0
 11
253.779904
 21
48.193777
 31
0.0
  0
LINE
  5
49
100
AcDbEntity
  8
0
  6
Continuous
 62
   174
100
AcDbLine
 10
166.279904
 20
70.693777
 30
0.0
 11
166.279904
 21
72.493777
 31
0.0
  0
LINE
  5
4A
100
AcDbEntity
  8
0
  6
HIDDEN
 62
   174
100
AcDbLine
 10
176.279904
 20
67.693777
 30
0.0
 11
176.279904
 21
70.693777
 31
0.0
  0
LINE
  5
4B
100
AcDbEntity
  8
0
  6
Continuous
 62
   174
100
AcDbLine
 10
77.779904
 20
63.193777
 30
0.0
 11
77.779904
 21
48.193777
 31
0.0
  0
LINE
  5
4C
100
AcDbEntity
  8
0
  6
HIDDEN
 62
   174
100
AcDbLine
 10
94.279904
 20
61.693777
 30
0.0
 11
94.229904
 21
61.693777
 31
0.0
  0
LINE
  5
4D
100
AcDbEntity
  8
0
  6
HIDDEN
 62
   174
100
AcDbLine
 10
208.279904
 20
49.709268
 30
0.0
 11
208.279904
 21
55.708743
 31
0.0
  0
LINE
  5
4E
100
AcDbEntity
  8
0
  6
Continuous
 62
   174
100
AcDbLine
 10
94.279904
 20
70.693777
 30
0.0
 11
208.279904
 21
70.693777
 31
0.0
  0
LINE
  5
4F
100
AcDbEntity
  8
0
  6
Continuous
 62
   174
100
AcDbLine
 10
224.279904
 20
40.693777
 30
0.0
 11
208.279904
 21
40.693777
 31
0.0
  0
LINE
  5
50
100
AcDbEntity
  8
0
  6
Continuous
 62
   174
100
AcDbLine
 10
265.779904
 20
49.193777
 30
0.0
 11
268.779904
 21
49.193777
 31
0.0
  0
LINE
  5
51
100
AcDbEntity
  8
0
  6
HIDDEN
 62
   174
100
AcDbLine
 10
168.01674
 20
67.693777
 30
0.0
 11
168.798061
 21
67.693777
 31
0.0
  0
LINE
  5
52
100
AcDbEntity
  8
0
  6
HIDDEN
 62
   174
100
AcDbLine
 10
128.79795
 20
67.693777
 30
0.0
 11
133.797937
 21
67.693777
 31
0.0
  0
ARC
  5
53
100
AcDbEntity
  8
0
  6
Continuous
 62
   174
100
AcDbCircle
 10
127.479904
 20
72.493777
 30
0.0
 40
1.2
100
AcDbArc
 50
90.0
 51
180.0
  0
LINE
  5
54
100
AcDbEntity
  8
0
  6
Continuous
 62
   174
100
AcDbLine
 10
176.279904
 20
70.693777
 30
0.0
 11
176.279904
 21
72.493777
 31
0.0
  0
LINE
  5
55
100
AcDbEntity
  8
0
  6
HIDDEN
 62
   174
100
AcDbLine
 10
126.279904
 20
67.693777
 30
0.0
 11
126.279904
 21
70.693777
 31
0.0
  0
LINE
  5
56
100
AcDbEntity
  8
0
  6
Continuous
 62
   174
100
AcDbLine
 10
126.279904
 20
70.693777
 30
0.0
 11
126.279904
 21
72.493777
 31
0.0
  0
LINE
  5
57
100
AcDbEntity
  8
0
  6
Continuous
 62
   174
100
AcDbLine
 10
136.279904
 20
70.693777
 30
0.0
 11
136.279904
 21
72.493777
 31
0.0
  0
LINE
  5
58
100
AcDbEntity
  8
0
  6
Continuous
 62
   174
100
AcDbLine
 10
126.279904
 20
70.693777
 30
0.0
 11
126.279904
 21
72.493777
 31
0.0
  0
LINE
  5
59
100
AcDbEntity
  8
0
  6
HIDDEN
 62
   174
100
AcDbLine
 10
208.329904
 20
55.708743
 30
0.0
 11
208.329904
 21
49.709268
 31
0.0
  0
LINE
  5
5A
100
AcDbEntity
  8
0
  6
Continuous
 62
   174
100
AcDbLine
 10
78.279904
 20
40.693777
 30
0.0
 11
94.279904
 21
40.693777
 31
0.0
  0
LINE
  5
5B
100
AcDbEntity
  8
0
  6
Continuous
 62
   174
100
AcDbLine
 10
74.779904
 20
45.193777
 30
0.0
 11
51.779904
 21
45.193777
 31
0.0
  0
LINE
  5
5C
100
AcDbEntity
  8
0
  6
Continuous
 62
   174
100
AcDbLine
 10
78.279904
 20
70.693777
 30
0.0
 11
94.279904
 21
70.693777
 31
0.0
  0
LINE
  5
5D
100
AcDbEntity
  8
0
  6
Continuous
 62
   174
100
AcDbLine
 10
36.779904
 20
62.193777
 30
0.0
 11
33.779904
 21
62.193777
 31
0.0
  0
LINE
  5
5E
100
AcDbEntity
  8
0
  6
Continuous
 62
   174
100
AcDbLine
 10
265.779904
 20
62.193777
 30
0.0
 11
268.779904
 21
62.193777
 31
0.0
  0
LINE
  5
5F
100
AcDbEntity
  8
0
  6
Continuous
 62
   174
100
AcDbLine
 10
265.779904
 20
62.193777
 30
0.0
 11
268.779904
 21
62.193777
 31
0.0
  0
LINE
  5
60
100
AcDbEntity
  8
0
  6
Continuous
 62
   174
100
AcDbLine
 10
265.779904
 20
49.193777
 30
0.0
 11
268.779904
 21
49.193777
 31
0.0
  0
LINE
  5
61
100
AcDbEntity
  8
0
  6
Continuous
 62
   174
100
AcDbLine
 10
268.779904
 20
46.693777
 30
0.0
 11
269.479904
 21
46.693777
 31
0.0
  0
LINE
  5
62
100
AcDbEntity
  8
0
  6
Continuous
 62
   174
100
AcDbLine
 10
268.779904
 20
64.693777
 30
0.0
 11
269.479904
 21
64.693777
 31
0.0
  0
LINE
  5
63
100
AcDbEntity
  8
0
  6
Continuous
 62
   174
100
AcDbLine
 10
36.779904
 20
63.693777
 30
0.0
 11
48.821864
 21
63.693777
 31
0.0
  0
LINE
  5
64
100
AcDbEntity
  8
0
  6
Continuous
 62
   174
100
AcDbLine
 10
36.779904
 20
47.693777
 30
0.0
 11
48.821864
 21
47.693777
 31
0.0
  0
LINE
  5
65
100
AcDbEntity
  8
0
  6
Continuous
 62
   174
100
AcDbLine
 10
265.779904
 20
47.693777
 30
0.0
 11
253.737944
 21
47.693777
 31
0.0
  0
LINE
  5
66
100
AcDbEntity
  8
0
  6
HIDDEN
 62
   174
100
AcDbLine
 10
168.798061
 20
67.693777
 30
0.0
 11
173.798048
 21
67.693777
 31
0.0
  0
LINE
  5
67
100
AcDbEntity
  8
0
  6
HIDDEN
 62
   174
100
AcDbLine
 10
133.797937
 20
67.693777
 30
0.0
 11
134.57947
 21
67.693777
 31
0.0
  0
ARC
  5
68
100
AcDbEntity
  8
0
  6
Continuous
 62
   174
100
AcDbCircle
 10
175.079904
 20
72.493777
 30
0.0
 40
1.2
100
AcDbArc
 50
0.0
 51
90.0
  0
LINE
  5
69
100
AcDbEntity
  8
0
  6
Continuous
 62
   174
100
AcDbLine
 10
250.779904
 20
45.193777
 30
0.0
 11
227.779904
 21
45.193777
 31
0.0
  0
LINE
  5
6A
100
AcDbEntity
  8
0
  6
Continuous
 62
   174
100
AcDbLine
 10
33.779904
 20
64.693777
 30
0.0
 11
33.079904
 21
64.693777
 31
0.0
  0
LINE
  5
6B
100
AcDbEntity
  8
0
  6
Continuous
 62
   174
100
AcDbLine
 10
33.779904
 20
64.693777
 30
0.0
 11
33.079904
 21
64.693777
 31
0.0
  0
LINE
  5
6C
100
AcDbEntity
  8
0
  6
Continuous
 62
   174
100
AcDbLine
 10
265.779904
 20
63.693777
 30
0.0
 11
253.737944
 21
63.693777
 31
0.0
  0
ARC
  5
6D
100
AcDbEntity
  8
0
  6
Continuous
 62
   174
100
AcDbCircle
 10
175.079904
 20
72.493777
 30
0.0
 40
1.2
100
AcDbArc
 50
0.0
 51
90.0
  0
ARC
  5
6E
100
AcDbEntity
  8
0
  6
Continuous
 62
   174
100
AcDbCircle
 10
135.079904
 20
72.493777
 30
0.0
 40
1.2
100
AcDbArc
 50
0.0
 51
90.0
  0
LINE
  5
6F
100
AcDbEntity
  8
0
  6
Continuous
 62
   174
100
AcDbLine
 10
176.279904
 20
70.693777
 30
0.0
 11
176.279904
 21
72.493777
 31
0.0
  0
LINE
  5
70
100
AcDbEntity
  8
0
  6
HIDDEN
 62
   174
100
AcDbLine
 10
136.279904
 20
67.693777
 30
0.0
 11
136.279904
 21
70.693777
 31
0.0
  0
LINE
  5
71
100
AcDbEntity
  8
0
  6
HIDDEN
 62
   174
100
AcDbLine
 10
136.279904
 20
67.693777
 30
0.0
 11
136.279904
 21
70.693777
 31
0.0
  0
LINE
  5
72
100
AcDbEntity
  8
0
  6
HIDDEN
 62
   174
100
AcDbLine
 10
94.229904
 20
55.708743
 30
0.0
 11
94.229904
 21
49.709268
 31
0.0
  0
LINE
  5
73
100
AcDbEntity
  8
0
  6
HIDDEN
 62
   174
100
AcDbLine
 10
94.229904
 20
55.708743
 30
0.0
 11
94.229904
 21
61.708431
 31
0.0
  0
LINE
  5
74
100
AcDbEntity
  8
0
  6
Continuous
 62
   174
100
AcDbLine
 10
224.779904
 20
48.193777
 30
0.0
 11
224.779904
 21
63.193777
 31
0.0
  0
LINE
  5
75
100
AcDbEntity
  8
0
  6
HIDDEN
 62
   174
100
AcDbLine
 10
208.279904
 20
49.693777
 30
0.0
 11
208.329904
 21
49.693777
 31
0.0
  0
LINE
  5
76
100
AcDbEntity
  8
0
  6
Continuous
 62
   174
100
AcDbLine
 10
208.279904
 20
40.693777
 30
0.0
 11
208.279904
 21
70.693777
 31
0.0
  0
LINE
  5
77
100
AcDbEntity
  8
0
  6
Continuous
 62
   174
100
AcDbLine
 10
78.279904
 20
40.693777
 30
0.0
 11
78.279904
 21
70.693777
 31
0.0
  0
LINE
  5
78
100
AcDbEntity
  8
0
  6
Continuous
 62
   174
100
AcDbLine
 10
36.779904
 20
62.193777
 30
0.0
 11
33.779904
 21
62.193777
 31
0.0
  0
LINE
  5
79
100
AcDbEntity
  8
0
  6
Continuous
 62
   174
100
AcDbLine
 10
265.779904
 20
63.693777
 30
0.0
 11
253.737944
 21
63.693777
 31
0.0
  0
LINE
  5
7A
100
AcDbEntity
  8
0
  6
HIDDEN
 62
   174
100
AcDbLine
 10
173.798048
 20
67.693777
 30
0.0
 11
176.297936
 21
67.693777
 31
0.0
  0
LINE
  5
7B
100
AcDbEntity
  8
0
  6
HIDDEN
 62
   174
100
AcDbLine
 10
134.57947
 20
67.693777
 30
0.0
 11
136.298037
 21
67.693777
 31
0.0
  0
LINE
  5
7C
100
AcDbEntity
  8
0
  6
HIDDEN
 62
   174
100
AcDbLine
 10
166.279904
 20
67.693777
 30
0.0
 11
166.279904
 21
70.693777
 31
0.0
  0
LINE
  5
7D
100
AcDbEntity
  8
0
  6
HIDDEN
 62
   174
100
AcDbLine
 10
135.098014
 20
73.693777
 30
0.0
 11
127.498085
 21
73.693777
 31
0.0
  0
LINE
  5
7E
100
AcDbEntity
  8
0
  6
Continuous
 62
   174
100
AcDbLine
 10
135.098014
 20
73.693777
 30
0.0
 11
127.498085
 21
73.693777
 31
0.0
  0
LINE
  5
7F
100
AcDbEntity
  8
0
  6
Continuous
 62
   174
100
AcDbLine
 10
136.298037
 20
72.493777
 30
0.0
 11
126.298062
 21
72.493777
 31
0.0
  0
LINE
  5
80
100
AcDbEntity
  8
0
  6
HIDDEN
 62
   174
100
AcDbLine
 10
208.329904
 20
55.708743
 30
0.0
 11
208.329904
 21
61.708431
 31
0.0
  0
LINE
  5
81
100
AcDbEntity
  8
0
  6
HIDDEN
 62
   174
100
AcDbLine
 10
94.279904
 20
49.693777
 30
0.0
 11
94.229904
 21
49.693777
 31
0.0
  0
LINE
  5
82
100
AcDbEntity
  8
0
  6
Continuous
 62
   174
100
AcDbLine
 10
94.279904
 20
40.693777
 30
0.0
 11
208.279904
 21
40.693777
 31
0.0
  0
LINE
  5
83
100
AcDbEntity
  8
0
  6
Continuous
 62
   174
100
AcDbLine
 10
94.279904
 20
40.693777
 30
0.0
 11
94.279904
 21
70.693777
 31
0.0
  0
LINE
  5
84
100
AcDbEntity
  8
0
  6
Continuous
 62
   174
100
AcDbLine
 10
48.779904
 20
48.193777
 30
0.0
 11
48.779904
 21
49.448779
 31
0.0
  0
ARC
  5
85
100
AcDbEntity
  8
0
  6
Continuous
 62
   174
100
AcDbCircle
 10
135.079904
 20
72.493777
 30
0.0
 40
1.2
100
AcDbArc
 50
0.0
 51
90.0
  0
LINE
  5
86
100
AcDbEntity
  8
0
  6
Continuous
 62
   174
100
AcDbLine
 10
166.279904
 20
70.693777
 30
0.0
 11
166.279904
 21
72.493777
 31
0.0
  0
LINE
  5
87
100
AcDbEntity
  8
0
  6
HIDDEN
 62
   174
100
AcDbLine
 10
176.297936
 20
72.493777
 30
0.0
 11
166.297961
 21
72.493777
 31
0.0
  0
LINE
  5
88
100
AcDbEntity
  8
0
  6
Continuous
 62
   174
100
AcDbLine
 10
224.279904
 20
70.693777
 30
0.0
 11
208.279904
 21
70.693777
 31
0.0
  0
LINE
  5
89
100
AcDbEntity
  8
0
  6
Continuous
 62
   174
100
AcDbLine
 10
94.279904
 20
40.693777
 30
0.0
 11
94.279904
 21
70.693777
 31
0.0
  0
LINE
  5
8A
100
AcDbEntity
  8
0
  6
Continuous
 62
   174
100
AcDbLine
 10
227.779904
 20
66.193777
 30
0.0
 11
250.779904
 21
66.193777
 31
0.0
  0
LINE
  5
8B
100
AcDbEntity
  8
0
  6
HIDDEN
 62
   174
100
AcDbLine
 10
94.279904
 20
61.708431
 30
0.0
 11
94.279904
 21
55.708743
 31
0.0
  0
LINE
  5
8C
100
AcDbEntity
  8
0
  6
Continuous
 62
   174
100
AcDbLine
 10
224.279904
 20
70.693777
 30
0.0
 11
224.279904
 21
40.693777
 31
0.0
  0
LINE
  5
8D
100
AcDbEntity
  8
0
  6
Continuous
 62
   174
100
AcDbLine
 10
273.279904
 20
47.893777
 30
0.0
 11
273.181308
 21
47.723003
 31
0.0
  0
LINE
  5
8E
100
AcDbEntity
  8
0
  6
Continuous
 62
   174
100
AcDbLine
 10
36.779904
 20
63.693777
 30
0.0
 11
48.821864
 21
63.693777
 31
0.0
  0
LINE
  5
8F
100
AcDbEntity
  8
0
  6
Continuous
 62
   174
100
AcDbLine
 10
36.779904
 20
47.693777
 30
0.0
 11
48.821864
 21
47.693777
 31
0.0
  0
LINE
  5
90
100
AcDbEntity
  8
0
  6
Continuous
 62
   174
100
AcDbLine
 10
253.779904
 20
63.193777
 30
0.0
 11
253.779904
 21
61.938774
 31
0.0
  0
LINE
  5
91
100
AcDbEntity
  8
0
  6
HIDDEN
 62
   174
100
AcDbLine
 10
126.298062
 20
67.693777
 30
0.0
 11
128.016629
 21
67.693777
 31
0.0
  0
ARC
  5
92
100
AcDbEntity
  8
0
  6
Continuous
 62
   174
100
AcDbCircle
 10
167.479904
 20
72.493777
 30
0.0
 40
1.2
100
AcDbArc
 50
90.0
 51
180.0
  0
LINE
  5
93
100
AcDbEntity
  8
0
  6
HIDDEN
 62
   174
100
AcDbLine
 10
166.279904
 20
67.693777
 30
0.0
 11
166.279904
 21
70.693777
 31
0.0
  0
LINE
  5
94
100
AcDbEntity
  8
0
  6
HIDDEN
 62
   174
100
AcDbLine
 10
176.279904
 20
67.693777
 30
0.0
 11
176.279904
 21
70.693777
 31
0.0
  0
LINE
  5
95
100
AcDbEntity
  8
0
  6
HIDDEN
 62
   174
100
AcDbLine
 10
126.279904
 20
67.693777
 30
0.0
 11
126.279904
 21
70.693777
 31
0.0
  0
LINE
  5
96
100
AcDbEntity
  8
0
  6
HIDDEN
 62
   174
100
AcDbLine
 10
175.097913
 20
73.693777
 30
0.0
 11
167.497983
 21
73.693777
 31
0.0
  0
LINE
  5
97
100
AcDbEntity
  8
0
  6
Continuous
 62
   174
100
AcDbLine
 10
175.097913
 20
73.693777
 30
0.0
 11
167.497983
 21
73.693777
 31
0.0
  0
LINE
  5
98
100
AcDbEntity
  8
0
  6
Continuous
 62
   174
100
AcDbLine
 10
176.297936
 20
72.493777
 30
0.0
 11
166.297961
 21
72.493777
 31
0.0
  0
LINE
  5
99
100
AcDbEntity
  8
0
  6
HIDDEN
 62
   174
100
AcDbLine
 10
208.279904
 20
61.693777
 30
0.0
 11
208.329904
 21
61.693777
 31
0.0
  0
LINE
  5
9A
100
AcDbEntity
  8
0
  6
Continuous
 62
   174
100
AcDbLine
 10
51.779904
 20
66.193777
 30
0.0
 11
74.779904
 21
66.193777
 31
0.0
  0
LINE
  5
9B
100
AcDbEntity
  8
0
  6
Continuous
 62
   174
100
AcDbLine
 10
36.779904
 20
49.193777
 30
0.0
 11
33.779904
 21
49.193777
 31
0.0
  0
LINE
  5
9C
100
AcDbEntity
  8
0
  6
Continuous
 62
   174
100
AcDbLine
 10
33.779904
 20
46.693777
 30
0.0
 11
33.079904
 21
46.693777
 31
0.0
  0
LINE
  5
9D
100
AcDbEntity
  8
0
  6
Continuous
 62
   174
100
AcDbLine
 10
29.279904
 20
63.493777
 30
0.0
 11
29.3785
 21
63.66455
 31
0.0
  0
LINE
  5
9E
100
AcDbEntity
  8
0
  6
HIDDEN
 62
   174
100
AcDbLine
 10
166.297961
 20
67.693777
 30
0.0
 11
168.01674
 21
67.693777
 31
0.0
  0
LINE
  5
9F
100
AcDbEntity
  8
0
  6
HIDDEN
 62
   174
100
AcDbLine
 10
128.016629
 20
67.693777
 30
0.0
 11
128.79795
 21
67.693777
 31
0.0
  0
LINE
  5
A0
100
AcDbEntity
  8
0
  6
Continuous
 62
   174
100
AcDbLine
 10
136.279904
 20
70.693777
 30
0.0
 11
136.279904
 21
72.493777
 31
0.0
  0
LINE
  5
A1
100
AcDbEntity
  8
0
  6
HIDDEN
 62
   174
100
AcDbLine
 10
136.298037
 20
72.493777
 30
0.0
 11
126.298062
 21
72.493777
 31
0.0
  0
LINE
  5
A2
100
AcDbEntity
  8
0
  6
HIDDEN
 62
   174
100
AcDbLine
 10
94.279904
 20
55.708743
 30
0.0
 11
94.279904
 21
49.709268
 31
0.0
  0
LINE
  5
A3
100
AcDbEntity
  8
0
  6
HIDDEN
 62
   174
100
AcDbLine
 10
208.279904
 20
55.708743
 30
0.0
 11
208.279904
 21
61.708431
 31
0.0
  0
LINE
  5
A4
100
AcDbEntity
  8
0
  6
HIDDEN
 62
   174
100
AcDbLine
 10
128.2981
 20
40.693777
 30
0.0
 11
134.297999
 21
40.693777
 31
0.0
  0
ARC
  5
A5
100
AcDbEntity
  8
0
  6
Continuous
 62
   174
100
AcDbCircle
 10
151.279904
 20
55.693777
 30
0.0
 40
10.48
100
AcDbArc
 50
-180.0
 51
-179.280256
  0
LINE
  5
A6
100
AcDbEntity
  8
0
  6
Continuous
 62
   174
100
AcDbLine
 10
40.579904
 20
46.011318
 30
0.0
 11
46.779904
 21
46.011318
 31
0.0
  0
ARC
  5
A7
100
AcDbEntity
  8
0
  6
Continuous
 62
   174
100
AcDbCircle
 10
213.279904
 20
55.693777
 30
0.0
 40
3.0
100
AcDbArc
 50
0.0
 51
180.0
  0
LINE
  5
A8
100
AcDbEntity
  8
0
  6
HIDDEN
 62
   174
100
AcDbLine
 10
33.079904
 20
55.603843
 30
0.0
 11
29.972725
 21
55.603843
 31
0.0
  0
LWPOLYLINE
  5
A9
100
AcDbEntity
  8
0
  6
HIDDEN
 62
   174
100
AcDbPolyline
 90
        4
 70
   128
 10
273.279904
 20
52.591498
 10
273.146784
 20
53.645207
 10
272.913701
 20
54.703619
 10
272.587084
 20
55.78371
  0
LINE
  5
AA
100
AcDbEntity
  8
0
  6
Continuous
 62
   174
100
AcDbLine
 10
48.798152
 20
48.193777
 30
0.0
 11
51.798102
 21
48.193777
 31
0.0
  0
LINE
  5
AB
100
AcDbEntity
  8
0
  6
HIDDEN
 62
   174
100
AcDbLine
 10
46.779904
 20
47.683102
 30
0.0
 11
46.779904
 21
50.629731
 31
0.0
  0
LINE
  5
AC
100
AcDbEntity
  8
0
  6
HIDDEN
 62
   174
100
AcDbLine
 10
176.279904
 20
70.693777
 30
0.0
 11
176.279904
 21
67.693777
 31
0.0
  0
LINE
  5
AD
100
AcDbEntity
  8
0
  6
HIDDEN
 62
   174
100
AcDbLine
 10
134.279904
 20
40.693777
 30
0.0
 11
134.279904
 21
41.693777
 31
0.0
  0
LWPOLYLINE
  5
AE
100
AcDbEntity
  8
0
  6
Continuous
 62
   174
100
AcDbPolyline
 90
        3
 70
   128
 10
29.972725
 20
63.532583
 10
29.606622
 20
63.532583
 10
29.378522
 20
63.532583
  0
LINE
  5
AF
100
AcDbEntity
  8
0
  6
Continuous
 62
   174
100
AcDbLine
 10
40.579904
 20
47.693777
 30
0.0
 11
40.579904
 21
47.07938
 31
0.0
  0
LINE
  5
B0
100
AcDbEntity
  8
0
  6
Continuous
 62
   174
100
AcDbLine
 10
51.798102
 20
63.193777
 30
0.0
 11
48.798152
 21
63.193777
 31
0.0
  0
LINE
  5
B1
100
AcDbEntity
  8
0
  6
Continuous
 62
   174
100
AcDbLine
 10
46.779904
 20
47.09488
 30
0.0
 11
46.779904
 21
47.683102
 31
0.0
  0
ARC
  5
B2
100
AcDbEntity
  8
0
  6
Continuous
 62
   174
100
AcDbCircle
 10
151.279904
 20
55.693777
 30
0.0
 40
9.4
100
AcDbArc
 50
0.0
 51
180.0
  0
ARC
  5
B3
100
AcDbEntity
  8
0
  6
Continuous
 62
   174
100
AcDbCircle
 10
187.279904
 20
55.693777
 30
0.0
 40
9.4
100
AcDbArc
 50
31.427132
 51
58.572868
  0
ARC
  5
B4
100
AcDbEntity
  8
0
  6
Continuous
 62
   174
100
AcDbCircle
 10
115.279904
 20
55.693777
 30
0.0
 40
9.4
100
AcDbArc
 50
151.074099
 51
180.0
  0
ARC
  5
B5
100
AcDbEntity
  8
0
  6
Continuous
 62
   174
100
AcDbCircle
 10
74.779904
 20
48.193777
 30
0.0
 40
3.0
100
AcDbArc
 50
-90.0
 51
0.0
  0
LINE
  5
B6
100
AcDbEntity
  8
0
  6
Continuous
 62
   174
100
AcDbLine
 10
269.479904
 20
55.798814
 30
0.0
 11
269.479904
 21
63.457162
 31
0.0
  0
LINE
  5
B7
100
AcDbEntity
  8
0
  6
HIDDEN
 62
   174
100
AcDbLine
 10
261.979904
 20
58.209905
 30
0.0
 11
261.979904
 21
60.787967
 31
0.0
  0
LINE
  5
B8
100
AcDbEntity
  8
0
  6
HIDDEN
 62
   174
100
AcDbLine
 10
255.779904
 20
58.192527
 30
0.0
 11
255.779904
 21
53.191658
 31
0.0
  0
LINE
  5
B9
100
AcDbEntity
  8
0
  6
HIDDEN
 62
   174
100
AcDbLine
 10
261.979904
 20
50.612728
 30
0.0
 11
255.779904
 21
50.612728
 31
0.0
  0
LINE
  5
BA
100
AcDbEntity
  8
0
  6
Continuous
 62
   174
100
AcDbLine
 10
40.579904
 20
64.306406
 30
0.0
 11
40.579904
 21
63.693777
 31
0.0
  0
LINE
  5
BB
100
AcDbEntity
  8
0
  6
Continuous
 62
   174
100
AcDbLine
 10
48.779904
 20
49.448779
 30
0.0
 11
48.779904
 21
48.193777
 31
0.0
  0
LINE
  5
BC
100
AcDbEntity
  8
0
  6
Continuous
 62
   174
100
AcDbLine
 10
255.279904
 20
45.693777
 30
0.0
 11
254.279904
 21
45.693777
 31
0.0
  0
ARC
  5
BD
100
AcDbEntity
  8
0
  6
Continuous
 62
   174
100
AcDbCircle
 10
187.279904
 20
55.693777
 30
0.0
 40
9.4
100
AcDbArc
 50
328.572868
 51
331.074099
  0
LINE
  5
BE
100
AcDbEntity
  8
0
  6
HIDDEN
 62
   174
100
AcDbLine
 10
126.279904
 20
70.693777
 30
0.0
 11
126.279904
 21
67.693777
 31
0.0
  0
LINE
  5
BF
100
AcDbEntity
  8
0
  6
Continuous
 62
   174
100
AcDbLine
 10
224.779904
 20
63.193777
 30
0.0
 11
224.779904
 21
48.193777
 31
0.0
  0
LINE
  5
C0
100
AcDbEntity
  8
0
  6
Continuous
 62
   174
100
AcDbLine
 10
77.798163
 20
48.193777
 30
0.0
 11
74.798001
 21
48.193777
 31
0.0
  0
LINE
  5
C1
100
AcDbEntity
  8
0
  6
HIDDEN
 62
   174
100
AcDbLine
 10
254.279904
 20
65.708293
 30
0.0
 11
254.279904
 21
45.709406
 31
0.0
  0
LINE
  5
C2
100
AcDbEntity
  8
0
  6
Continuous
 62
   174
100
AcDbLine
 10
227.779904
 20
63.193777
 30
0.0
 11
250.779904
 21
63.193777
 31
0.0
  0
ARC
  5
C3
100
AcDbEntity
  8
0
  6
Continuous
 62
   174
100
AcDbCircle
 10
151.279904
 20
55.693777
 30
0.0
 40
9.4
100
AcDbArc
 50
-60.0
 51
0.0
  0
ARC
  5
C4
100
AcDbEntity
  8
0
  6
Continuous
 62
   174
100
AcDbCircle
 10
115.279904
 20
55.693777
 30
0.0
 40
9.4
100
AcDbArc
 50
61.076591
 51
118.923409
  0
LINE
  5
C5
100
AcDbEntity
  8
0
  6
Continuous
 62
   174
100
AcDbLine
 10
74.779904
 20
63.208405
 30
0.0
 11
74.779904
 21
66.208143
 31
0.0
  0
LINE
  5
C6
100
AcDbEntity
  8
0
  6
Continuous
 62
   174
100
AcDbLine
 10
33.779904
 20
46.709318
 30
0.0
 11
33.779904
 21
48.995075
 31
0.0
  0
LINE
  5
C7
100
AcDbEntity
  8
0
  6
HIDDEN
 62
   174
100
AcDbLine
 10
261.979904
 20
58.192527
 30
0.0
 11
255.779904
 21
58.192527
 31
0.0
  0
LINE
  5
C8
100
AcDbEntity
  8
0
  6
HIDDEN
 62
   174
100
AcDbLine
 10
261.979904
 20
60.773254
 30
0.0
 11
255.779904
 21
60.773254
 31
0.0
  0
LINE
  5
C9
100
AcDbEntity
  8
0
  6
Continuous
 62
   174
100
AcDbLine
 10
89.779904
 20
53.019828
 30
0.0
 11
89.779904
 21
58.367725
 31
0.0
  0
LINE
  5
CA
100
AcDbEntity
  8
0
  6
Continuous
 62
   174
100
AcDbLine
 10
261.979904
 20
46.02784
 30
0.0
 11
261.979904
 21
47.096792
 31
0.0
  0
ARC
  5
CB
100
AcDbEntity
  8
0
  6
Continuous
 62
   174
100
AcDbCircle
 10
187.279904
 20
55.693777
 30
0.0
 40
10.48
100
AcDbArc
 50
-359.332458
 51
-241.205132
  0
LINE
  5
CC
100
AcDbEntity
  8
0
  6
Continuous
 62
   174
100
AcDbLine
 10
51.779904
 20
45.193777
 30
0.0
 11
74.779904
 21
45.193777
 31
0.0
  0
LINE
  5
CD
100
AcDbEntity
  8
0
  6
HIDDEN
 62
   174
100
AcDbLine
 10
36.779904
 20
49.209206
 30
0.0
 11
36.779904
 21
62.208493
 31
0.0
  0
LINE
  5
CE
100
AcDbEntity
  8
0
  6
HIDDEN
 62
   174
100
AcDbLine
 10
261.979904
 20
53.191658
 30
0.0
 11
255.779904
 21
53.191658
 31
0.0
  0
LWPOLYLINE
  5
CF
100
AcDbEntity
  8
0
  6
Continuous
 62
   174
100
AcDbPolyline
 90
        6
 70
   128
 10
51.779904
 20
55.693777
 10
50.874588
 20
57.183136
 10
50.066283
 20
58.576885
 10
49.404435
 20
59.855547
 10
48.95261
 20
60.981651
 10
48.779904
 20
61.938774
  0
LINE
  5
D0
100
AcDbEntity
  8
0
  6
Continuous
 62
   174
100
AcDbLine
 10
261.979904
 20
47.081147
 30
0.0
 11
255.779904
 21
47.081147
 31
0.0
  0
LINE
  5
D1
100
AcDbEntity
  8
0
  6
Continuous
 62
   174
100
AcDbLine
 10
255.779904
 20
47.683102
 30
0.0
 11
255.779904
 21
47.096792
 31
0.0
  0
ARC
  5
D2
100
AcDbEntity
  8
0
  6
Continuous
 62
   174
100
AcDbCircle
 10
187.279904
 20
55.693777
 30
0.0
 40
9.4
100
AcDbArc
 50
-28.925901
 51
0.0
  0
ARC
  5
D3
100
AcDbEntity
  8
0
  6
Continuous
 62
   174
100
AcDbCircle
 10
187.279904
 20
55.693777
 30
0.0
 40
9.4
100
AcDbArc
 50
0.0
 51
28.925901
  0
LINE
  5
D4
100
AcDbEntity
  8
0
  6
HIDDEN
 62
   174
100
AcDbLine
 10
128.279904
 20
43.693777
 30
0.0
 11
128.279904
 21
67.693777
 31
0.0
  0
LINE
  5
D5
100
AcDbEntity
  8
0
  6
Continuous
 62
   174
100
AcDbLine
 10
40.579904
 20
47.07938
 30
0.0
 11
46.779904
 21
47.07938
 31
0.0
  0
LINE
  5
D6
100
AcDbEntity
  8
0
  6
Continuous
 62
   174
100
AcDbLine
 10
40.579904
 20
64.306406
 30
0.0
 11
46.779904
 21
64.306406
 31
0.0
  0
LINE
  5
D7
100
AcDbEntity
  8
0
  6
HIDDEN
 62
   174
100
AcDbLine
 10
168.297998
 20
40.693777
 30
0.0
 11
174.298111
 21
40.693777
 31
0.0
  0
LINE
  5
D8
100
AcDbEntity
  8
0
  6
HIDDEN
 62
   174
100
AcDbLine
 10
134.279904
 20
41.693777
 30
0.0
 11
134.279904
 21
43.693777
 31
0.0
  0
LINE
  5
D9
100
AcDbEntity
  8
0
  6
Continuous
 62
   174
100
AcDbLine
 10
33.779904
 20
62.422623
 30
0.0
 11
33.779904
 21
64.70838
 31
0.0
  0
LINE
  5
DA
100
AcDbEntity
  8
0
  6
HIDDEN
 62
   174
100
AcDbLine
 10
269.479904
 20
55.78371
 30
0.0
 11
272.587084
 21
55.78371
 31
0.0
  0
LWPOLYLINE
  5
DB
100
AcDbEntity
  8
0
  6
Continuous
 62
   174
100
AcDbPolyline
 90
        4
 70
   128
 10
29.279904
 20
60.340371
 10
29.413025
 20
61.39408
 10
29.646107
 20
62.452492
 10
29.972725
 20
63.532583
  0
LINE
  5
DC
100
AcDbEntity
  8
0
  6
Continuous
 62
   174
100
AcDbLine
 10
250.797896
 20
48.193777
 30
0.0
 11
253.798059
 21
48.193777
 31
0.0
  0
LINE
  5
DD
100
AcDbEntity
  8
0
  6
HIDDEN
 62
   174
100
AcDbLine
 10
174.298111
 20
67.693777
 30
0.0
 11
168.297998
 21
67.693777
 31
0.0
  0
LINE
  5
DE
100
AcDbEntity
  8
0
  6
Continuous
 62
   174
100
AcDbLine
 10
224.279904
 20
66.693777
 30
0.0
 11
254.279904
 21
66.693777
 31
0.0
  0
LINE
  5
DF
100
AcDbEntity
  8
0
  6
HIDDEN
 62
   174
100
AcDbLine
 10
174.279904
 20
67.693777
 30
0.0
 11
174.279904
 21
40.693777
 31
0.0
  0
ARC
  5
E0
100
AcDbEntity
  8
0
  6
Continuous
 62
   174
100
AcDbCircle
 10
89.279904
 20
55.693777
 30
0.0
 40
2.720294
100
AcDbArc
 50
-79.408609
 51
79.408609
  0
LINE
  5
E1
100
AcDbEntity
  8
0
  6
HIDDEN
 62
   174
100
AcDbLine
 10
166.279904
 20
70.693777
 30
0.0
 11
166.279904
 21
67.693777
 31
0.0
  0
LINE
  5
E2
100
AcDbEntity
  8
0
  6
Continuous
 62
   174
100
AcDbLine
 10
168.279904
 20
32.693777
 30
0.0
 11
168.279904
 21
40.693777
 31
0.0
  0
LINE
  5
E3
100
AcDbEntity
  8
0
  6
Continuous
 62
   174
100
AcDbLine
 10
128.279904
 20
32.693777
 30
0.0
 11
128.279904
 21
40.693777
 31
0.0
  0
LINE
  5
E4
100
AcDbEntity
  8
0
  6
HIDDEN
 62
   174
100
AcDbLine
 10
174.298111
 20
67.693777
 30
0.0
 11
168.297998
 21
67.693777
 31
0.0
  0
LINE
  5
E5
100
AcDbEntity
  8
0
  6
Continuous
 62
   174
100
AcDbLine
 10
265.779904
 20
47.709231
 30
0.0
 11
265.779904
 21
49.102778
 31
0.0
  0
LINE
  5
E6
100
AcDbEntity
  8
0
  6
HIDDEN
 62
   174
100
AcDbLine
 10
40.579904
 20
60.784993
 30
0.0
 11
40.579904
 21
58.206506
 31
0.0
  0
LWPOLYLINE
  5
E7
100
AcDbEntity
  8
0
  6
Continuous
 62
   174
100
AcDbPolyline
 90
        6
 70
   128
 10
48.779904
 20
49.448779
 10
48.952247
 20
50.40474
 10
49.404047
 20
51.53118
 10
50.067118
 20
52.812171
 10
50.875648
 20
54.206187
 10
51.779904
 20
55.693777
  0
ARC
  5
E8
100
AcDbEntity
  8
0
  6
Continuous
 62
   174
100
AcDbCircle
 10
115.279904
 20
55.693777
 30
0.0
 40
9.4
100
AcDbArc
 50
148.572868
 51
151.074099
  0
ARC
  5
E9
100
AcDbEntity
  8
0
  6
Continuous
 62
   174
100
AcDbCircle
 10
187.279904
 20
55.693777
 30
0.0
 40
10.48
100
AcDbArc
 50
-180.0
 51
-179.332458
  0
ARC
  5
EA
100
AcDbEntity
  8
0
  6
Continuous
 62
   174
100
AcDbCircle
 10
151.279904
 20
55.693777
 30
0.0
 40
10.48
100
AcDbArc
 50
0.0
 51
0.719744
  0
LINE
  5
EB
100
AcDbEntity
  8
0
  6
HIDDEN
 62
   174
100
AcDbLine
 10
174.279904
 20
40.693777
 30
0.0
 11
174.279904
 21
67.693777
 31
0.0
  0
LINE
  5
EC
100
AcDbEntity
  8
0
  6
HIDDEN
 62
   174
100
AcDbLine
 10
40.579904
 20
60.774825
 30
0.0
 11
46.779904
 21
60.774825
 31
0.0
  0
LINE
  5
ED
100
AcDbEntity
  8
0
  6
HIDDEN
 62
   174
100
AcDbLine
 10
261.979904
 20
50.617295
 30
0.0
 11
255.779904
 21
50.617295
 31
0.0
  0
LINE
  5
EE
100
AcDbEntity
  8
0
  6
Continuous
 62
   174
100
AcDbLine
 10
227.779904
 20
48.193777
 30
0.0
 11
227.779904
 21
63.193777
 31
0.0
  0
ARC
  5
EF
100
AcDbEntity
  8
0
  6
Continuous
 62
   174
100
AcDbCircle
 10
187.279904
 20
55.693777
 30
0.0
 40
9.4
100
AcDbArc
 50
301.427132
 51
328.572868
  0
LINE
  5
F0
100
AcDbEntity
  8
0
  6
Continuous
 62
   174
100
AcDbLine
 10
268.779904
 20
62.422623
 30
0.0
 11
268.779904
 21
48.995075
 31
0.0
  0
LINE
  5
F1
100
AcDbEntity
  8
0
  6
Continuous
 62
   174
100
AcDbLine
 10
46.779904
 20
45.821994
 30
0.0
 11
46.779904
 21
46.02699
 31
0.0
  0
ARC
  5
F2
100
AcDbEntity
  8
0
  6
Continuous
 62
   174
100
AcDbCircle
 10
115.279904
 20
55.693777
 30
0.0
 40
9.4
100
AcDbArc
 50
58.572868
 51
61.076591
  0
LINE
  5
F3
100
AcDbEntity
  8
0
  6
Continuous
 62
   174
100
AcDbLine
 10
51.779904
 20
63.208405
 30
0.0
 11
51.779904
 21
66.208143
 31
0.0
  0
LWPOLYLINE
  5
F4
100
AcDbEntity
  8
0
  6
Continuous
 62
   174
100
AcDbPolyline
 90
        7
 70
   128
 10
29.972725
 20
47.944904
 10
29.606598
 20
49.24687
 10
29.3785
 20
50.523472
 10
29.301596
 20
51.774443
 10
29.378515
 20
53.025398
 10
29.606615
 20
54.301952
 10
29.972725
 20
55.603843
  0
LINE
  5
F5
100
AcDbEntity
  8
0
  6
Continuous
 62
   174
100
AcDbLine
 10
261.979904
 20
64.308173
 30
0.0
 11
255.779904
 21
64.308173
 31
0.0
  0
ARC
  5
F6
100
AcDbEntity
  8
0
  6
Continuous
 62
   174
100
AcDbCircle
 10
151.279904
 20
55.693777
 30
0.0
 40
9.4
100
AcDbArc
 50
180.0
 51
210.0
  0
ARC
  5
F7
100
AcDbEntity
  8
0
  6
Continuous
 62
   174
100
AcDbCircle
 10
115.279904
 20
55.693777
 30
0.0
 40
9.4
100
AcDbArc
 50
31.427132
 51
58.572868
  0
LINE
  5
F8
100
AcDbEntity
  8
0
  6
Continuous
 62
   174
100
AcDbLine
 10
74.779904
 20
45.209343
 30
0.0
 11
74.779904
 21
48.209293
 31
0.0
  0
LINE
  5
F9
100
AcDbEntity
  8
0
  6
HIDDEN
 62
   174
100
AcDbLine
 10
48.279904
 20
45.709406
 30
0.0
 11
48.279904
 21
65.708293
 31
0.0
  0
LINE
  5
FA
100
AcDbEntity
  8
0
  6
HIDDEN
 62
   174
100
AcDbLine
 10
128.279904
 20
41.693777
 30
0.0
 11
128.279904
 21
43.693777
 31
0.0
  0
LINE
  5
FB
100
AcDbEntity
  8
0
  6
Continuous
 62
   174
100
AcDbLine
 10
33.079904
 20
64.70838
 30
0.0
 11
33.079904
 21
63.547233
 31
0.0
  0
LINE
  5
FC
100
AcDbEntity
  8
0
  6
HIDDEN
 62
   174
100
AcDbLine
 10
40.579904
 20
50.615724
 30
0.0
 11
46.779904
 21
50.615724
 31
0.0
  0
LINE
  5
FD
100
AcDbEntity
  8
0
  6
Continuous
 62
   174
100
AcDbLine
 10
46.779904
 20
63.734597
 30
0.0
 11
46.779904
 21
64.320906
 31
0.0
  0
ARC
  5
FE
100
AcDbEntity
  8
0
  6
Continuous
 62
   174
100
AcDbCircle
 10
187.279904
 20
55.693777
 30
0.0
 40
9.4
100
AcDbArc
 50
61.076591
 51
118.923409
  0
LINE
  5
FF
100
AcDbEntity
  8
0
  6
HIDDEN
 62
   174
100
AcDbLine
 10
134.279904
 20
40.693777
 30
0.0
 11
134.279904
 21
41.693777
 31
0.0
  0
LINE
  5
100
100
AcDbEntity
  8
0
  6
Continuous
 62
   174
100
AcDbLine
 10
29.279904
 20
58.810872
 30
0.0
 11
29.279904
 21
47.960324
 31
0.0
  0
LINE
  5
101
100
AcDbEntity
  8
0
  6
HIDDEN
 62
   174
100
AcDbLine
 10
40.579904
 20
53.195026
 30
0.0
 11
46.779904
 21
53.195026
 31
0.0
  0
LINE
  5
102
100
AcDbEntity
  8
0
  6
HIDDEN
 62
   174
100
AcDbLine
 10
168.279904
 20
67.693777
 30
0.0
 11
168.279904
 21
40.693777
 31
0.0
  0
LINE
  5
103
100
AcDbEntity
  8
0
  6
Continuous
 62
   174
100
AcDbLine
 10
254.279904
 20
47.693777
 30
0.0
 11
254.279904
 21
44.693777
 31
0.0
  0
LINE
  5
104
100
AcDbEntity
  8
0
  6
HIDDEN
 62
   174
100
AcDbLine
 10
176.279904
 20
70.693777
 30
0.0
 11
176.279904
 21
67.693777
 31
0.0
  0
ARC
  5
105
100
AcDbEntity
  8
0
  6
Continuous
 62
   174
100
AcDbCircle
 10
115.279904
 20
55.693777
 30
0.0
 40
10.48
100
AcDbArc
 50
0.0
 51
0.667542
  0
LWPOLYLINE
  5
106
100
AcDbEntity
  8
0
  6
HIDDEN
 62
   174
100
AcDbPolyline
 90
        4
 70
   128
 10
29.972725
 20
63.532583
 10
29.644824
 20
62.447614
 10
29.41207
 20
61.388615
 10
29.279904
 20
60.340371
  0
LINE
  5
107
100
AcDbEntity
  8
0
  6
HIDDEN
 62
   174
100
AcDbLine
 10
78.279904
 20
66.693777
 30
0.0
 11
78.279904
 21
44.693777
 31
0.0
  0
ARC
  5
108
100
AcDbEntity
  8
0
  6
Continuous
 62
   174
100
AcDbCircle
 10
89.279904
 20
55.693777
 30
0.0
 40
3.0
100
AcDbArc
 50
-180.0
 51
0.0
  0
LINE
  5
109
100
AcDbEntity
  8
0
  6
Continuous
 62
   174
100
AcDbLine
 10
74.779904
 20
66.193777
 30
0.0
 11
51.779904
 21
66.193777
 31
0.0
  0
ARC
  5
10A
100
AcDbEntity
  8
0
  6
Continuous
 62
   174
100
AcDbCircle
 10
151.279904
 20
55.693777
 30
0.0
 40
10.48
100
AcDbArc
 50
-359.280256
 51
-241.197359
  0
LINE
  5
10B
100
AcDbEntity
  8
0
  6
HIDDEN
 62
   174
100
AcDbLine
 10
261.979904
 20
53.195894
 30
0.0
 11
255.779904
 21
53.195894
 31
0.0
  0
ARC
  5
10C
100
AcDbEntity
  8
0
  6
Continuous
 62
   174
100
AcDbCircle
 10
187.279904
 20
55.693777
 30
0.0
 40
9.4
100
AcDbArc
 50
118.923409
 51
121.427132
  0
LINE
  5
10D
100
AcDbEntity
  8
0
  6
Continuous
 62
   174
100
AcDbLine
 10
33.779904
 20
48.995075
 30
0.0
 11
33.779904
 21
62.422623
 31
0.0
  0
LWPOLYLINE
  5
10E
100
AcDbEntity
  8
0
  6
HIDDEN
 62
   174
100
AcDbPolyline
 90
        4
 70
   128
 10
29.279904
 20
58.796055
 10
29.413025
 20
57.742346
 10
29.646107
 20
56.683934
 10
29.972725
 20
55.603843
  0
LINE
  5
10F
100
AcDbEntity
  8
0
  6
Continuous
 62
   174
100
AcDbLine
 10
269.479904
 20
55.78371
 30
0.0
 11
272.587084
 21
55.78371
 31
0.0
  0
LINE
  5
110
100
AcDbEntity
  8
0
  6
Continuous
 62
   174
100
AcDbLine
 10
250.779904
 20
63.193777
 30
0.0
 11
250.779904
 21
55.693777
 31
0.0
  0
LINE
  5
111
100
AcDbEntity
  8
0
  6
HIDDEN
 62
   174
100
AcDbLine
 10
134.297999
 20
67.693777
 30
0.0
 11
128.2981
 21
67.693777
 31
0.0
  0
ARC
  5
112
100
AcDbEntity
  8
0
  6
Continuous
 62
   174
100
AcDbCircle
 10
115.279904
 20
55.693777
 30
0.0
 40
9.4
100
AcDbArc
 50
121.427132
 51
148.572868
  0
LWPOLYLINE
  5
113
100
AcDbEntity
  8
0
  6
HIDDEN
 62
   174
100
AcDbPolyline
 90
        7
 70
   128
 10
29.972725
 20
55.603843
 10
29.606598
 20
54.301877
 10
29.3785
 20
53.025275
 10
29.301596
 20
51.774304
 10
29.378515
 20
50.523349
 10
29.606615
 20
49.246794
 10
29.972725
 20
47.944904
  0
ARC
  5
114
100
AcDbEntity
  8
0
  6
Continuous
 62
   174
100
AcDbCircle
 10
187.279904
 20
55.693777
 30
0.0
 40
9.4
100
AcDbArc
 50
208.925901
 51
211.427132
  0
ARC
  5
115
100
AcDbEntity
  8
0
  6
Continuous
 62
   174
100
AcDbCircle
 10
187.279904
 20
55.693777
 30
0.0
 40
9.4
100
AcDbArc
 50
298.923409
 51
301.427132
  0
ARC
  5
116
100
AcDbEntity
  8
0
  6
Continuous
 62
   174
100
AcDbCircle
 10
227.779904
 20
63.193777
 30
0.0
 40
3.0
100
AcDbArc
 50
-270.0
 51
-180.0
  0
LINE
  5
117
100
AcDbEntity
  8
0
  6
Continuous
 62
   174
100
AcDbLine
 10
250.779904
 20
66.208143
 30
0.0
 11
250.779904
 21
63.208405
 31
0.0
  0
LINE
  5
118
100
AcDbEntity
  8
0
  6
HIDDEN
 62
   174
100
AcDbLine
 10
128.279904
 20
40.693777
 30
0.0
 11
128.279904
 21
41.693777
 31
0.0
  0
LINE
  5
119
100
AcDbEntity
  8
0
  6
HIDDEN
 62
   174
100
AcDbLine
 10
40.579904
 20
53.207793
 30
0.0
 11
40.579904
 21
50.629731
 31
0.0
  0
LWPOLYLINE
  5
11A
100
AcDbEntity
  8
0
  6
Continuous
 62
   174
100
AcDbPolyline
 90
        4
 70
   128
 10
29.279904
 20
47.944904
 10
29.413024
 20
47.944904
 10
29.64611
 20
47.944904
 10
29.972725
 20
47.944904
  0
LINE
  5
11B
100
AcDbEntity
  8
0
  6
HIDDEN
 62
   174
100
AcDbLine
 10
33.079904
 20
63.532583
 30
0.0
 11
33.079904
 21
55.603843
 31
0.0
  0
LINE
  5
11C
100
AcDbEntity
  8
0
  6
Continuous
 62
   174
100
AcDbLine
 10
78.279904
 20
44.693777
 30
0.0
 11
48.279904
 21
44.693777
 31
0.0
  0
LINE
  5
11D
100
AcDbEntity
  8
0
  6
Continuous
 62
   174
100
AcDbLine
 10
51.779904
 20
45.209343
 30
0.0
 11
51.779904
 21
48.209293
 31
0.0
  0
LINE
  5
11E
100
AcDbEntity
  8
0
  6
HIDDEN
 62
   174
100
AcDbLine
 10
128.279904
 20
43.693777
 30
0.0
 11
128.279904
 21
67.693777
 31
0.0
  0
ARC
  5
11F
100
AcDbEntity
  8
0
  6
Continuous
 62
   174
100
AcDbCircle
 10
51.779904
 20
63.193777
 30
0.0
 40
3.0
100
AcDbArc
 50
-270.0
 51
-180.0
  0
LINE
  5
120
100
AcDbEntity
  8
0
  6
HIDDEN
 62
   174
100
AcDbLine
 10
174.279904
 20
67.693777
 30
0.0
 11
174.279904
 21
40.693777
 31
0.0
  0
ARC
  5
121
100
AcDbEntity
  8
0
  6
Continuous
 62
   174
100
AcDbCircle
 10
115.279904
 20
55.693777
 30
0.0
 40
9.4
100
AcDbArc
 50
28.925901
 51
31.427132
  0
ARC
  5
122
100
AcDbEntity
  8
0
  6
Continuous
 62
   174
100
AcDbCircle
 10
89.279904
 20
55.693777
 30
0.0
 40
2.720294
100
AcDbArc
 50
-259.408609
 51
-100.591391
  0
LINE
  5
123
100
AcDbEntity
  8
0
  6
HIDDEN
 62
   174
100
AcDbLine
 10
166.279904
 20
70.693777
 30
0.0
 11
166.279904
 21
67.693777
 31
0.0
  0
LINE
  5
124
100
AcDbEntity
  8
0
  6
Continuous
 62
   174
100
AcDbLine
 10
268.779904
 20
48.995075
 30
0.0
 11
268.779904
 21
46.709318
 31
0.0
  0
LINE
  5
125
100
AcDbEntity
  8
0
  6
Continuous
 62
   174
100
AcDbLine
 10
269.479904
 20
46.709318
 30
0.0
 11
269.479904
 21
47.870466
 31
0.0
  0
LINE
  5
126
100
AcDbEntity
  8
0
  6
Continuous
 62
   174
100
AcDbLine
 10
273.279904
 20
47.909341
 30
0.0
 11
273.279904
 21
51.062453
 31
0.0
  0
LINE
  5
127
100
AcDbEntity
  8
0
  6
HIDDEN
 62
   174
100
AcDbLine
 10
261.979904
 20
60.771829
 30
0.0
 11
255.779904
 21
60.771829
 31
0.0
  0
LINE
  5
128
100
AcDbEntity
  8
0
  6
HIDDEN
 62
   174
100
AcDbLine
 10
40.579904
 20
50.614299
 30
0.0
 11
46.779904
 21
50.614299
 31
0.0
  0
LINE
  5
129
100
AcDbEntity
  8
0
  6
Continuous
 62
   174
100
AcDbLine
 10
254.279904
 20
44.693777
 30
0.0
 11
224.279904
 21
44.693777
 31
0.0
  0
LINE
  5
12A
100
AcDbEntity
  8
0
  6
Continuous
 62
   174
100
AcDbLine
 10
254.279904
 20
66.693777
 30
0.0
 11
254.279904
 21
63.693777
 31
0.0
  0
LINE
  5
12B
100
AcDbEntity
  8
0
  6
HIDDEN
 62
   174
100
AcDbLine
 10
261.979904
 20
58.195025
 30
0.0
 11
255.779904
 21
58.195025
 31
0.0
  0
LWPOLYLINE
  5
12C
100
AcDbEntity
  8
0
  6
Continuous
 62
   174
100
AcDbPolyline
 90
        6
 70
   128
 10
253.779904
 20
61.938774
 10
253.607562
 20
60.982813
 10
253.155761
 20
59.856373
 10
252.492691
 20
58.575382
 10
251.68416
 20
57.181366
 10
250.779904
 20
55.693777
  0
LINE
  5
12D
100
AcDbEntity
  8
0
  6
HIDDEN
 62
   174
100
AcDbLine
 10
253.779904
 20
63.208405
 30
0.0
 11
253.779904
 21
48.209293
 31
0.0
  0
LINE
  5
12E
100
AcDbEntity
  8
0
  6
Continuous
 62
   174
100
AcDbLine
 10
269.479904
 20
63.457162
 30
0.0
 11
269.479904
 21
64.70838
 31
0.0
  0
LINE
  5
12F
100
AcDbEntity
  8
0
  6
Continuous
 62
   174
100
AcDbLine
 10
29.279904
 20
63.508358
 30
0.0
 11
29.279904
 21
60.355245
 31
0.0
  0
ARC
  5
130
100
AcDbEntity
  8
0
  6
Continuous
 62
   174
100
AcDbCircle
 10
151.279904
 20
55.693777
 30
0.0
 40
9.4
100
AcDbArc
 50
210.0
 51
300.0
  0
LINE
  5
131
100
AcDbEntity
  8
0
  6
Continuous
 62
   174
100
AcDbLine
 10
48.279904
 20
63.693777
 30
0.0
 11
48.279904
 21
66.693777
 31
0.0
  0
LINE
  5
132
100
AcDbEntity
  8
0
  6
Continuous
 62
   174
100
AcDbLine
 10
46.779904
 20
65.389859
 30
0.0
 11
46.779904
 21
65.595705
 31
0.0
  0
LINE
  5
133
100
AcDbEntity
  8
0
  6
HIDDEN
 62
   174
100
AcDbLine
 10
134.279904
 20
67.693777
 30
0.0
 11
134.279904
 21
40.693777
 31
0.0
  0
LINE
  5
134
100
AcDbEntity
  8
0
  6
HIDDEN
 62
   174
100
AcDbLine
 10
33.079904
 20
55.603843
 30
0.0
 11
33.079904
 21
47.944904
 31
0.0
  0
LINE
  5
135
100
AcDbEntity
  8
0
  6
HIDDEN
 62
   174
100
AcDbLine
 10
40.579904
 20
53.192528
 30
0.0
 11
46.779904
 21
53.192528
 31
0.0
  0
LINE
  5
136
100
AcDbEntity
  8
0
  6
Continuous
 62
   174
100
AcDbLine
 10
253.779904
 20
48.193777
 30
0.0
 11
253.779904
 21
49.448779
 31
0.0
  0
ARC
  5
137
100
AcDbEntity
  8
0
  6
Continuous
 62
   174
100
AcDbCircle
 10
115.279904
 20
55.693777
 30
0.0
 40
9.4
100
AcDbArc
 50
118.923409
 51
121.427132
  0
LINE
  5
138
100
AcDbEntity
  8
0
  6
HIDDEN
 62
   174
100
AcDbLine
 10
128.279904
 20
41.693777
 30
0.0
 11
128.279904
 21
43.693777
 31
0.0
  0
LWPOLYLINE
  5
139
100
AcDbEntity
  8
0
  6
HIDDEN
 62
   174
100
AcDbPolyline
 90
        7
 70
   128
 10
272.587084
 20
55.78371
 10
272.95321
 20
57.085676
 10
273.181308
 20
58.362278
 10
273.258212
 20
59.613249
 10
273.181294
 20
60.864204
 10
272.953193
 20
62.140759
 10
272.587084
 20
63.442649
  0
LINE
  5
13A
100
AcDbEntity
  8
0
  6
Continuous
 62
   174
100
AcDbLine
 10
40.579904
 20
65.375365
 30
0.0
 11
46.779904
 21
65.375365
 31
0.0
  0
ARC
  5
13B
100
AcDbEntity
  8
0
  6
Continuous
 62
   174
100
AcDbCircle
 10
187.279904
 20
55.693777
 30
0.0
 40
9.4
100
AcDbArc
 50
180.0
 51
208.925901
  0
ARC
  5
13C
100
AcDbEntity
  8
0
  6
Continuous
 62
   174
100
AcDbCircle
 10
187.279904
 20
55.693777
 30
0.0
 40
9.4
100
AcDbArc
 50
241.076591
 51
298.923409
  0
LINE
  5
13D
100
AcDbEntity
  8
0
  6
HIDDEN
 62
   174
100
AcDbLine
 10
168.279904
 20
67.693777
 30
0.0
 11
168.279904
 21
40.693777
 31
0.0
  0
LINE
  5
13E
100
AcDbEntity
  8
0
  6
HIDDEN
 62
   174
100
AcDbLine
 10
269.479904
 20
47.85497
 30
0.0
 11
269.479904
 21
55.78371
 31
0.0
  0
LWPOLYLINE
  5
13F
100
AcDbEntity
  8
0
  6
Continuous
 62
   174
100
AcDbPolyline
 90
        4
 70
   128
 10
273.279904
 20
51.047182
 10
273.146784
 20
49.993473
 10
272.913701
 20
48.935061
 10
272.587084
 20
47.85497
  0
LINE
  5
140
100
AcDbEntity
  8
0
  6
HIDDEN
 62
   174
100
AcDbLine
 10
40.579904
 20
47.079575
 30
0.0
 11
46.779904
 21
47.079575
 31
0.0
  0
LINE
  5
141
100
AcDbEntity
  8
0
  6
Continuous
 62
   174
100
AcDbLine
 10
88.779904
 20
58.367725
 30
0.0
 11
88.779904
 21
53.019828
 31
0.0
  0
LINE
  5
142
100
AcDbEntity
  8
0
  6
Continuous
 62
   174
100
AcDbLine
 10
213.779904
 20
53.019828
 30
0.0
 11
213.779904
 21
58.367725
 31
0.0
  0
ARC
  5
143
100
AcDbEntity
  8
0
  6
Continuous
 62
   174
100
AcDbCircle
 10
187.279904
 20
55.693777
 30
0.0
 40
10.48
100
AcDbArc
 50
-0.667542
 51
0.0
  0
LWPOLYLINE
  5
144
100
AcDbEntity
  8
0
  6
Continuous
 62
   174
100
AcDbPolyline
 90
        7
 70
   128
 10
272.587084
 20
63.442649
 10
272.95321
 20
62.140683
 10
273.181308
 20
60.864081
 10
273.258212
 20
59.61311
 10
273.181294
 20
58.362155
 10
272.953193
 20
57.085601
 10
272.587084
 20
55.78371
  0
LINE
  5
145
100
AcDbEntity
  8
0
  6
HIDDEN
 62
   174
100
AcDbLine
 10
255.779904
 20
50.632705
 30
0.0
 11
255.779904
 21
47.683102
 31
0.0
  0
LINE
  5
146
100
AcDbEntity
  8
0
  6
Continuous
 62
   174
100
AcDbLine
 10
208.279904
 20
70.693777
 30
0.0
 11
208.279904
 21
40.693777
 31
0.0
  0
LINE
  5
147
100
AcDbEntity
  8
0
  6
Continuous
 62
   174
100
AcDbLine
 10
250.779904
 20
55.693777
 30
0.0
 11
250.779904
 21
48.193777
 31
0.0
  0
LINE
  5
148
100
AcDbEntity
  8
0
  6
Continuous
 62
   174
100
AcDbLine
 10
250.779904
 20
48.193777
 30
0.0
 11
227.779904
 21
48.193777
 31
0.0
  0
LINE
  5
149
100
AcDbEntity
  8
0
  6
Continuous
 62
   174
100
AcDbLine
 10
74.779904
 20
63.193777
 30
0.0
 11
74.779904
 21
48.193777
 31
0.0
  0
ARC
  5
14A
100
AcDbEntity
  8
0
  6
Continuous
 62
   174
100
AcDbCircle
 10
213.279904
 20
55.693777
 30
0.0
 40
2.720294
100
AcDbArc
 50
-259.408609
 51
-100.591391
  0
LINE
  5
14B
100
AcDbEntity
  8
0
  6
Continuous
 62
   174
100
AcDbLine
 10
227.779904
 20
48.209293
 30
0.0
 11
227.779904
 21
45.209343
 31
0.0
  0
LINE
  5
14C
100
AcDbEntity
  8
0
  6
Continuous
 62
   174
100
AcDbLine
 10
268.779904
 20
64.70838
 30
0.0
 11
268.779904
 21
62.422623
 31
0.0
  0
LWPOLYLINE
  5
14D
100
AcDbEntity
  8
0
  6
HIDDEN
 62
   174
100
AcDbPolyline
 90
        4
 70
   128
 10
272.587084
 20
47.85497
 10
272.914984
 20
48.939939
 10
273.147739
 20
49.998938
 10
273.279904
 20
51.047182
  0
LWPOLYLINE
  5
14E
100
AcDbEntity
  8
0
  6
Continuous
 62
   174
100
AcDbPolyline
 90
        4
 70
   128
 10
272.587084
 20
55.78371
 10
272.914984
 20
54.698741
 10
273.147739
 20
53.639742
 10
273.279904
 20
52.591498
  0
ARC
  5
14F
100
AcDbEntity
  8
0
  6
Continuous
 62
   174
100
AcDbCircle
 10
250.779904
 20
63.193777
 30
0.0
 40
3.0
100
AcDbArc
 50
-360.0
 51
-270.0
  0
LINE
  5
150
100
AcDbEntity
  8
0
  6
Continuous
 62
   174
100
AcDbLine
 10
74.779904
 20
48.193777
 30
0.0
 11
51.779904
 21
48.193777
 31
0.0
  0
LINE
  5
151
100
AcDbEntity
  8
0
  6
HIDDEN
 62
   174
100
AcDbLine
 10
128.279904
 20
67.693777
 30
0.0
 11
128.279904
 21
40.693777
 31
0.0
  0
LINE
  5
152
100
AcDbEntity
  8
0
  6
Continuous
 62
   174
100
AcDbLine
 10
48.279904
 20
44.693777
 30
0.0
 11
48.279904
 21
47.693777
 31
0.0
  0
ARC
  5
153
100
AcDbEntity
  8
0
  6
Continuous
 62
   174
100
AcDbCircle
 10
74.779904
 20
63.193777
 30
0.0
 40
3.0
100
AcDbArc
 50
0.0
 51
90.0
  0
LINE
  5
154
100
AcDbEntity
  8
0
  6
Continuous
 62
   174
100
AcDbLine
 10
227.797997
 20
48.193777
 30
0.0
 11
224.798047
 21
48.193777
 31
0.0
  0
LINE
  5
155
100
AcDbEntity
  8
0
  6
Continuous
 62
   174
100
AcDbLine
 10
174.279904
 20
32.693777
 30
0.0
 11
174.279904
 21
40.693777
 31
0.0
  0
LINE
  5
156
100
AcDbEntity
  8
0
  6
HIDDEN
 62
   174
100
AcDbLine
 10
261.979904
 20
47.693777
 30
0.0
 11
261.979904
 21
50.617295
 31
0.0
  0
LINE
  5
157
100
AcDbEntity
  8
0
  6
HIDDEN
 62
   174
100
AcDbLine
 10
128.279904
 20
40.693777
 30
0.0
 11
128.279904
 21
41.693777
 31
0.0
  0
LINE
  5
158
100
AcDbEntity
  8
0
  6
HIDDEN
 62
   174
100
AcDbLine
 10
48.779904
 20
48.209293
 30
0.0
 11
48.779904
 21
63.208405
 31
0.0
  0
LINE
  5
159
100
AcDbEntity
  8
0
  6
Continuous
 62
   174
100
AcDbLine
 10
253.798059
 20
63.193777
 30
0.0
 11
250.797896
 21
63.193777
 31
0.0
  0
LINE
  5
15A
100
AcDbEntity
  8
0
  6
Continuous
 62
   174
100
AcDbLine
 10
265.779904
 20
62.314921
 30
0.0
 11
265.779904
 21
63.708468
 31
0.0
  0
LINE
  5
15B
100
AcDbEntity
  8
0
  6
HIDDEN
 62
   174
100
AcDbLine
 10
40.579904
 20
58.191659
 30
0.0
 11
46.779904
 21
58.191659
 31
0.0
  0
LINE
  5
15C
100
AcDbEntity
  8
0
  6
HIDDEN
 62
   174
100
AcDbLine
 10
48.279904
 20
47.693777
 30
0.0
 11
48.279904
 21
63.693777
 31
0.0
  0
LINE
  5
15D
100
AcDbEntity
  8
0
  6
HIDDEN
 62
   174
100
AcDbLine
 10
269.479904
 20
55.78371
 30
0.0
 11
269.479904
 21
63.442649
 31
0.0
  0
LINE
  5
15E
100
AcDbEntity
  8
0
  6
Continuous
 62
   174
100
AcDbLine
 10
255.779904
 20
65.595705
 30
0.0
 11
255.779904
 21
65.390709
 31
0.0
  0
ARC
  5
15F
100
AcDbEntity
  8
0
  6
Continuous
 62
   174
100
AcDbCircle
 10
187.279904
 20
55.693777
 30
0.0
 40
9.4
100
AcDbArc
 50
151.074099
 51
180.0
  0
LINE
  5
160
100
AcDbEntity
  8
0
  6
Continuous
 62
   174
100
AcDbLine
 10
29.972725
 20
47.944904
 30
0.0
 11
33.079904
 21
47.944904
 31
0.0
  0
LINE
  5
161
100
AcDbEntity
  8
0
  6
Continuous
 62
   174
100
AcDbLine
 10
29.320145
 20
63.532583
 30
0.0
 11
29.39662
 21
63.532583
 31
0.0
  0
LINE
  5
162
100
AcDbEntity
  8
0
  6
Continuous
 62
   174
100
AcDbLine
 10
261.979904
 20
46.012188
 30
0.0
 11
255.779904
 21
46.012188
 31
0.0
  0
LINE
  5
163
100
AcDbEntity
  8
0
  6
Continuous
 62
   174
100
AcDbLine
 10
46.779904
 20
65.595705
 30
0.0
 11
46.779904
 21
65.708293
 31
0.0
  0
LINE
  5
164
100
AcDbEntity
  8
0
  6
HIDDEN
 62
   174
100
AcDbLine
 10
134.279904
 20
67.693777
 30
0.0
 11
134.279904
 21
40.693777
 31
0.0
  0
LINE
  5
165
100
AcDbEntity
  8
0
  6
Continuous
 62
   174
100
AcDbLine
 10
46.779904
 20
45.709406
 30
0.0
 11
46.779904
 21
45.821994
 31
0.0
  0
ARC
  5
166
100
AcDbEntity
  8
0
  6
Continuous
 62
   174
100
AcDbCircle
 10
115.279904
 20
55.693777
 30
0.0
 40
9.4
100
AcDbArc
 50
208.925901
 51
211.427132
  0
LINE
  5
167
100
AcDbEntity
  8
0
  6
HIDDEN
 62
   174
100
AcDbLine
 10
126.298062
 20
70.693777
 30
0.0
 11
136.298037
 21
70.693777
 31
0.0
  0
LINE
  5
168
100
AcDbEntity
  8
0
  6
HIDDEN
 62
   174
100
AcDbLine
 10
255.779904
 20
64.307978
 30
0.0
 11
255.779904
 21
60.771829
 31
0.0
  0
LINE
  5
169
100
AcDbEntity
  8
0
  6
Continuous
 62
   174
100
AcDbLine
 10
261.979904
 20
65.376235
 30
0.0
 11
255.779904
 21
65.376235
 31
0.0
  0
LWPOLYLINE
  5
16A
100
AcDbEntity
  8
0
  6
Continuous
 62
   174
100
AcDbPolyline
 90
        6
 70
   128
 10
250.779904
 20
55.693777
 10
251.68522
 20
54.204417
 10
252.493525
 20
52.810668
 10
253.155373
 20
51.532006
 10
253.607199
 20
50.405902
 10
253.779904
 20
49.448779
  0
LINE
  5
16B
100
AcDbEntity
  8
0
  6
HIDDEN
 62
   174
100
AcDbLine
 10
255.779904
 20
58.209905
 30
0.0
 11
255.779904
 21
53.21098
 31
0.0
  0
ARC
  5
16C
100
AcDbEntity
  8
0
  6
Continuous
 62
   174
100
AcDbCircle
 10
151.279904
 20
55.693777
 30
0.0
 40
10.48
100
AcDbArc
 50
-179.280256
 51
-0.719744
  0
LINE
  5
16D
100
AcDbEntity
  8
0
  6
Continuous
 62
   174
100
AcDbLine
 10
36.779904
 20
62.314921
 30
0.0
 11
36.779904
 21
49.102778
 31
0.0
  0
LINE
  5
16E
100
AcDbEntity
  8
0
  6
Continuous
 62
   174
100
AcDbLine
 10
40.579904
 20
47.09488
 30
0.0
 11
40.579904
 21
46.02699
 31
0.0
  0
ARC
  5
16F
100
AcDbEntity
  8
0
  6
Continuous
 62
   174
100
AcDbCircle
 10
51.779904
 20
48.193777
 30
0.0
 40
3.0
100
AcDbArc
 50
-180.0
 51
-90.0
  0
LINE
  5
170
100
AcDbEntity
  8
0
  6
HIDDEN
 62
   174
100
AcDbLine
 10
261.979904
 20
53.195894
 30
0.0
 11
261.979904
 21
58.195025
 31
0.0
  0
LINE
  5
171
100
AcDbEntity
  8
0
  6
Continuous
 62
   174
100
AcDbLine
 10
253.779904
 20
61.938774
 30
0.0
 11
253.779904
 21
63.193777
 31
0.0
  0
ARC
  5
172
100
AcDbEntity
  8
0
  6
Continuous
 62
   174
100
AcDbCircle
 10
187.279904
 20
55.693777
 30
0.0
 40
9.4
100
AcDbArc
 50
148.572868
 51
151.074099
  0
LINE
  5
173
100
AcDbEntity
  8
0
  6
Continuous
 62
   174
100
AcDbLine
 10
250.779904
 20
48.209293
 30
0.0
 11
250.779904
 21
45.209343
 31
0.0
  0
LINE
  5
174
100
AcDbEntity
  8
0
  6
Continuous
 62
   174
100
AcDbLine
 10
272.587084
 20
63.442649
 30
0.0
 11
269.479904
 21
63.442649
 31
0.0
  0
LINE
  5
175
100
AcDbEntity
  8
0
  6
HIDDEN
 62
   174
100
AcDbLine
 10
166.297961
 20
67.693777
 30
0.0
 11
176.297936
 21
67.693777
 31
0.0
  0
ARC
  5
176
100
AcDbEntity
  8
0
  6
Continuous
 62
   174
100
AcDbCircle
 10
187.279904
 20
55.693777
 30
0.0
 40
9.4
100
AcDbArc
 50
121.427132
 51
148.572868
  0
ARC
  5
177
100
AcDbEntity
  8
0
  6
Continuous
 62
   174
100
AcDbCircle
 10
115.279904
 20
55.693777
 30
0.0
 40
10.48
100
AcDbArc
 50
-359.332458
 51
-241.205132
  0
LINE
  5
178
100
AcDbEntity
  8
0
  6
HIDDEN
 62
   174
100
AcDbLine
 10
268.779904
 20
49.209206
 30
0.0
 11
268.779904
 21
62.208493
 31
0.0
  0
LINE
  5
179
100
AcDbEntity
  8
0
  6
Continuous
 62
   174
100
AcDbLine
 10
273.279904
 20
52.606826
 30
0.0
 11
273.279904
 21
63.457162
 31
0.0
  0
LINE
  5
17A
100
AcDbEntity
  8
0
  6
HIDDEN
 62
   174
100
AcDbLine
 10
261.979904
 20
60.773254
 30
0.0
 11
261.979904
 21
63.693777
 31
0.0
  0
LINE
  5
17B
100
AcDbEntity
  8
0
  6
Continuous
 62
   174
100
AcDbLine
 10
255.779904
 20
46.02784
 30
0.0
 11
255.779904
 21
45.821994
 31
0.0
  0
LINE
  5
17C
100
AcDbEntity
  8
0
  6
HIDDEN
 62
   174
100
AcDbLine
 10
128.279904
 20
67.693777
 30
0.0
 11
128.279904
 21
40.693777
 31
0.0
  0
ARC
  5
17D
100
AcDbEntity
  8
0
  6
Continuous
 62
   174
100
AcDbCircle
 10
227.779904
 20
48.193777
 30
0.0
 40
3.0
100
AcDbArc
 50
-180.0
 51
-90.0
  0
ARC
  5
17E
100
AcDbEntity
  8
0
  6
Continuous
 62
   174
100
AcDbCircle
 10
187.279904
 20
55.693777
 30
0.0
 40
9.4
100
AcDbArc
 50
238.572868
 51
241.076591
  0
ARC
  5
17F
100
AcDbEntity
  8
0
  6
Continuous
 62
   174
100
AcDbCircle
 10
115.279904
 20
55.693777
 30
0.0
 40
9.4
100
AcDbArc
 50
238.572868
 51
241.076591
  0
LINE
  5
180
100
AcDbEntity
  8
0
  6
Continuous
 62
   174
100
AcDbLine
 10
212.779904
 20
58.367725
 30
0.0
 11
212.779904
 21
53.019828
 31
0.0
  0
LINE
  5
181
100
AcDbEntity
  8
0
  6
Continuous
 62
   174
100
AcDbLine
 10
134.279904
 20
32.693777
 30
0.0
 11
134.279904
 21
40.693777
 31
0.0
  0
LINE
  5
182
100
AcDbEntity
  8
0
  6
Continuous
 62
   174
100
AcDbLine
 10
273.279904
 20
52.591498
 30
0.0
 11
273.279904
 21
51.047182
 31
0.0
  0
LINE
  5
183
100
AcDbEntity
  8
0
  6
HIDDEN
 62
   174
100
AcDbLine
 10
46.779904
 20
47.079575
 30
0.0
 11
46.779904
 21
50.615724
 31
0.0
  0
LINE
  5
184
100
AcDbEntity
  8
0
  6
Continuous
 62
   174
100
AcDbLine
 10
269.479904
 20
47.85497
 30
0.0
 11
272.587084
 21
47.85497
 31
0.0
  0
LINE
  5
185
100
AcDbEntity
  8
0
  6
Continuous
 62
   174
100
AcDbLine
 10
261.979904
 20
63.693777
 30
0.0
 11
261.979904
 21
64.308173
 31
0.0
  0
ARC
  5
186
100
AcDbEntity
  8
0
  6
Continuous
 62
   174
100
AcDbCircle
 10
89.279904
 20
55.693777
 30
0.0
 40
3.0
100
AcDbArc
 50
0.0
 51
180.0
  0
LINE
  5
187
100
AcDbEntity
  8
0
  6
Continuous
 62
   174
100
AcDbLine
 10
224.798047
 20
63.193777
 30
0.0
 11
227.797997
 21
63.193777
 31
0.0
  0
LINE
  5
188
100
AcDbEntity
  8
0
  6
Continuous
 62
   174
100
AcDbLine
 10
265.779904
 20
49.102778
 30
0.0
 11
265.779904
 21
62.314921
 31
0.0
  0
LINE
  5
189
100
AcDbEntity
  8
0
  6
Continuous
 62
   174
100
AcDbLine
 10
33.079904
 20
55.618885
 30
0.0
 11
33.079904
 21
47.960324
 31
0.0
  0
LINE
  5
18A
100
AcDbEntity
  8
0
  6
Continuous
 62
   174
100
AcDbLine
 10
261.979904
 20
47.081147
 30
0.0
 11
261.979904
 21
47.693777
 31
0.0
  0
ARC
  5
18B
100
AcDbEntity
  8
0
  6
Continuous
 62
   174
100
AcDbCircle
 10
115.279904
 20
55.693777
 30
0.0
 40
9.4
100
AcDbArc
 50
180.0
 51
208.925901
  0
ARC
  5
18C
100
AcDbEntity
  8
0
  6
Continuous
 62
   174
100
AcDbCircle
 10
115.279904
 20
55.693777
 30
0.0
 40
9.4
100
AcDbArc
 50
298.923409
 51
301.427132
  0
ARC
  5
18D
100
AcDbEntity
  8
0
  6
Continuous
 62
   174
100
AcDbCircle
 10
115.279904
 20
55.693777
 30
0.0
 40
9.4
100
AcDbArc
 50
328.572868
 51
331.074099
  0
ARC
  5
18E
100
AcDbEntity
  8
0
  6
Continuous
 62
   174
100
AcDbCircle
 10
115.279904
 20
55.693777
 30
0.0
 40
10.48
100
AcDbArc
 50
-180.0
 51
-179.332458
  0
ARC
  5
18F
100
AcDbEntity
  8
0
  6
Continuous
 62
   174
100
AcDbCircle
 10
115.279904
 20
55.693777
 30
0.0
 40
10.48
100
AcDbArc
 50
-179.332458
 51
-0.667542
  0
LINE
  5
190
100
AcDbEntity
  8
0
  6
Continuous
 62
   174
100
AcDbLine
 10
74.798001
 20
63.193777
 30
0.0
 11
77.798163
 21
63.193777
 31
0.0
  0
LINE
  5
191
100
AcDbEntity
  8
0
  6
Continuous
 62
   174
100
AcDbLine
 10
255.779904
 20
65.708293
 30
0.0
 11
255.779904
 21
65.595705
 31
0.0
  0
LINE
  5
192
100
AcDbEntity
  8
0
  6
Continuous
 62
   174
100
AcDbLine
 10
48.279904
 20
66.693777
 30
0.0
 11
78.279904
 21
66.693777
 31
0.0
  0
ARC
  5
193
100
AcDbEntity
  8
0
  6
Continuous
 62
   174
100
AcDbCircle
 10
115.279904
 20
55.693777
 30
0.0
 40
9.4
100
AcDbArc
 50
0.0
 51
28.925901
  0
LINE
  5
194
100
AcDbEntity
  8
0
  6
Continuous
 62
   174
100
AcDbLine
 10
227.779904
 20
45.193777
 30
0.0
 11
250.779904
 21
45.193777
 31
0.0
  0
LINE
  5
195
100
AcDbEntity
  8
0
  6
HIDDEN
 62
   174
100
AcDbLine
 10
134.297999
 20
67.693777
 30
0.0
 11
128.2981
 21
67.693777
 31
0.0
  0
LINE
  5
196
100
AcDbEntity
  8
0
  6
HIDDEN
 62
   174
100
AcDbLine
 10
261.979904
 20
64.307978
 30
0.0
 11
255.779904
 21
64.307978
 31
0.0
  0
LINE
  5
197
100
AcDbEntity
  8
0
  6
HIDDEN
 62
   174
100
AcDbLine
 10
40.579904
 20
64.309744
 30
0.0
 11
46.779904
 21
64.309744
 31
0.0
  0
LINE
  5
198
100
AcDbEntity
  8
0
  6
HIDDEN
 62
   174
100
AcDbLine
 10
255.779904
 20
63.734597
 30
0.0
 11
255.779904
 21
60.787967
 31
0.0
  0
LINE
  5
199
100
AcDbEntity
  8
0
  6
HIDDEN
 62
   174
100
AcDbLine
 10
174.279904
 20
40.693777
 30
0.0
 11
174.279904
 21
67.693777
 31
0.0
  0
LINE
  5
19A
100
AcDbEntity
  8
0
  6
Continuous
 62
   174
100
AcDbLine
 10
168.297998
 20
32.693777
 30
0.0
 11
174.298111
 21
32.693777
 31
0.0
  0
LWPOLYLINE
  5
19B
100
AcDbEntity
  8
0
  6
HIDDEN
 62
   174
100
AcDbPolyline
 90
        4
 70
   128
 10
253.779904
 20
48.193777
 10
253.767345
 20
47.919553
 10
253.74694
 20
47.750267
 10
253.737944
 20
47.693777
  0
LINE
  5
19C
100
AcDbEntity
  8
0
  6
HIDDEN
 62
   174
100
AcDbLine
 10
40.579904
 20
60.770258
 30
0.0
 11
46.779904
 21
60.770258
 31
0.0
  0
LINE
  5
19D
100
AcDbEntity
  8
0
  6
HIDDEN
 62
   174
100
AcDbLine
 10
40.579904
 20
50.614299
 30
0.0
 11
40.579904
 21
47.693777
 31
0.0
  0
LINE
  5
19E
100
AcDbEntity
  8
0
  6
HIDDEN
 62
   174
100
AcDbLine
 10
136.279904
 20
70.693777
 30
0.0
 11
136.279904
 21
67.693777
 31
0.0
  0
LINE
  5
19F
100
AcDbEntity
  8
0
  6
Continuous
 62
   174
100
AcDbLine
 10
36.779904
 20
63.708468
 30
0.0
 11
36.779904
 21
62.314921
 31
0.0
  0
LINE
  5
1A0
100
AcDbEntity
  8
0
  6
Continuous
 62
   174
100
AcDbLine
 10
33.079904
 20
63.532583
 30
0.0
 11
29.972725
 21
63.532583
 31
0.0
  0
LINE
  5
1A1
100
AcDbEntity
  8
0
  6
HIDDEN
 62
   174
100
AcDbLine
 10
126.298062
 20
67.693777
 30
0.0
 11
136.298037
 21
67.693777
 31
0.0
  0
LINE
  5
1A2
100
AcDbEntity
  8
0
  6
Continuous
 62
   174
100
AcDbLine
 10
128.2981
 20
32.693777
 30
0.0
 11
134.297999
 21
32.693777
 31
0.0
  0
LINE
  5
1A3
100
AcDbEntity
  8
0
  6
Continuous
 62
   174
100
AcDbLine
 10
33.079904
 20
55.603843
 30
0.0
 11
29.972725
 21
55.603843
 31
0.0
  0
LWPOLYLINE
  5
1A4
100
AcDbEntity
  8
0
  6
HIDDEN
 62
   174
100
AcDbPolyline
 90
        4
 70
   128
 10
253.737944
 20
63.693777
 10
253.746939
 20
63.637289
 10
253.767345
 20
63.468002
 10
253.779904
 20
63.193777
  0
ARC
  5
1A5
100
AcDbEntity
  8
0
  6
Continuous
 62
   174
100
AcDbCircle
 10
187.279904
 20
55.693777
 30
0.0
 40
9.4
100
AcDbArc
 50
28.925901
 51
31.427132
  0
LINE
  5
1A6
100
AcDbEntity
  8
0
  6
HIDDEN
 62
   174
100
AcDbLine
 10
134.279904
 20
43.693777
 30
0.0
 11
134.279904
 21
67.693777
 31
0.0
  0
LINE
  5
1A7
100
AcDbEntity
  8
0
  6
HIDDEN
 62
   174
100
AcDbLine
 10
33.779904
 20
62.208493
 30
0.0
 11
33.779904
 21
49.209206
 31
0.0
  0
LINE
  5
1A8
100
AcDbEntity
  8
0
  6
Continuous
 62
   174
100
AcDbLine
 10
40.579904
 20
65.389859
 30
0.0
 11
40.579904
 21
64.320906
 31
0.0
  0
LINE
  5
1A9
100
AcDbEntity
  8
0
  6
HIDDEN
 62
   174
100
AcDbLine
 10
255.779904
 20
50.612728
 30
0.0
 11
255.779904
 21
47.077809
 31
0.0
  0
LWPOLYLINE
  5
1AA
100
AcDbEntity
  8
0
  6
HIDDEN
 62
   174
100
AcDbPolyline
 90
        4
 70
   128
 10
48.779904
 20
63.193777
 10
48.792464
 20
63.468
 10
48.812869
 20
63.637286
 10
48.821864
 20
63.693777
  0
LINE
  5
1AB
100
AcDbEntity
  8
0
  6
Continuous
 62
   174
100
AcDbLine
 10
51.779904
 20
48.193777
 30
0.0
 11
51.779904
 21
55.693777
 31
0.0
  0
LINE
  5
1AC
100
AcDbEntity
  8
0
  6
Continuous
 62
   174
100
AcDbLine
 10
51.779904
 20
63.193777
 30
0.0
 11
74.779904
 21
63.193777
 31
0.0
  0
ARC
  5
1AD
100
AcDbEntity
  8
0
  6
Continuous
 62
   174
100
AcDbCircle
 10
187.279904
 20
55.693777
 30
0.0
 40
9.4
100
AcDbArc
 50
211.427132
 51
238.572868
  0
ARC
  5
1AE
100
AcDbEntity
  8
0
  6
Continuous
 62
   174
100
AcDbCircle
 10
115.279904
 20
55.693777
 30
0.0
 40
9.4
100
AcDbArc
 50
211.427132
 51
238.572868
  0
LINE
  5
1AF
100
AcDbEntity
  8
0
  6
HIDDEN
 62
   174
100
AcDbLine
 10
166.297961
 20
70.693777
 30
0.0
 11
176.297936
 21
70.693777
 31
0.0
  0
ARC
  5
1B0
100
AcDbEntity
  8
0
  6
Continuous
 62
   174
100
AcDbCircle
 10
213.279904
 20
55.693777
 30
0.0
 40
3.0
100
AcDbArc
 50
-180.0
 51
0.0
  0
LINE
  5
1B1
100
AcDbEntity
  8
0
  6
Continuous
 62
   174
100
AcDbLine
 10
269.479904
 20
47.870466
 30
0.0
 11
269.479904
 21
55.798814
 31
0.0
  0
LINE
  5
1B2
100
AcDbEntity
  8
0
  6
Continuous
 62
   174
100
AcDbLine
 10
51.779904
 20
55.693777
 30
0.0
 11
51.779904
 21
63.193777
 31
0.0
  0
ARC
  5
1B3
100
AcDbEntity
  8
0
  6
Continuous
 62
   174
100
AcDbCircle
 10
213.279904
 20
55.693777
 30
0.0
 40
2.720294
100
AcDbArc
 50
-79.408609
 51
79.408609
  0
LINE
  5
1B4
100
AcDbEntity
  8
0
  6
HIDDEN
 62
   174
100
AcDbLine
 10
134.279904
 20
43.693777
 30
0.0
 11
134.279904
 21
67.693777
 31
0.0
  0
LINE
  5
1B5
100
AcDbEntity
  8
0
  6
HIDDEN
 62
   174
100
AcDbLine
 10
46.779904
 20
60.774825
 30
0.0
 11
46.779904
 21
64.309744
 31
0.0
  0
LWPOLYLINE
  5
1B6
100
AcDbEntity
  8
0
  6
HIDDEN
 62
   174
100
AcDbPolyline
 90
        4
 70
   128
 10
48.821864
 20
47.693777
 10
48.812869
 20
47.750264
 10
48.792464
 20
47.919551
 10
48.779904
 20
48.193777
  0
LINE
  5
1B7
100
AcDbEntity
  8
0
  6
Continuous
 62
   174
100
AcDbLine
 10
46.779904
 20
65.693777
 30
0.0
 11
47.279904
 21
65.693777
 31
0.0
  0
LINE
  5
1B8
100
AcDbEntity
  8
0
  6
Continuous
 62
   174
100
AcDbLine
 10
47.279904
 20
65.693777
 30
0.0
 11
48.279904
 21
65.693777
 31
0.0
  0
LINE
  5
1B9
100
AcDbEntity
  8
0
  6
Continuous
 62
   174
100
AcDbLine
 10
47.279904
 20
45.693777
 30
0.0
 11
48.279904
 21
45.693777
 31
0.0
  0
LINE
  5
1BA
100
AcDbEntity
  8
0
  6
HIDDEN
 62
   174
100
AcDbLine
 10
46.779904
 20
60.784993
 30
0.0
 11
46.779904
 21
63.734597
 31
0.0
  0
ARC
  5
1BB
100
AcDbEntity
  8
0
  6
Continuous
 62
   174
100
AcDbCircle
 10
115.279904
 20
55.693777
 30
0.0
 40
9.4
100
AcDbArc
 50
241.076591
 51
298.923409
  0
ARC
  5
1BC
100
AcDbEntity
  8
0
  6
Continuous
 62
   174
100
AcDbCircle
 10
115.279904
 20
55.693777
 30
0.0
 40
9.4
100
AcDbArc
 50
301.427132
 51
328.572868
  0
ARC
  5
1BD
100
AcDbEntity
  8
0
  6
Continuous
 62
   174
100
AcDbCircle
 10
187.279904
 20
55.693777
 30
0.0
 40
10.48
100
AcDbArc
 50
-179.332458
 51
-0.667542
  0
LINE
  5
1BE
100
AcDbEntity
  8
0
  6
HIDDEN
 62
   174
100
AcDbLine
 10
168.279904
 20
40.693777
 30
0.0
 11
168.279904
 21
67.693777
 31
0.0
  0
LINE
  5
1BF
100
AcDbEntity
  8
0
  6
Continuous
 62
   174
100
AcDbLine
 10
33.079904
 20
47.960324
 30
0.0
 11
33.079904
 21
46.709318
 31
0.0
  0
LINE
  5
1C0
100
AcDbEntity
  8
0
  6
Continuous
 62
   174
100
AcDbLine
 10
33.079904
 20
63.547233
 30
0.0
 11
33.079904
 21
55.618885
 31
0.0
  0
LINE
  5
1C1
100
AcDbEntity
  8
0
  6
HIDDEN
 62
   174
100
AcDbLine
 10
40.579904
 20
58.191659
 30
0.0
 11
40.579904
 21
53.192528
 31
0.0
  0
LINE
  5
1C2
100
AcDbEntity
  8
0
  6
Continuous
 62
   174
100
AcDbLine
 10
47.279904
 20
65.693777
 30
0.0
 11
48.279904
 21
65.693777
 31
0.0
  0
ARC
  5
1C3
100
AcDbEntity
  8
0
  6
Continuous
 62
   174
100
AcDbCircle
 10
250.779904
 20
48.193777
 30
0.0
 40
3.0
100
AcDbArc
 50
-90.0
 51
0.0
  0
LINE
  5
1C4
100
AcDbEntity
  8
0
  6
Continuous
 62
   174
100
AcDbLine
 10
255.779904
 20
45.821994
 30
0.0
 11
255.779904
 21
45.709406
 31
0.0
  0
LINE
  5
1C5
100
AcDbEntity
  8
0
  6
HIDDEN
 62
   174
100
AcDbLine
 10
46.779904
 20
53.207793
 30
0.0
 11
46.779904
 21
58.206506
 31
0.0
  0
ARC
  5
1C6
100
AcDbEntity
  8
0
  6
Continuous
 62
   174
100
AcDbCircle
 10
115.279904
 20
55.693777
 30
0.0
 40
9.4
100
AcDbArc
 50
-28.925901
 51
0.0
  0
LINE
  5
1C7
100
AcDbEntity
  8
0
  6
HIDDEN
 62
   174
100
AcDbLine
 10
254.279904
 20
63.693777
 30
0.0
 11
254.279904
 21
47.693777
 31
0.0
  0
LINE
  5
1C8
100
AcDbEntity
  8
0
  6
HIDDEN
 62
   174
100
AcDbLine
 10
126.279904
 20
70.693777
 30
0.0
 11
126.279904
 21
67.693777
 31
0.0
  0
LINE
  5
1C9
100
AcDbEntity
  8
0
  6
Continuous
 62
   174
100
AcDbLine
 10
227.779904
 20
66.208143
 30
0.0
 11
227.779904
 21
63.208405
 31
0.0
  0
LINE
  5
1CA
100
AcDbEntity
  8
0
  6
HIDDEN
 62
   174
100
AcDbLine
 10
261.979904
 20
47.077809
 30
0.0
 11
255.779904
 21
47.077809
 31
0.0
  0
LINE
  5
1CB
100
AcDbEntity
  8
0
  6
Continuous
 62
   174
100
AcDbLine
 10
48.779904
 20
63.193777
 30
0.0
 11
48.779904
 21
61.938774
 31
0.0
  0
LINE
  5
1CC
100
AcDbEntity
  8
0
  6
Continuous
 62
   174
100
AcDbLine
 10
77.779904
 20
48.193777
 30
0.0
 11
77.779904
 21
63.193777
 31
0.0
  0
LINE
  5
1CD
100
AcDbEntity
  8
0
  6
Continuous
 62
   174
100
AcDbLine
 10
174.279904
 20
32.693777
 30
0.0
 11
174.279904
 21
40.693777
 31
0.0
  0
LINE
  5
1CE
100
AcDbEntity
  8
0
  6
Continuous
 62
   174
100
AcDbLine
 10
128.279904
 20
32.693777
 30
0.0
 11
128.279904
 21
40.693777
 31
0.0
  0
LINE
  5
1CF
100
AcDbEntity
  8
0
  6
Continuous
 62
   174
100
AcDbLine
 10
255.779904
 20
45.693777
 30
0.0
 11
255.279904
 21
45.693777
 31
0.0
  0
LINE
  5
1D0
100
AcDbEntity
  8
0
  6
Continuous
 62
   174
100
AcDbLine
 10
255.279904
 20
45.693777
 30
0.0
 11
254.279904
 21
45.693777
 31
0.0
  0
LINE
  5
1D1
100
AcDbEntity
  8
0
  6
Continuous
 62
   174
100
AcDbLine
 10
255.279904
 20
65.693777
 30
0.0
 11
254.279904
 21
65.693777
 31
0.0
  0
LINE
  5
1D2
100
AcDbEntity
  8
0
  6
Continuous
 62
   174
100
AcDbLine
 10
250.779904
 20
66.193777
 30
0.0
 11
227.779904
 21
66.193777
 31
0.0
  0
LINE
  5
1D3
100
AcDbEntity
  8
0
  6
HIDDEN
 62
   174
100
AcDbLine
 10
168.279904
 20
40.693777
 30
0.0
 11
168.279904
 21
67.693777
 31
0.0
  0
LINE
  5
1D4
100
AcDbEntity
  8
0
  6
Continuous
 62
   174
100
AcDbLine
 10
168.279904
 20
32.693777
 30
0.0
 11
168.279904
 21
40.693777
 31
0.0
  0
LINE
  5
1D5
100
AcDbEntity
  8
0
  6
HIDDEN
 62
   174
100
AcDbLine
 10
261.979904
 20
50.632705
 30
0.0
 11
261.979904
 21
53.21098
 31
0.0
  0
LINE
  5
1D6
100
AcDbEntity
  8
0
  6
Continuous
 62
   174
100
AcDbLine
 10
261.979904
 20
64.322818
 30
0.0
 11
261.979904
 21
65.390709
 31
0.0
  0
LINE
  5
1D7
100
AcDbEntity
  8
0
  6
Continuous
 62
   174
100
AcDbLine
 10
255.779904
 20
65.693777
 30
0.0
 11
255.279904
 21
65.693777
 31
0.0
  0
ARC
  5
1D8
100
AcDbEntity
  8
0
  6
Continuous
 62
   174
100
AcDbCircle
 10
115.279904
 20
55.693777
 30
0.0
 40
10.48
100
AcDbArc
 50
-0.667542
 51
0.0
  0
ARC
  5
1D9
100
AcDbEntity
  8
0
  6
Continuous
 62
   174
100
AcDbCircle
 10
187.279904
 20
55.693777
 30
0.0
 40
10.48
100
AcDbArc
 50
0.0
 51
0.667542
  0
LINE
  5
1DA
100
AcDbEntity
  8
0
  6
Continuous
 62
   174
100
AcDbLine
 10
134.279904
 20
32.693777
 30
0.0
 11
134.279904
 21
40.693777
 31
0.0
  0
LINE
  5
1DB
100
AcDbEntity
  8
0
  6
Continuous
 62
   174
100
AcDbLine
 10
46.779904
 20
45.693777
 30
0.0
 11
47.279904
 21
45.693777
 31
0.0
  0
LINE
  5
1DC
100
AcDbEntity
  8
0
  6
Continuous
 62
   174
100
AcDbLine
 10
255.779904
 20
64.322818
 30
0.0
 11
255.779904
 21
63.734597
 31
0.0
  0
LINE
  5
1DD
100
AcDbEntity
  8
0
  6
HIDDEN
 62
   174
100
AcDbLine
 10
134.279904
 20
41.693777
 30
0.0
 11
134.279904
 21
43.693777
 31
0.0
  0
LWPOLYLINE
  5
1DE
100
AcDbEntity
  8
0
  6
Continuous
 62
   174
100
AcDbPolyline
 90
        4
 70
   128
 10
273.279904
 20
63.442649
 10
273.146784
 20
63.442649
 10
272.913698
 20
63.442649
 10
272.587084
 20
63.442649
  0
ARC
  5
1DF
100
AcDbEntity
  8
0
  6
Continuous
 62
   174
100
AcDbCircle
 10
187.279904
 20
55.693777
 30
0.0
 40
9.4
100
AcDbArc
 50
58.572868
 51
61.076591
  0
LINE
  5
1E0
100
AcDbEntity
  8
0
  6
HIDDEN
 62
   174
100
AcDbLine
 10
265.779904
 20
62.208493
 30
0.0
 11
265.779904
 21
49.209206
 31
0.0
  0
LINE
  5
1E1
100
AcDbEntity
  8
0
  6
Continuous
 62
   174
100
AcDbLine
 10
36.779904
 20
49.102778
 30
0.0
 11
36.779904
 21
47.709231
 31
0.0
  0
LINE
  5
1E2
100
AcDbEntity
  8
0
  6
HIDDEN
 62
   174
100
AcDbLine
 10
46.779904
 20
53.195026
 30
0.0
 11
46.779904
 21
58.195895
 31
0.0
  0
LINE
  5
1E3
100
AcDbEntity
  8
0
  6
Continuous
 62
   174
100
AcDbLine
 10
29.279904
 20
58.796055
 30
0.0
 11
29.279904
 21
60.340371
 31
0.0
  0
LWPOLYLINE
  5
1E4
100
AcDbEntity
  8
0
  6
Continuous
 62
   174
100
AcDbPolyline
 90
        3
 70
   128
 10
272.587084
 20
47.85497
 10
272.953186
 20
47.85497
 10
273.181286
 20
47.85497
  0
LWPOLYLINE
  5
1E5
100
AcDbEntity
  8
0
  6
Continuous
 62
   174
100
AcDbPolyline
 90
        4
 70
   128
 10
29.972725
 20
55.603843
 10
29.644824
 20
56.688812
 10
29.41207
 20
57.747811
 10
29.279904
 20
58.796055
  0
LINE
  5
1E6
100
AcDbEntity
  8
0
  6
HIDDEN
 62
   174
100
AcDbLine
 10
40.579904
 20
63.693777
 30
0.0
 11
40.579904
 21
60.770258
 31
0.0
  0
LINE
  5
1E7
100
AcDbEntity
  8
0
  6
HIDDEN
 62
   174
100
AcDbLine
 10
224.279904
 20
44.693777
 30
0.0
 11
224.279904
 21
66.693777
 31
0.0
  0
LINE
  5
1E8
100
AcDbEntity
  8
0
  6
HIDDEN
 62
   174
100
AcDbLine
 10
136.279904
 20
70.693777
 30
0.0
 11
136.279904
 21
67.693777
 31
0.0
  0
LINE
  5
1E9
100
AcDbEntity
  8
0
  6
Continuous
 62
   174
100
AcDbLine
 10
273.275853
 20
47.85497
 30
0.0
 11
273.199378
 21
47.85497
 31
0.0
  0
LINE
  5
1EA
100
AcDbEntity
  8
0
  6
HIDDEN
 62
   174
100
AcDbLine
 10
40.579904
 20
58.195895
 30
0.0
 11
46.779904
 21
58.195895
 31
0.0
  0
ARC
  5
1EB
100
AcDbEntity
  8
0
  6
Continuous
 62
   174
100
AcDbCircle
 10
151.279904
 20
55.693777
 30
0.0
 40
10.48
100
AcDbArc
 50
-0.719744
 51
0.0
  0
ENDBLK
  5
1EC
100
AcDbEntity
  8
0
100
AcDbBlockEnd
  0
BLOCK
  5
1EF
100
AcDbEntity
  8
0
100
AcDbBlockBegin
  2
*B3
 70
     0
 10
0.0
 20
0.0
 30
0.0
  3
*B3
  1

  0
LINE
  5
1F0
100
AcDbEntity
  8
0
  6
HIDDEN
 62
   172
100
AcDbLine
 10
168.3
 20
54.6
 30
0.0
 11
174.3
 21
54.6
 31
0.0
  0
LINE
  5
1F1
100
AcDbEntity
  8
0
  6
HIDDEN
 62
   172
100
AcDbLine
 10
128.3
 20
54.65
 30
0.0
 11
134.25
 21
54.65
 31
0.0
  0
LINE
  5
1F2
100
AcDbEntity
  8
0
  6
HIDDEN
 62
   172
100
AcDbLine
 10
173.5
 20
40.64
 30
0.0
 11
173.5
 21
54.64
 31
0.0
  0
LINE
  5
1F3
100
AcDbEntity
  8
0
  6
HIDDEN
 62
   172
100
AcDbLine
 10
169.0
 20
40.64
 30
0.0
 11
169.0
 21
54.64
 31
0.0
  0
LINE
  5
1F4
100
AcDbEntity
  8
0
  6
HIDDEN
 62
   172
100
AcDbLine
 10
133.52
 20
40.64
 30
0.0
 11
133.52
 21
54.64
 31
0.0
  0
LINE
  5
1F5
100
AcDbEntity
  8
0
  6
HIDDEN
 62
   172
100
AcDbLine
 10
129.02
 20
40.64
 30
0.0
 11
129.02
 21
54.64
 31
0.0
  0
ENDBLK
  5
1F6
100
AcDbEntity
  8
0
100
AcDbBlockEnd
  0
BLOCK
  5
1F9
100
AcDbEntity
  8
0
100
AcDbBlockBegin
  2
*B4
 70
     0
 10
0.0
 20
0.0
 30
0.0
  3
*B4
  1

  0
LINE
  5
1FA
100
AcDbEntity
  8
0
  6
HIDDEN
 62
   174
100
AcDbLine
 10
235.879904
 20
188.557657
 30
0.0
 11
235.879904
 21
188.607657
 31
0.0
  0
LINE
  5
1FB
100
AcDbEntity
  8
0
  6
HIDDEN
 62
   174
100
AcDbLine
 10
242.679904
 20
188.557657
 30
0.0
 11
242.679904
 21
188.607657
 31
0.0
  0
LINE
  5
1FC
100
AcDbEntity
  8
0
  6
HIDDEN
 62
   174
100
AcDbLine
 10
66.679904
 20
188.557657
 30
0.0
 11
66.679904
 21
188.607657
 31
0.0
  0
LINE
  5
1FD
100
AcDbEntity
  8
0
  6
HIDDEN
 62
   174
100
AcDbLine
 10
59.879904
 20
188.557657
 30
0.0
 11
59.879904
 21
188.607657
 31
0.0
  0
LINE
  5
1FE
100
AcDbEntity
  8
0
  6
HIDDEN
 62
   174
100
AcDbLine
 10
60.279904
 20
188.557657
 30
0.0
 11
60.279904
 21
188.607657
 31
0.0
  0
LINE
  5
1FF
100
AcDbEntity
  8
0
  6
HIDDEN
 62
   174
100
AcDbLine
 10
242.279904
 20
188.557657
 30
0.0
 11
242.279904
 21
188.607657
 31
0.0
  0
LINE
  5
200
100
AcDbEntity
  8
0
  6
HIDDEN
 62
   174
100
AcDbLine
 10
66.279904
 20
188.557657
 30
0.0
 11
66.279904
 21
188.607657
 31
0.0
  0
LINE
  5
201
100
AcDbEntity
  8
0
  6
HIDDEN
 62
   174
100
AcDbLine
 10
236.279904
 20
188.557657
 30
0.0
 11
236.279904
 21
188.607657
 31
0.0
  0
LINE
  5
202
100
AcDbEntity
  8
0
  6
HIDDEN
 62
   174
100
AcDbLine
 10
61.302721
 20
188.607657
 30
0.0
 11
61.302721
 21
188.557657
 31
0.0
  0
LINE
  5
203
100
AcDbEntity
  8
0
  6
HIDDEN
 62
   174
100
AcDbLine
 10
241.257087
 20
188.607657
 30
0.0
 11
241.257087
 21
188.557657
 31
0.0
  0
LINE
  5
204
100
AcDbEntity
  8
0
  6
HIDDEN
 62
   174
100
AcDbLine
 10
65.536173
 20
188.607657
 30
0.0
 11
65.536173
 21
188.557657
 31
0.0
  0
LINE
  5
205
100
AcDbEntity
  8
0
  6
HIDDEN
 62
   174
100
AcDbLine
 10
237.023636
 20
188.607657
 30
0.0
 11
237.023636
 21
188.557657
 31
0.0
  0
LINE
  5
206
100
AcDbEntity
  8
0
  6
HIDDEN
 62
   174
100
AcDbLine
 10
241.666751
 20
188.607657
 30
0.0
 11
241.666751
 21
188.557657
 31
0.0
  0
LINE
  5
207
100
AcDbEntity
  8
0
  6
HIDDEN
 62
   174
100
AcDbLine
 10
60.284081
 20
188.607657
 30
0.0
 11
59.898094
 21
188.607657
 31
0.0
  0
LINE
  5
208
100
AcDbEntity
  8
0
  6
HIDDEN
 62
   174
100
AcDbLine
 10
65.124533
 20
188.607657
 30
0.0
 11
64.998136
 21
188.607657
 31
0.0
  0
LINE
  5
209
100
AcDbEntity
  8
0
  6
HIDDEN
 62
   174
100
AcDbLine
 10
239.298371
 20
188.607657
 30
0.0
 11
239.199166
 21
188.607657
 31
0.0
  0
LINE
  5
20A
100
AcDbEntity
  8
0
  6
HIDDEN
 62
   174
100
AcDbLine
 10
239.199166
 20
188.607657
 30
0.0
 11
237.466154
 21
188.607657
 31
0.0
  0
LINE
  5
20B
100
AcDbEntity
  8
0
  6
HIDDEN
 62
   174
100
AcDbLine
 10
65.097309
 20
188.607657
 30
0.0
 11
63.279904
 21
188.607657
 31
0.0
  0
LINE
  5
20C
100
AcDbEntity
  8
0
  6
Continuous
 62
   174
100
AcDbLine
 10
265.779904
 20
174.107657
 30
0.0
 11
268.779904
 21
174.107657
 31
0.0
  0
LINE
  5
20D
100
AcDbEntity
  8
0
  6
Continuous
 62
   174
100
AcDbLine
 10
273.279904
 20
172.807657
 30
0.0
 11
272.61265
 21
171.65194
 31
0.0
  0
LINE
  5
20E
100
AcDbEntity
  8
0
  6
Continuous
 62
   174
100
AcDbLine
 10
253.779904
 20
177.823775
 30
0.0
 11
253.779904
 21
159.607657
 31
0.0
  0
LINE
  5
20F
100
AcDbEntity
  8
0
  6
HIDDEN
 62
   174
100
AcDbLine
 10
48.779904
 20
172.607657
 30
0.0
 11
48.779904
 21
159.607657
 31
0.0
  0
LINE
  5
210
100
AcDbEntity
  8
0
  6
HIDDEN
 62
   174
100
AcDbLine
 10
208.279904
 20
136.607657
 30
0.0
 11
208.329904
 21
136.607657
 31
0.0
  0
LINE
  5
211
100
AcDbEntity
  8
0
  6
HIDDEN
 62
   174
100
AcDbLine
 10
66.242557
 20
188.607657
 30
0.0
 11
65.702132
 21
188.607657
 31
0.0
  0
LINE
  5
212
100
AcDbEntity
  8
0
  6
HIDDEN
 62
   174
100
AcDbLine
 10
236.283764
 20
188.607657
 30
0.0
 11
235.897989
 21
188.607657
 31
0.0
  0
LINE
  5
213
100
AcDbEntity
  8
0
  6
HIDDEN
 62
   174
100
AcDbLine
 10
236.353441
 20
188.607657
 30
0.0
 11
236.283764
 21
188.607657
 31
0.0
  0
LINE
  5
214
100
AcDbEntity
  8
0
  6
HIDDEN
 62
   174
100
AcDbLine
 10
237.471465
 20
188.607657
 30
0.0
 11
236.353441
 21
188.607657
 31
0.0
  0
LINE
  5
215
100
AcDbEntity
  8
0
  6
HIDDEN
 62
   174
100
AcDbLine
 10
239.297946
 20
188.607657
 30
0.0
 11
237.598074
 21
188.607657
 31
0.0
  0
LINE
  5
216
100
AcDbEntity
  8
0
  6
HIDDEN
 62
   174
100
AcDbLine
 10
241.275254
 20
188.607657
 30
0.0
 11
239.298371
 21
188.607657
 31
0.0
  0
ARC
  5
217
100
AcDbEntity
  8
0
  6
Continuous
 62
   174
100
AcDbCircle
 10
151.279904
 20
120.107657
 30
0.0
 40
3.0
100
AcDbArc
 50
-180.0
 51
0.0
  0
LINE
  5
218
100
AcDbEntity
  8
0
  6
HIDDEN
 62
   174
100
AcDbLine
 10
208.279904
 20
136.607657
 30
0.0
 11
208.329904
 21
136.607657
 31
0.0
  0
LINE
  5
219
100
AcDbEntity
  8
0
  6
HIDDEN
 62
   174
100
AcDbLine
 10
65.097309
 20
188.607657
 30
0.0
 11
65.097309
 21
188.557657
 31
0.0
  0
LINE
  5
21A
100
AcDbEntity
  8
0
  6
HIDDEN
 62
   174
100
AcDbLine
 10
237.462499
 20
188.607657
 30
0.0
 11
237.462499
 21
188.557657
 31
0.0
  0
LINE
  5
21B
100
AcDbEntity
  8
0
  6
HIDDEN
 62
   174
100
AcDbLine
 10
64.998136
 20
188.607657
 30
0.0
 11
63.298051
 21
188.607657
 31
0.0
  0
LINE
  5
21C
100
AcDbEntity
  8
0
  6
HIDDEN
 62
   174
100
AcDbLine
 10
242.312342
 20
188.607657
 30
0.0
 11
242.242452
 21
188.607657
 31
0.0
  0
LINE
  5
21D
100
AcDbEntity
  8
0
  6
HIDDEN
 62
   174
100
AcDbLine
 10
63.298051
 20
188.607657
 30
0.0
 11
61.470933
 21
188.607657
 31
0.0
  0
LINE
  5
21E
100
AcDbEntity
  8
0
  6
HIDDEN
 62
   174
100
AcDbLine
 10
242.297896
 20
188.607657
 30
0.0
 11
241.684821
 21
188.607657
 31
0.0
  0
LINE
  5
21F
100
AcDbEntity
  8
0
  6
HIDDEN
 62
   174
100
AcDbLine
 10
237.466154
 20
188.607657
 30
0.0
 11
236.297997
 21
188.607657
 31
0.0
  0
LINE
  5
220
100
AcDbEntity
  8
0
  6
Continuous
 62
   174
100
AcDbLine
 10
36.779904
 20
187.107657
 30
0.0
 11
33.779904
 21
187.107657
 31
0.0
  0
LINE
  5
221
100
AcDbEntity
  8
0
  6
Continuous
 62
   174
100
AcDbLine
 10
265.779904
 20
187.107657
 30
0.0
 11
268.779904
 21
187.107657
 31
0.0
  0
LINE
  5
222
100
AcDbEntity
  8
0
  6
Continuous
 62
   174
100
AcDbLine
 10
29.279904
 20
172.807657
 30
0.0
 11
29.947158
 21
171.65194
 31
0.0
  0
LINE
  5
223
100
AcDbEntity
  8
0
  6
Continuous
 62
   174
100
AcDbLine
 10
36.779904
 20
172.607657
 30
0.0
 11
48.779904
 21
172.607657
 31
0.0
  0
ARC
  5
224
100
AcDbEntity
  8
0
  6
HIDDEN
 62
   174
100
AcDbCircle
 10
171.279904
 20
165.107657
 30
0.0
 40
5.0
100
AcDbArc
 50
193.196171
 51
346.803829
  0
ARC
  5
225
100
AcDbEntity
  8
0
  6
HIDDEN
 62
   174
100
AcDbCircle
 10
131.279904
 20
120.107657
 30
0.0
 40
5.0
100
AcDbArc
 50
9.0
 51
171.0
  0
LINE
  5
226
100
AcDbEntity
  8
0
  6
HIDDEN
 62
   174
100
AcDbLine
 10
63.298051
 20
188.607657
 30
0.0
 11
61.304387
 21
188.607657
 31
0.0
  0
LINE
  5
227
100
AcDbEntity
  8
0
  6
HIDDEN
 62
   174
100
AcDbLine
 10
65.702132
 20
188.607657
 30
0.0
 11
65.566814
 21
188.607657
 31
0.0
  0
LINE
  5
228
100
AcDbEntity
  8
0
  6
HIDDEN
 62
   174
100
AcDbLine
 10
237.598074
 20
188.607657
 30
0.0
 11
237.471465
 21
188.607657
 31
0.0
  0
LINE
  5
229
100
AcDbEntity
  8
0
  6
HIDDEN
 62
   174
100
AcDbLine
 10
241.291611
 20
188.607657
 30
0.0
 11
239.297946
 21
188.607657
 31
0.0
  0
LINE
  5
22A
100
AcDbEntity
  8
0
  6
HIDDEN
 62
   174
100
AcDbLine
 10
241.686733
 20
188.607657
 30
0.0
 11
241.291611
 21
188.607657
 31
0.0
  0
LINE
  5
22B
100
AcDbEntity
  8
0
  6
HIDDEN
 62
   174
100
AcDbLine
 10
241.70224
 20
188.607657
 30
0.0
 11
241.686733
 21
188.607657
 31
0.0
  0
LINE
  5
22C
100
AcDbEntity
  8
0
  6
HIDDEN
 62
   174
100
AcDbLine
 10
65.115398
 20
188.607657
 30
0.0
 11
63.298051
 21
188.607657
 31
0.0
  0
LINE
  5
22D
100
AcDbEntity
  8
0
  6
Continuous
 62
   174
100
AcDbLine
 10
33.779904
 20
171.607657
 30
0.0
 11
33.079904
 21
171.607657
 31
0.0
  0
LINE
  5
22E
100
AcDbEntity
  8
0
  6
Continuous
 62
   174
100
AcDbLine
 10
29.279904
 20
188.407657
 30
0.0
 11
29.947181
 21
189.563414
 31
0.0
  0
LINE
  5
22F
100
AcDbEntity
  8
0
  6
Continuous
 62
   174
100
AcDbLine
 10
273.279904
 20
188.407657
 30
0.0
 11
272.612628
 21
189.563414
 31
0.0
  0
LINE
  5
230
100
AcDbEntity
  8
0
  6
Continuous
 62
   174
100
AcDbLine
 10
265.779904
 20
172.607657
 30
0.0
 11
253.779904
 21
172.607657
 31
0.0
  0
ARC
  5
231
100
AcDbEntity
  8
0
  6
HIDDEN
 62
   174
100
AcDbCircle
 10
171.279904
 20
165.107657
 30
0.0
 40
5.0
100
AcDbArc
 50
-13.196171
 51
0.0
  0
ARC
  5
232
100
AcDbEntity
  8
0
  6
HIDDEN
 62
   174
100
AcDbCircle
 10
171.279904
 20
165.107657
 30
0.0
 40
3.799996
100
AcDbArc
 50
-180.0
 51
0.0
  0
ARC
  5
233
100
AcDbEntity
  8
0
  6
HIDDEN
 62
   174
100
AcDbCircle
 10
171.279904
 20
165.107657
 30
0.0
 40
3.799996
100
AcDbArc
 50
0.0
 51
180.0
  0
ARC
  5
234
100
AcDbEntity
  8
0
  6
HIDDEN
 62
   174
100
AcDbCircle
 10
131.279904
 20
120.107657
 30
0.0
 40
3.799996
100
AcDbArc
 50
-180.0
 51
0.0
  0
LINE
  5
235
100
AcDbEntity
  8
0
  6
HIDDEN
 62
   174
100
AcDbLine
 10
60.893057
 20
188.607657
 30
0.0
 11
60.893057
 21
188.557657
 31
0.0
  0
LINE
  5
236
100
AcDbEntity
  8
0
  6
HIDDEN
 62
   174
100
AcDbLine
 10
65.566814
 20
188.607657
 30
0.0
 11
65.124533
 21
188.607657
 31
0.0
  0
LINE
  5
237
100
AcDbEntity
  8
0
  6
HIDDEN
 62
   174
100
AcDbLine
 10
242.697904
 20
188.607657
 30
0.0
 11
242.312342
 21
188.607657
 31
0.0
  0
LINE
  5
238
100
AcDbEntity
  8
0
  6
HIDDEN
 62
   174
100
AcDbLine
 10
239.279904
 20
188.607657
 30
0.0
 11
237.462499
 21
188.607657
 31
0.0
  0
LINE
  5
239
100
AcDbEntity
  8
0
  6
HIDDEN
 62
   174
100
AcDbLine
 10
66.298001
 20
188.607657
 30
0.0
 11
65.554281
 21
188.607657
 31
0.0
  0
ARC
  5
23A
100
AcDbEntity
  8
0
  6
HIDDEN
 62
   174
100
AcDbCircle
 10
131.279904
 20
120.107657
 30
0.0
 40
5.0
100
AcDbArc
 50
193.196171
 51
346.803829
  0
ARC
  5
23B
100
AcDbEntity
  8
0
  6
HIDDEN
 62
   174
100
AcDbCircle
 10
171.279904
 20
165.107657
 30
0.0
 40
5.0
100
AcDbArc
 50
-193.196171
 51
-180.0
  0
ARC
  5
23C
100
AcDbEntity
  8
0
  6
HIDDEN
 62
   174
100
AcDbCircle
 10
171.279904
 20
165.107657
 30
0.0
 40
5.0
100
AcDbArc
 50
-346.803829
 51
-193.196171
  0
ARC
  5
23D
100
AcDbEntity
  8
0
  6
HIDDEN
 62
   174
100
AcDbCircle
 10
131.279904
 20
120.107657
 30
0.0
 40
5.0
100
AcDbArc
 50
0.0
 51
9.0
  0
ARC
  5
23E
100
AcDbEntity
  8
0
  6
HIDDEN
 62
   174
100
AcDbCircle
 10
171.279904
 20
165.107657
 30
0.0
 40
5.0
100
AcDbArc
 50
171.0
 51
180.0
  0
ARC
  5
23F
100
AcDbEntity
  8
0
  6
HIDDEN
 62
   174
100
AcDbCircle
 10
131.279904
 20
120.107657
 30
0.0
 40
3.799996
100
AcDbArc
 50
0.0
 51
180.0
  0
LINE
  5
240
100
AcDbEntity
  8
0
  6
Continuous
 62
   174
100
AcDbLine
 10
78.279904
 20
172.607657
 30
0.0
 11
94.279904
 21
172.607657
 31
0.0
  0
LINE
  5
241
100
AcDbEntity
  8
0
  6
HIDDEN
 62
   174
100
AcDbLine
 10
208.279904
 20
148.607657
 30
0.0
 11
208.329904
 21
148.607657
 31
0.0
  0
LINE
  5
242
100
AcDbEntity
  8
0
  6
HIDDEN
 62
   174
100
AcDbLine
 10
61.304387
 20
188.607657
 30
0.0
 11
60.353546
 21
188.607657
 31
0.0
  0
LINE
  5
243
100
AcDbEntity
  8
0
  6
HIDDEN
 62
   174
100
AcDbLine
 10
242.242452
 20
188.607657
 30
0.0
 11
241.70224
 21
188.607657
 31
0.0
  0
LINE
  5
244
100
AcDbEntity
  8
0
  6
HIDDEN
 62
   174
100
AcDbLine
 10
61.307148
 20
188.607657
 30
0.0
 11
60.298101
 21
188.607657
 31
0.0
  0
LINE
  5
245
100
AcDbEntity
  8
0
  6
HIDDEN
 62
   174
100
AcDbLine
 10
241.257087
 20
188.607657
 30
0.0
 11
239.279904
 21
188.607657
 31
0.0
  0
LINE
  5
246
100
AcDbEntity
  8
0
  6
HIDDEN
 62
   174
100
AcDbLine
 10
65.536173
 20
188.607657
 30
0.0
 11
65.097309
 21
188.607657
 31
0.0
  0
LINE
  5
247
100
AcDbEntity
  8
0
  6
Continuous
 62
   174
100
AcDbLine
 10
268.779904
 20
189.607657
 30
0.0
 11
269.479904
 21
189.607657
 31
0.0
  0
LINE
  5
248
100
AcDbEntity
  8
0
  6
Continuous
 62
   174
100
AcDbLine
 10
268.779904
 20
171.607657
 30
0.0
 11
269.479904
 21
171.607657
 31
0.0
  0
ARC
  5
249
100
AcDbEntity
  8
0
  6
HIDDEN
 62
   174
100
AcDbCircle
 10
171.279904
 20
165.107657
 30
0.0
 40
5.0
100
AcDbArc
 50
180.0
 51
193.196171
  0
LINE
  5
24A
100
AcDbEntity
  8
0
  6
HIDDEN
 62
   174
100
AcDbLine
 10
48.779904
 20
177.823775
 30
0.0
 11
48.779904
 21
172.607657
 31
0.0
  0
ARC
  5
24B
100
AcDbEntity
  8
0
  6
HIDDEN
 62
   174
100
AcDbCircle
 10
131.279904
 20
120.107657
 30
0.0
 40
5.0
100
AcDbArc
 50
180.0
 51
189.0
  0
ARC
  5
24C
100
AcDbEntity
  8
0
  6
HIDDEN
 62
   174
100
AcDbCircle
 10
131.279904
 20
120.107657
 30
0.0
 40
5.0
100
AcDbArc
 50
189.0
 51
351.0
  0
ARC
  5
24D
100
AcDbEntity
  8
0
  6
HIDDEN
 62
   174
100
AcDbCircle
 10
131.279904
 20
120.107657
 30
0.0
 40
5.0
100
AcDbArc
 50
-9.0
 51
0.0
  0
ARC
  5
24E
100
AcDbEntity
  8
0
  6
HIDDEN
 62
   174
100
AcDbCircle
 10
171.279904
 20
165.107657
 30
0.0
 40
5.0
100
AcDbArc
 50
189.0
 51
351.0
  0
ARC
  5
24F
100
AcDbEntity
  8
0
  6
HIDDEN
 62
   174
100
AcDbCircle
 10
171.279904
 20
165.107657
 30
0.0
 40
5.0
100
AcDbArc
 50
-9.0
 51
0.0
  0
ARC
  5
250
100
AcDbEntity
  8
0
  6
HIDDEN
 62
   174
100
AcDbCircle
 10
171.279904
 20
165.107657
 30
0.0
 40
5.0
100
AcDbArc
 50
0.0
 51
9.0
  0
ARC
  5
251
100
AcDbEntity
  8
0
  6
HIDDEN
 62
   174
100
AcDbCircle
 10
171.279904
 20
165.107657
 30
0.0
 40
5.0
100
AcDbArc
 50
9.0
 51
171.0
  0
LINE
  5
252
100
AcDbEntity
  8
0
  6
Continuous
 62
   174
100
AcDbLine
 10
33.779904
 20
189.607657
 30
0.0
 11
33.079904
 21
189.607657
 31
0.0
  0
ARC
  5
253
100
AcDbEntity
  8
0
  6
HIDDEN
 62
   174
100
AcDbCircle
 10
131.279904
 20
120.107657
 30
0.0
 40
5.0
100
AcDbArc
 50
-346.803829
 51
-193.196171
  0
ARC
  5
254
100
AcDbEntity
  8
0
  6
HIDDEN
 62
   174
100
AcDbCircle
 10
131.279904
 20
120.107657
 30
0.0
 40
5.0
100
AcDbArc
 50
0.0
 51
13.196171
  0
ARC
  5
255
100
AcDbEntity
  8
0
  6
HIDDEN
 62
   174
100
AcDbCircle
 10
131.279904
 20
120.107657
 30
0.0
 40
5.0
100
AcDbArc
 50
180.0
 51
193.196171
  0
ARC
  5
256
100
AcDbEntity
  8
0
  6
HIDDEN
 62
   174
100
AcDbCircle
 10
171.279904
 20
165.107657
 30
0.0
 40
5.0
100
AcDbArc
 50
0.0
 51
13.196171
  0
ARC
  5
257
100
AcDbEntity
  8
0
  6
HIDDEN
 62
   174
100
AcDbCircle
 10
131.279904
 20
120.107657
 30
0.0
 40
5.0
100
AcDbArc
 50
171.0
 51
180.0
  0
ARC
  5
258
100
AcDbEntity
  8
0
  6
HIDDEN
 62
   174
100
AcDbCircle
 10
171.279904
 20
165.107657
 30
0.0
 40
5.0
100
AcDbArc
 50
180.0
 51
189.0
  0
LINE
  5
259
100
AcDbEntity
  8
0
  6
HIDDEN
 62
   174
100
AcDbLine
 10
208.329904
 20
148.617545
 30
0.0
 11
208.329904
 21
136.61817
 31
0.0
  0
LINE
  5
25A
100
AcDbEntity
  8
0
  6
HIDDEN
 62
   174
100
AcDbLine
 10
94.229904
 20
148.617545
 30
0.0
 11
94.229904
 21
136.61817
 31
0.0
  0
LINE
  5
25B
100
AcDbEntity
  8
0
  6
Continuous
 62
   174
100
AcDbLine
 10
78.279904
 20
112.607657
 30
0.0
 11
78.279904
 21
172.607657
 31
0.0
  0
LINE
  5
25C
100
AcDbEntity
  8
0
  6
HIDDEN
 62
   174
100
AcDbLine
 10
66.698009
 20
188.607657
 30
0.0
 11
66.312447
 21
188.607657
 31
0.0
  0
LINE
  5
25D
100
AcDbEntity
  8
0
  6
HIDDEN
 62
   174
100
AcDbLine
 10
60.353546
 20
188.607657
 30
0.0
 11
60.284081
 21
188.607657
 31
0.0
  0
LINE
  5
25E
100
AcDbEntity
  8
0
  6
HIDDEN
 62
   174
100
AcDbLine
 10
66.312447
 20
188.607657
 30
0.0
 11
66.242557
 21
188.607657
 31
0.0
  0
LINE
  5
25F
100
AcDbEntity
  8
0
  6
HIDDEN
 62
   174
100
AcDbLine
 10
61.470933
 20
188.607657
 30
0.0
 11
61.307148
 21
188.607657
 31
0.0
  0
LINE
  5
260
100
AcDbEntity
  8
0
  6
HIDDEN
 62
   174
100
AcDbLine
 10
241.666751
 20
188.607657
 30
0.0
 11
241.257087
 21
188.607657
 31
0.0
  0
LINE
  5
261
100
AcDbEntity
  8
0
  6
HIDDEN
 62
   174
100
AcDbLine
 10
63.279904
 20
188.607657
 30
0.0
 11
61.302721
 21
188.607657
 31
0.0
  0
LINE
  5
262
100
AcDbEntity
  8
0
  6
Continuous
 62
   174
100
AcDbLine
 10
36.779904
 20
174.107657
 30
0.0
 11
33.779904
 21
174.107657
 31
0.0
  0
LINE
  5
263
100
AcDbEntity
  8
0
  6
Continuous
 62
   174
100
AcDbLine
 10
36.779904
 20
188.607657
 30
0.0
 11
51.779904
 21
188.607657
 31
0.0
  0
LINE
  5
264
100
AcDbEntity
  8
0
  6
Continuous
 62
   174
100
AcDbLine
 10
265.779904
 20
188.607657
 30
0.0
 11
250.779904
 21
188.607657
 31
0.0
  0
ARC
  5
265
100
AcDbEntity
  8
0
  6
Continuous
 62
   174
100
AcDbCircle
 10
151.279904
 20
120.107657
 30
0.0
 40
3.0
100
AcDbArc
 50
0.0
 51
180.0
  0
ARC
  5
266
100
AcDbEntity
  8
0
  6
HIDDEN
 62
   174
100
AcDbCircle
 10
131.279904
 20
120.107657
 30
0.0
 40
5.0
100
AcDbArc
 50
-13.196171
 51
0.0
  0
ARC
  5
267
100
AcDbEntity
  8
0
  6
HIDDEN
 62
   174
100
AcDbCircle
 10
131.279904
 20
120.107657
 30
0.0
 40
5.0
100
AcDbArc
 50
-193.196171
 51
-180.0
  0
LINE
  5
268
100
AcDbEntity
  8
0
  6
Continuous
 62
   174
100
AcDbLine
 10
269.479904
 20
176.185767
 30
0.0
 11
272.587084
 21
176.185767
 31
0.0
  0
LINE
  5
269
100
AcDbEntity
  8
0
  6
HIDDEN
 62
   174
100
AcDbLine
 10
33.079904
 20
185.029548
 30
0.0
 11
29.972725
 21
185.029548
 31
0.0
  0
LINE
  5
26A
100
AcDbEntity
  8
0
  6
HIDDEN
 62
   174
100
AcDbLine
 10
66.679904
 20
188.607657
 30
0.0
 11
74.779904
 21
188.607657
 31
0.0
  0
LINE
  5
26B
100
AcDbEntity
  8
0
  6
Continuous
 62
   174
100
AcDbLine
 10
46.779904
 20
140.11797
 30
0.0
 11
46.779904
 21
144.113796
 31
0.0
  0
ARC
  5
26C
100
AcDbEntity
  8
0
  6
Continuous
 62
   174
100
AcDbCircle
 10
131.279904
 20
142.607657
 30
0.0
 40
11.75
100
AcDbArc
 50
-180.0
 51
0.0
  0
ARC
  5
26D
100
AcDbEntity
  8
0
  6
HIDDEN
 62
   174
100
AcDbCircle
 10
171.279904
 20
165.107657
 30
0.0
 40
3.0
100
AcDbArc
 50
-296.311213
 51
-243.688787
  0
LINE
  5
26E
100
AcDbEntity
  8
0
  6
HIDDEN
 62
   174
100
AcDbLine
 10
196.679904
 20
158.607657
 30
0.0
 11
196.679904
 21
172.607657
 31
0.0
  0
LINE
  5
26F
100
AcDbEntity
  8
0
  6
HIDDEN
 62
   174
100
AcDbLine
 10
160.679904
 20
158.607657
 30
0.0
 11
160.679904
 21
172.607657
 31
0.0
  0
LINE
  5
270
100
AcDbEntity
  8
0
  6
Continuous
 62
   174
100
AcDbLine
 10
29.972725
 20
171.608107
 30
0.0
 11
29.945251
 21
171.656944
 31
0.0
  0
LINE
  5
271
100
AcDbEntity
  8
0
  6
HIDDEN
 62
   174
100
AcDbLine
 10
261.979904
 20
137.528727
 30
0.0
 11
255.779904
 21
137.528727
 31
0.0
  0
LINE
  5
272
100
AcDbEntity
  8
0
  6
HIDDEN
 62
   174
100
AcDbLine
 10
86.279904
 20
172.557657
 30
0.0
 11
86.279904
 21
172.607657
 31
0.0
  0
LINE
  5
273
100
AcDbEntity
  8
0
  6
HIDDEN
 62
   174
100
AcDbLine
 10
86.279904
 20
172.557657
 30
0.0
 11
86.279904
 21
172.607657
 31
0.0
  0
LINE
  5
274
100
AcDbEntity
  8
0
  6
HIDDEN
 62
   174
100
AcDbLine
 10
261.979904
 20
145.107657
 30
0.0
 11
255.779904
 21
145.107657
 31
0.0
  0
LINE
  5
275
100
AcDbEntity
  8
0
  6
Continuous
 62
   174
100
AcDbLine
 10
40.579904
 20
151.221537
 30
0.0
 11
46.779904
 21
151.221537
 31
0.0
  0
LINE
  5
276
100
AcDbEntity
  8
0
  6
Continuous
 62
   174
100
AcDbLine
 10
40.579904
 20
147.69602
 30
0.0
 11
40.579904
 21
145.117745
 31
0.0
  0
LINE
  5
277
100
AcDbEntity
  8
0
  6
Continuous
 62
   174
100
AcDbLine
 10
29.279904
 20
179.724022
 30
0.0
 11
29.279904
 21
172.816192
 31
0.0
  0
LWPOLYLINE
  5
278
100
AcDbEntity
  8
0
  6
HIDDEN
 62
   174
100
AcDbPolyline
 90
        4
 70
   128
 10
29.943963
 20
189.557838
 10
29.644824
 20
188.980801
 10
29.41207
 20
188.369388
 10
29.279904
 20
187.764184
  0
LINE
  5
279
100
AcDbEntity
  8
0
  6
Continuous
 62
   174
100
AcDbLine
 10
51.779904
 20
185.607657
 30
0.0
 11
51.779904
 21
159.607657
 31
0.0
  0
ARC
  5
27A
100
AcDbEntity
  8
0
  6
HIDDEN
 62
   174
100
AcDbCircle
 10
131.279904
 20
120.107657
 30
0.0
 40
3.0
100
AcDbArc
 50
-125.59101
 51
-116.311213
  0
ARC
  5
27B
100
AcDbEntity
  8
0
  6
Continuous
 62
   174
100
AcDbCircle
 10
74.779904
 20
185.607657
 30
0.0
 40
3.0
100
AcDbArc
 50
0.0
 51
90.0
  0
LINE
  5
27C
100
AcDbEntity
  8
0
  6
Continuous
 62
   174
100
AcDbLine
 10
51.779904
 20
185.607657
 30
0.0
 11
74.779904
 21
185.607657
 31
0.0
  0
LINE
  5
27D
100
AcDbEntity
  8
0
  6
Continuous
 62
   174
100
AcDbLine
 10
261.979904
 20
140.111025
 30
0.0
 11
255.779904
 21
140.111025
 31
0.0
  0
LINE
  5
27E
100
AcDbEntity
  8
0
  6
HIDDEN
 62
   174
100
AcDbLine
 10
210.297935
 20
172.557657
 30
0.0
 11
216.298047
 21
172.557657
 31
0.0
  0
LINE
  5
27F
100
AcDbEntity
  8
0
  6
Continuous
 62
   174
100
AcDbLine
 10
46.779904
 20
132.607657
 30
0.0
 11
48.279904
 21
132.607657
 31
0.0
  0
LINE
  5
280
100
AcDbEntity
  8
0
  6
HIDDEN
 62
   174
100
AcDbLine
 10
92.018291
 20
172.557657
 30
0.0
 11
89.797963
 21
172.557657
 31
0.0
  0
LINE
  5
281
100
AcDbEntity
  8
0
  6
HIDDEN
 62
   174
100
AcDbLine
 10
92.298063
 20
172.607657
 30
0.0
 11
92.041022
 21
172.607657
 31
0.0
  0
LINE
  5
282
100
AcDbEntity
  8
0
  6
HIDDEN
 62
   174
100
AcDbLine
 10
197.759904
 20
158.607657
 30
0.0
 11
197.759904
 21
172.607657
 31
0.0
  0
LINE
  5
283
100
AcDbEntity
  8
0
  6
HIDDEN
 62
   174
100
AcDbLine
 10
253.779904
 20
185.607657
 30
0.0
 11
253.779904
 21
183.39154
 31
0.0
  0
LINE
  5
284
100
AcDbEntity
  8
0
  6
Continuous
 62
   174
100
AcDbLine
 10
261.979904
 20
147.689252
 30
0.0
 11
261.979904
 21
151.223302
 31
0.0
  0
ARC
  5
285
100
AcDbEntity
  8
0
  6
HIDDEN
 62
   174
100
AcDbCircle
 10
131.279904
 20
120.107657
 30
0.0
 40
3.0
100
AcDbArc
 50
0.0
 51
54.40899
  0
LINE
  5
286
100
AcDbEntity
  8
0
  6
Continuous
 62
   174
100
AcDbLine
 10
224.279904
 20
131.607657
 30
0.0
 11
254.279904
 21
131.607657
 31
0.0
  0
LINE
  5
287
100
AcDbEntity
  8
0
  6
Continuous
 62
   174
100
AcDbLine
 10
255.779904
 20
152.607657
 30
0.0
 11
254.279904
 21
152.607657
 31
0.0
  0
LINE
  5
288
100
AcDbEntity
  8
0
  6
Continuous
 62
   174
100
AcDbLine
 10
253.779904
 20
183.39154
 30
0.0
 11
253.779904
 21
185.607657
 31
0.0
  0
LINE
  5
289
100
AcDbEntity
  8
0
  6
Continuous
 62
   174
100
AcDbLine
 10
261.979904
 20
152.290662
 30
0.0
 11
255.779904
 21
152.290662
 31
0.0
  0
LINE
  5
28A
100
AcDbEntity
  8
0
  6
HIDDEN
 62
   174
100
AcDbLine
 10
88.798051
 20
172.557657
 30
0.0
 11
86.577722
 21
172.557657
 31
0.0
  0
LINE
  5
28B
100
AcDbEntity
  8
0
  6
HIDDEN
 62
   174
100
AcDbLine
 10
227.797997
 20
159.607657
 30
0.0
 11
224.798047
 21
159.607657
 31
0.0
  0
LINE
  5
28C
100
AcDbEntity
  8
0
  6
HIDDEN
 62
   174
100
AcDbLine
 10
176.799904
 20
158.607657
 30
0.0
 11
176.799904
 21
172.607657
 31
0.0
  0
LINE
  5
28D
100
AcDbEntity
  8
0
  6
HIDDEN
 62
   174
100
AcDbLine
 10
33.779904
 20
187.115345
 30
0.0
 11
33.779904
 21
180.615595
 31
0.0
  0
LINE
  5
28E
100
AcDbEntity
  8
0
  6
Continuous
 62
   174
100
AcDbLine
 10
29.972725
 20
185.185317
 30
0.0
 11
33.079904
 21
185.185317
 31
0.0
  0
LINE
  5
28F
100
AcDbEntity
  8
0
  6
HIDDEN
 62
   174
100
AcDbLine
 10
253.779904
 20
183.39929
 30
0.0
 11
253.779904
 21
185.61537
 31
0.0
  0
LINE
  5
290
100
AcDbEntity
  8
0
  6
HIDDEN
 62
   174
100
AcDbLine
 10
250.797896
 20
159.607657
 30
0.0
 11
253.798059
 21
159.607657
 31
0.0
  0
LINE
  5
291
100
AcDbEntity
  8
0
  6
HIDDEN
 62
   174
100
AcDbLine
 10
59.879904
 20
188.607657
 30
0.0
 11
60.280229
 21
188.607657
 31
0.0
  0
LINE
  5
292
100
AcDbEntity
  8
0
  6
HIDDEN
 62
   174
100
AcDbLine
 10
216.018275
 20
172.557657
 30
0.0
 11
213.797947
 21
172.557657
 31
0.0
  0
LINE
  5
293
100
AcDbEntity
  8
0
  6
HIDDEN
 62
   174
100
AcDbLine
 10
141.897929
 20
172.607657
 30
0.0
 11
160.698069
 21
172.607657
 31
0.0
  0
LINE
  5
294
100
AcDbEntity
  8
0
  6
HIDDEN
 62
   174
100
AcDbLine
 10
213.779904
 20
172.607657
 30
0.0
 11
213.779904
 21
172.557657
 31
0.0
  0
ARC
  5
295
100
AcDbEntity
  8
0
  6
HIDDEN
 62
   174
100
AcDbCircle
 10
171.279904
 20
165.107657
 30
0.0
 40
3.0
100
AcDbArc
 50
-63.688787
 51
-54.40899
  0
ARC
  5
296
100
AcDbEntity
  8
0
  6
Continuous
 62
   174
100
AcDbCircle
 10
131.279904
 20
142.607657
 30
0.0
 40
14.75
100
AcDbArc
 50
180.0
 51
360.0
  0
LINE
  5
297
100
AcDbEntity
  8
0
  6
HIDDEN
 62
   174
100
AcDbLine
 10
197.778104
 20
172.607657
 30
0.0
 11
176.817967
 21
172.607657
 31
0.0
  0
LINE
  5
298
100
AcDbEntity
  8
0
  6
Continuous
 62
   174
100
AcDbLine
 10
261.979904
 20
151.232995
 30
0.0
 11
261.979904
 21
152.300248
 31
0.0
  0
LINE
  5
299
100
AcDbEntity
  8
0
  6
Continuous
 62
   174
100
AcDbLine
 10
273.279904
 20
174.351006
 30
0.0
 11
273.279904
 21
186.880184
 31
0.0
  0
LINE
  5
29A
100
AcDbEntity
  8
0
  6
HIDDEN
 62
   174
100
AcDbLine
 10
261.979904
 20
140.107657
 30
0.0
 11
255.779904
 21
140.107657
 31
0.0
  0
LINE
  5
29B
100
AcDbEntity
  8
0
  6
Continuous
 62
   174
100
AcDbLine
 10
255.779904
 20
151.232995
 30
0.0
 11
255.779904
 21
147.699206
 31
0.0
  0
LINE
  5
29C
100
AcDbEntity
  8
0
  6
HIDDEN
 62
   174
100
AcDbLine
 10
196.679904
 20
172.607657
 30
0.0
 11
196.679904
 21
156.607657
 31
0.0
  0
LINE
  5
29D
100
AcDbEntity
  8
0
  6
HIDDEN
 62
   174
100
AcDbLine
 10
235.897989
 20
188.557657
 30
0.0
 11
239.297946
 21
188.557657
 31
0.0
  0
ARC
  5
29E
100
AcDbEntity
  8
0
  6
HIDDEN
 62
   174
100
AcDbCircle
 10
227.779904
 20
185.607657
 30
0.0
 40
3.0
100
AcDbArc
 50
-270.0
 51
-180.0
  0
ARC
  5
29F
100
AcDbEntity
  8
0
  6
HIDDEN
 62
   174
100
AcDbCircle
 10
74.779904
 20
185.607657
 30
0.0
 40
3.0
100
AcDbArc
 50
0.0
 51
18.0
  0
LINE
  5
2A0
100
AcDbEntity
  8
0
  6
Continuous
 62
   174
100
AcDbLine
 10
250.779904
 20
188.615107
 30
0.0
 11
250.779904
 21
185.61537
 31
0.0
  0
LINE
  5
2A1
100
AcDbEntity
  8
0
  6
HIDDEN
 62
   174
100
AcDbLine
 10
265.779904
 20
180.615595
 30
0.0
 11
265.779904
 21
174.116057
 31
0.0
  0
LWPOLYLINE
  5
2A2
100
AcDbEntity
  8
0
  6
HIDDEN
 62
   174
100
AcDbPolyline
 90
        4
 70
   128
 10
272.587084
 20
176.029998
 10
272.914985
 20
177.282812
 10
273.147738
 20
178.505634
 10
273.279904
 20
179.716046
  0
LWPOLYLINE
  5
2A3
100
AcDbEntity
  8
0
  6
Continuous
 62
   174
100
AcDbPolyline
 90
        4
 70
   128
 10
253.779904
 20
177.823775
 10
253.767345
 20
178.720477
 10
253.74694
 20
179.658631
 10
253.737944
 20
180.607657
  0
LINE
  5
2A4
100
AcDbEntity
  8
0
  6
Continuous
 62
   174
100
AcDbLine
 10
40.579904
 20
145.107657
 30
0.0
 11
40.579904
 21
140.107657
 31
0.0
  0
ARC
  5
2A5
100
AcDbEntity
  8
0
  6
Continuous
 62
   174
100
AcDbCircle
 10
131.279904
 20
142.607657
 30
0.0
 40
6.0
100
AcDbArc
 50
0.0
 51
180.0
  0
LINE
  5
2A6
100
AcDbEntity
  8
0
  6
HIDDEN
 62
   174
100
AcDbLine
 10
51.779904
 20
159.607657
 30
0.0
 11
51.779904
 21
185.607657
 31
0.0
  0
ARC
  5
2A7
100
AcDbEntity
  8
0
  6
HIDDEN
 62
   174
100
AcDbCircle
 10
171.279904
 20
165.107657
 30
0.0
 40
3.0
100
AcDbArc
 50
-243.688787
 51
-234.40899
  0
LINE
  5
2A8
100
AcDbEntity
  8
0
  6
HIDDEN
 62
   174
100
AcDbLine
 10
33.779904
 20
180.615595
 30
0.0
 11
33.779904
 21
174.116057
 31
0.0
  0
LINE
  5
2A9
100
AcDbEntity
  8
0
  6
Continuous
 62
   174
100
AcDbLine
 10
269.479904
 20
185.029548
 30
0.0
 11
272.587084
 21
185.029548
 31
0.0
  0
LINE
  5
2AA
100
AcDbEntity
  8
0
  6
Continuous
 62
   174
100
AcDbLine
 10
40.579904
 20
132.924877
 30
0.0
 11
46.779904
 21
132.924877
 31
0.0
  0
LINE
  5
2AB
100
AcDbEntity
  8
0
  6
HIDDEN
 62
   174
100
AcDbLine
 10
141.879904
 20
172.607657
 30
0.0
 11
141.879904
 21
156.607657
 31
0.0
  0
LINE
  5
2AC
100
AcDbEntity
  8
0
  6
HIDDEN
 62
   174
100
AcDbLine
 10
208.279904
 20
136.61817
 30
0.0
 11
208.279904
 21
148.617545
 31
0.0
  0
LINE
  5
2AD
100
AcDbEntity
  8
0
  6
HIDDEN
 62
   174
100
AcDbLine
 10
33.079904
 20
176.185767
 30
0.0
 11
33.079904
 21
171.608107
 31
0.0
  0
LINE
  5
2AE
100
AcDbEntity
  8
0
  6
Continuous
 62
   174
100
AcDbLine
 10
273.279904
 20
172.816192
 30
0.0
 11
273.279904
 21
173.459433
 31
0.0
  0
LINE
  5
2AF
100
AcDbEntity
  8
0
  6
HIDDEN
 62
   174
100
AcDbLine
 10
255.779904
 20
151.221537
 30
0.0
 11
255.779904
 21
147.686257
 31
0.0
  0
LWPOLYLINE
  5
2B0
100
AcDbEntity
  8
0
  6
Continuous
 62
   174
100
AcDbPolyline
 90
        4
 70
   128
 10
29.279904
 20
181.499269
 10
29.413024
 20
182.715984
 10
29.64611
 20
183.938148
 10
29.972725
 20
185.185317
  0
LINE
  5
2B1
100
AcDbEntity
  8
0
  6
HIDDEN
 62
   174
100
AcDbLine
 10
29.943917
 20
171.657557
 30
0.0
 11
29.972725
 21
171.608107
 31
0.0
  0
ARC
  5
2B2
100
AcDbEntity
  8
0
  6
HIDDEN
 62
   174
100
AcDbCircle
 10
250.779904
 20
185.607657
 30
0.0
 40
3.0
100
AcDbArc
 50
36.0
 51
54.0
  0
LINE
  5
2B3
100
AcDbEntity
  8
0
  6
Continuous
 62
   174
100
AcDbLine
 10
46.779904
 20
144.113796
 30
0.0
 11
46.779904
 21
145.117745
 31
0.0
  0
ARC
  5
2B4
100
AcDbEntity
  8
0
  6
HIDDEN
 62
   174
100
AcDbCircle
 10
171.279904
 20
165.107657
 30
0.0
 40
5.0
100
AcDbArc
 50
-180.0
 51
0.0
  0
ARC
  5
2B5
100
AcDbEntity
  8
0
  6
HIDDEN
 62
   174
100
AcDbCircle
 10
131.279904
 20
120.107657
 30
0.0
 40
3.0
100
AcDbArc
 50
-305.59101
 51
-296.311213
  0
LINE
  5
2B6
100
AcDbEntity
  8
0
  6
HIDDEN
 62
   174
100
AcDbLine
 10
177.879904
 20
172.607657
 30
0.0
 11
177.879904
 21
156.607657
 31
0.0
  0
LINE
  5
2B7
100
AcDbEntity
  8
0
  6
HIDDEN
 62
   174
100
AcDbLine
 10
141.879904
 20
172.607657
 30
0.0
 11
141.879904
 21
156.607657
 31
0.0
  0
LINE
  5
2B8
100
AcDbEntity
  8
0
  6
Continuous
 62
   174
100
AcDbLine
 10
36.779904
 20
180.615595
 30
0.0
 11
36.779904
 21
174.009205
 31
0.0
  0
LINE
  5
2B9
100
AcDbEntity
  8
0
  6
Continuous
 62
   174
100
AcDbLine
 10
33.079904
 20
189.614595
 30
0.0
 11
33.079904
 21
185.193057
 31
0.0
  0
LINE
  5
2BA
100
AcDbEntity
  8
0
  6
Continuous
 62
   174
100
AcDbLine
 10
51.798102
 20
185.607657
 30
0.0
 11
48.798152
 21
185.607657
 31
0.0
  0
ARC
  5
2BB
100
AcDbEntity
  8
0
  6
HIDDEN
 62
   174
100
AcDbCircle
 10
131.279904
 20
120.107657
 30
0.0
 40
3.0
100
AcDbArc
 50
-116.311213
 51
-63.688787
  0
ARC
  5
2BC
100
AcDbEntity
  8
0
  6
Continuous
 62
   174
100
AcDbCircle
 10
171.279904
 20
142.607657
 30
0.0
 40
11.75
100
AcDbArc
 50
-180.0
 51
0.0
  0
LINE
  5
2BD
100
AcDbEntity
  8
0
  6
HIDDEN
 62
   174
100
AcDbLine
 10
125.778031
 20
172.607657
 30
0.0
 11
104.818106
 21
172.607657
 31
0.0
  0
LINE
  5
2BE
100
AcDbEntity
  8
0
  6
HIDDEN
 62
   174
100
AcDbLine
 10
161.778068
 20
172.607657
 30
0.0
 11
140.818143
 21
172.607657
 31
0.0
  0
LINE
  5
2BF
100
AcDbEntity
  8
0
  6
Continuous
 62
   174
100
AcDbLine
 10
261.979904
 20
137.531723
 30
0.0
 11
255.779904
 21
137.531723
 31
0.0
  0
LINE
  5
2C0
100
AcDbEntity
  8
0
  6
HIDDEN
 62
   174
100
AcDbLine
 10
40.579904
 20
147.689252
 30
0.0
 11
46.779904
 21
147.689252
 31
0.0
  0
LINE
  5
2C1
100
AcDbEntity
  8
0
  6
HIDDEN
 62
   174
100
AcDbLine
 10
60.280229
 20
188.607657
 30
0.0
 11
61.302721
 21
188.607657
 31
0.0
  0
LINE
  5
2C2
100
AcDbEntity
  8
0
  6
HIDDEN
 62
   174
100
AcDbLine
 10
236.279962
 20
188.607657
 30
0.0
 11
237.462499
 21
188.607657
 31
0.0
  0
LINE
  5
2C3
100
AcDbEntity
  8
0
  6
HIDDEN
 62
   174
100
AcDbLine
 10
36.779904
 20
187.115345
 30
0.0
 11
36.779904
 21
180.615595
 31
0.0
  0
LINE
  5
2C4
100
AcDbEntity
  8
0
  6
Continuous
 62
   174
100
AcDbLine
 10
29.946047
 20
171.655533
 30
0.0
 11
29.429244
 21
172.885827
 31
0.0
  0
LINE
  5
2C5
100
AcDbEntity
  8
0
  6
HIDDEN
 62
   174
100
AcDbLine
 10
253.779904
 20
177.823775
 30
0.0
 11
253.779904
 21
172.607657
 31
0.0
  0
LINE
  5
2C6
100
AcDbEntity
  8
0
  6
Continuous
 62
   174
100
AcDbLine
 10
255.779904
 20
132.936529
 30
0.0
 11
255.779904
 21
132.618308
 31
0.0
  0
LINE
  5
2C7
100
AcDbEntity
  8
0
  6
HIDDEN
 62
   174
100
AcDbLine
 10
215.896128
 20
172.607657
 30
0.0
 11
213.801558
 21
172.607657
 31
0.0
  0
LINE
  5
2C8
100
AcDbEntity
  8
0
  6
HIDDEN
 62
   174
100
AcDbLine
 10
242.297896
 20
188.557657
 30
0.0
 11
237.4806
 21
188.557657
 31
0.0
  0
ARC
  5
2C9
100
AcDbEntity
  8
0
  6
Continuous
 62
   174
100
AcDbCircle
 10
131.279904
 20
120.107657
 30
0.0
 40
3.0
100
AcDbArc
 50
0.0
 51
180.0
  0
LINE
  5
2CA
100
AcDbEntity
  8
0
  6
Continuous
 62
   174
100
AcDbLine
 10
33.779904
 20
173.901715
 30
0.0
 11
33.779904
 21
180.615595
 31
0.0
  0
LINE
  5
2CB
100
AcDbEntity
  8
0
  6
Continuous
 62
   174
100
AcDbLine
 10
250.779904
 20
188.607657
 30
0.0
 11
227.779904
 21
188.607657
 31
0.0
  0
LINE
  5
2CC
100
AcDbEntity
  8
0
  6
Continuous
 62
   174
100
AcDbLine
 10
78.279904
 20
159.607657
 30
0.0
 11
48.279904
 21
159.607657
 31
0.0
  0
ARC
  5
2CD
100
AcDbEntity
  8
0
  6
HIDDEN
 62
   174
100
AcDbCircle
 10
171.279904
 20
165.107657
 30
0.0
 40
3.0
100
AcDbArc
 50
-54.40899
 51
0.0
  0
LINE
  5
2CE
100
AcDbEntity
  8
0
  6
HIDDEN
 62
   174
100
AcDbLine
 10
216.018275
 20
172.607657
 30
0.0
 11
213.797947
 21
172.607657
 31
0.0
  0
LINE
  5
2CF
100
AcDbEntity
  8
0
  6
HIDDEN
 62
   174
100
AcDbLine
 10
160.679904
 20
172.607657
 30
0.0
 11
160.679904
 21
156.607657
 31
0.0
  0
LINE
  5
2D0
100
AcDbEntity
  8
0
  6
HIDDEN
 62
   174
100
AcDbLine
 10
269.479904
 20
189.614595
 30
0.0
 11
269.479904
 21
189.615232
 31
0.0
  0
LWPOLYLINE
  5
2D1
100
AcDbEntity
  8
0
  6
Continuous
 62
   174
100
AcDbPolyline
 90
        4
 70
   128
 10
273.279904
 20
173.451131
 10
273.146784
 20
172.842772
 10
272.913701
 20
172.231697
 10
272.615805
 20
171.657408
  0
LWPOLYLINE
  5
2D2
100
AcDbEntity
  8
0
  6
HIDDEN
 62
   174
100
AcDbPolyline
 90
        6
 70
   128
 10
51.779904
 20
188.607657
 10
50.874588
 20
188.467798
 10
50.066283
 20
188.070076
 10
49.404435
 20
187.43991
 10
48.95261
 20
186.610855
 10
48.779904
 20
185.607657
  0
LINE
  5
2D3
100
AcDbEntity
  8
0
  6
Continuous
 62
   174
100
AcDbLine
 10
46.779904
 20
134.00357
 30
0.0
 11
46.779904
 21
137.539271
 31
0.0
  0
LINE
  5
2D4
100
AcDbEntity
  8
0
  6
HIDDEN
 62
   174
100
AcDbLine
 10
197.778104
 20
158.607657
 30
0.0
 11
176.817967
 21
158.607657
 31
0.0
  0
ARC
  5
2D5
100
AcDbEntity
  8
0
  6
Continuous
 62
   174
100
AcDbCircle
 10
171.279904
 20
165.107657
 30
0.0
 40
3.0
100
AcDbArc
 50
-180.0
 51
0.0
  0
LINE
  5
2D6
100
AcDbEntity
  8
0
  6
Continuous
 62
   174
100
AcDbLine
 10
269.479904
 20
185.037345
 30
0.0
 11
269.479904
 21
189.615232
 31
0.0
  0
LINE
  5
2D7
100
AcDbEntity
  8
0
  6
Continuous
 62
   174
100
AcDbLine
 10
40.579904
 20
137.528727
 30
0.0
 11
46.779904
 21
137.528727
 31
0.0
  0
LINE
  5
2D8
100
AcDbEntity
  8
0
  6
HIDDEN
 62
   174
100
AcDbLine
 10
48.779904
 20
172.616082
 30
0.0
 11
48.779904
 21
177.8319
 31
0.0
  0
LINE
  5
2D9
100
AcDbEntity
  8
0
  6
HIDDEN
 62
   174
100
AcDbLine
 10
237.462499
 20
188.607657
 30
0.0
 11
239.279904
 21
188.607657
 31
0.0
  0
ARC
  5
2DA
100
AcDbEntity
  8
0
  6
HIDDEN
 62
   174
100
AcDbCircle
 10
171.279904
 20
165.107657
 30
0.0
 40
3.0
100
AcDbArc
 50
-234.40899
 51
-180.0
  0
LINE
  5
2DB
100
AcDbEntity
  8
0
  6
HIDDEN
 62
   174
100
AcDbLine
 10
92.041022
 20
172.607657
 30
0.0
 11
91.896144
 21
172.607657
 31
0.0
  0
LINE
  5
2DC
100
AcDbEntity
  8
0
  6
HIDDEN
 62
   174
100
AcDbLine
 10
196.679904
 20
172.607657
 30
0.0
 11
196.679904
 21
156.607657
 31
0.0
  0
LINE
  5
2DD
100
AcDbEntity
  8
0
  6
HIDDEN
 62
   174
100
AcDbLine
 10
94.279904
 20
148.617545
 30
0.0
 11
94.279904
 21
136.61817
 31
0.0
  0
LINE
  5
2DE
100
AcDbEntity
  8
0
  6
HIDDEN
 62
   174
100
AcDbLine
 10
255.779904
 20
137.528727
 30
0.0
 11
255.779904
 21
133.992939
 31
0.0
  0
LINE
  5
2DF
100
AcDbEntity
  8
0
  6
Continuous
 62
   174
100
AcDbLine
 10
261.979904
 20
133.994705
 30
0.0
 11
255.779904
 21
133.994705
 31
0.0
  0
LINE
  5
2E0
100
AcDbEntity
  8
0
  6
HIDDEN
 62
   174
100
AcDbLine
 10
88.779904
 20
172.607657
 30
0.0
 11
88.779904
 21
172.557657
 31
0.0
  0
LINE
  5
2E1
100
AcDbEntity
  8
0
  6
HIDDEN
 62
   174
100
AcDbLine
 10
239.297946
 20
188.557657
 30
0.0
 11
242.697904
 21
188.557657
 31
0.0
  0
LINE
  5
2E2
100
AcDbEntity
  8
0
  6
HIDDEN
 62
   174
100
AcDbLine
 10
241.257087
 20
188.557657
 30
0.0
 11
237.023636
 21
188.557657
 31
0.0
  0
LINE
  5
2E3
100
AcDbEntity
  8
0
  6
Continuous
 62
   174
100
AcDbLine
 10
94.279904
 20
112.607657
 30
0.0
 11
78.279904
 21
112.607657
 31
0.0
  0
LINE
  5
2E4
100
AcDbEntity
  8
0
  6
Continuous
 62
   174
100
AcDbLine
 10
33.079904
 20
189.607208
 30
0.0
 11
29.972725
 21
189.607208
 31
0.0
  0
LINE
  5
2E5
100
AcDbEntity
  8
0
  6
Continuous
 62
   174
100
AcDbLine
 10
40.579904
 20
137.528727
 30
0.0
 11
40.579904
 21
133.992939
 31
0.0
  0
LINE
  5
2E6
100
AcDbEntity
  8
0
  6
HIDDEN
 62
   174
100
AcDbLine
 10
61.302721
 20
188.607657
 30
0.0
 11
63.279904
 21
188.607657
 31
0.0
  0
ARC
  5
2E7
100
AcDbEntity
  8
0
  6
HIDDEN
 62
   174
100
AcDbCircle
 10
131.279904
 20
120.107657
 30
0.0
 40
3.0
100
AcDbArc
 50
-296.311213
 51
-243.688787
  0
LINE
  5
2E8
100
AcDbEntity
  8
0
  6
HIDDEN
 62
   174
100
AcDbLine
 10
89.801787
 20
172.607657
 30
0.0
 11
88.794439
 21
172.607657
 31
0.0
  0
LINE
  5
2E9
100
AcDbEntity
  8
0
  6
HIDDEN
 62
   174
100
AcDbLine
 10
94.279904
 20
136.607657
 30
0.0
 11
94.229904
 21
136.607657
 31
0.0
  0
LINE
  5
2EA
100
AcDbEntity
  8
0
  6
HIDDEN
 62
   174
100
AcDbLine
 10
261.979904
 20
133.992939
 30
0.0
 11
255.779904
 21
133.992939
 31
0.0
  0
LWPOLYLINE
  5
2EB
100
AcDbEntity
  8
0
  6
Continuous
 62
   174
100
AcDbPolyline
 90
        4
 70
   128
 10
272.615845
 20
189.557838
 10
272.914984
 20
188.980801
 10
273.147739
 20
188.369388
 10
273.279904
 20
187.764184
  0
LWPOLYLINE
  5
2EC
100
AcDbEntity
  8
0
  6
HIDDEN
 62
   174
100
AcDbPolyline
 90
        4
 70
   128
 10
253.737944
 20
180.607657
 10
253.746939
 20
181.55664
 10
253.767344
 20
182.494807
 10
253.779904
 20
183.39154
  0
LINE
  5
2ED
100
AcDbEntity
  8
0
  6
HIDDEN
 62
   174
100
AcDbLine
 10
250.779904
 20
185.607657
 30
0.0
 11
250.779904
 21
159.607657
 31
0.0
  0
ARC
  5
2EE
100
AcDbEntity
  8
0
  6
HIDDEN
 62
   174
100
AcDbCircle
 10
131.279904
 20
120.107657
 30
0.0
 40
5.0
100
AcDbArc
 50
0.0
 51
180.0
  0
LINE
  5
2EF
100
AcDbEntity
  8
0
  6
HIDDEN
 62
   174
100
AcDbLine
 10
216.279904
 20
172.557657
 30
0.0
 11
216.279904
 21
172.607657
 31
0.0
  0
LINE
  5
2F0
100
AcDbEntity
  8
0
  6
Continuous
 62
   174
100
AcDbLine
 10
46.779904
 20
152.299398
 30
0.0
 11
46.779904
 21
152.617195
 31
0.0
  0
LINE
  5
2F1
100
AcDbEntity
  8
0
  6
HIDDEN
 62
   174
100
AcDbLine
 10
161.778068
 20
158.607657
 30
0.0
 11
140.818143
 21
158.607657
 31
0.0
  0
LINE
  5
2F2
100
AcDbEntity
  8
0
  6
HIDDEN
 62
   174
100
AcDbLine
 10
227.779904
 20
185.607657
 30
0.0
 11
227.779904
 21
159.607657
 31
0.0
  0
LINE
  5
2F3
100
AcDbEntity
  8
0
  6
HIDDEN
 62
   174
100
AcDbLine
 10
265.779904
 20
180.615595
 30
0.0
 11
265.779904
 21
187.115345
 31
0.0
  0
LINE
  5
2F4
100
AcDbEntity
  8
0
  6
Continuous
 62
   174
100
AcDbLine
 10
261.979904
 20
145.120932
 30
0.0
 11
261.979904
 21
147.699206
 31
0.0
  0
LWPOLYLINE
  5
2F5
100
AcDbEntity
  8
0
  6
Continuous
 62
   174
100
AcDbPolyline
 90
        6
 70
   128
 10
29.429244
 20
172.885827
 10
29.3785
 20
173.096844
 10
29.301596
 20
173.819092
 10
29.378515
 20
174.541331
 10
29.606615
 20
175.278351
 10
29.972725
 20
176.029998
  0
LINE
  5
2F6
100
AcDbEntity
  8
0
  6
Continuous
 62
   174
100
AcDbLine
 10
273.279904
 20
187.764184
 30
0.0
 11
273.279904
 21
186.872572
 31
0.0
  0
ARC
  5
2F7
100
AcDbEntity
  8
0
  6
HIDDEN
 62
   174
100
AcDbCircle
 10
250.779904
 20
185.607657
 30
0.0
 40
3.0
100
AcDbArc
 50
18.0
 51
36.0
  0
ARC
  5
2F8
100
AcDbEntity
  8
0
  6
Continuous
 62
   174
100
AcDbCircle
 10
131.279904
 20
142.607657
 30
0.0
 40
6.0
100
AcDbArc
 50
-180.0
 51
0.0
  0
LINE
  5
2F9
100
AcDbEntity
  8
0
  6
HIDDEN
 62
   174
100
AcDbLine
 10
216.000198
 20
172.557657
 30
0.0
 11
216.000198
 21
172.607657
 31
0.0
  0
ARC
  5
2FA
100
AcDbEntity
  8
0
  6
HIDDEN
 62
   174
100
AcDbCircle
 10
131.279904
 20
120.107657
 30
0.0
 40
3.0
100
AcDbArc
 50
-63.688787
 51
-54.40899
  0
ARC
  5
2FB
100
AcDbEntity
  8
0
  6
Continuous
 62
   174
100
AcDbCircle
 10
131.279904
 20
142.607657
 30
0.0
 40
14.75
100
AcDbArc
 50
0.0
 51
180.0
  0
LINE
  5
2FC
100
AcDbEntity
  8
0
  6
HIDDEN
 62
   174
100
AcDbLine
 10
125.778031
 20
158.607657
 30
0.0
 11
104.818106
 21
158.607657
 31
0.0
  0
LINE
  5
2FD
100
AcDbEntity
  8
0
  6
HIDDEN
 62
   174
100
AcDbLine
 10
160.679904
 20
172.607657
 30
0.0
 11
160.679904
 21
156.607657
 31
0.0
  0
LINE
  5
2FE
100
AcDbEntity
  8
0
  6
HIDDEN
 62
   174
100
AcDbLine
 10
59.898094
 20
188.557657
 30
0.0
 11
63.298051
 21
188.557657
 31
0.0
  0
LINE
  5
2FF
100
AcDbEntity
  8
0
  6
Continuous
 62
   174
100
AcDbLine
 10
227.779904
 20
188.615107
 30
0.0
 11
227.779904
 21
185.61537
 31
0.0
  0
LINE
  5
300
100
AcDbEntity
  8
0
  6
HIDDEN
 62
   174
100
AcDbLine
 10
255.779904
 20
145.107657
 30
0.0
 11
255.779904
 21
140.107657
 31
0.0
  0
LINE
  5
301
100
AcDbEntity
  8
0
  6
Continuous
 62
   174
100
AcDbLine
 10
40.579904
 20
147.686257
 30
0.0
 11
46.779904
 21
147.686257
 31
0.0
  0
LINE
  5
302
100
AcDbEntity
  8
0
  6
Continuous
 62
   174
100
AcDbLine
 10
40.579904
 20
151.221537
 30
0.0
 11
40.579904
 21
147.686257
 31
0.0
  0
LINE
  5
303
100
AcDbEntity
  8
0
  6
HIDDEN
 62
   174
100
AcDbLine
 10
253.779904
 20
172.607657
 30
0.0
 11
253.779904
 21
159.607657
 31
0.0
  0
LINE
  5
304
100
AcDbEntity
  8
0
  6
HIDDEN
 62
   174
100
AcDbLine
 10
210.55961
 20
172.557657
 30
0.0
 11
210.55961
 21
172.607657
 31
0.0
  0
LINE
  5
305
100
AcDbEntity
  8
0
  6
HIDDEN
 62
   174
100
AcDbLine
 10
213.801558
 20
172.607657
 30
0.0
 11
212.794423
 21
172.607657
 31
0.0
  0
LINE
  5
306
100
AcDbEntity
  8
0
  6
Continuous
 62
   174
100
AcDbLine
 10
77.779904
 20
159.607657
 30
0.0
 11
77.779904
 21
185.607657
 31
0.0
  0
ARC
  5
307
100
AcDbEntity
  8
0
  6
HIDDEN
 62
   174
100
AcDbCircle
 10
74.779904
 20
185.607657
 30
0.0
 40
3.0
100
AcDbArc
 50
-342.0
 51
-324.0
  0
LINE
  5
308
100
AcDbEntity
  8
0
  6
HIDDEN
 62
   174
100
AcDbLine
 10
268.779904
 20
180.615595
 30
0.0
 11
268.779904
 21
187.115345
 31
0.0
  0
LINE
  5
309
100
AcDbEntity
  8
0
  6
HIDDEN
 62
   174
100
AcDbLine
 10
239.279904
 20
188.607657
 30
0.0
 11
241.257087
 21
188.607657
 31
0.0
  0
ARC
  5
30A
100
AcDbEntity
  8
0
  6
Continuous
 62
   174
100
AcDbCircle
 10
171.279904
 20
142.607657
 30
0.0
 40
6.0
100
AcDbArc
 50
0.0
 51
180.0
  0
LINE
  5
30B
100
AcDbEntity
  8
0
  6
HIDDEN
 62
   174
100
AcDbLine
 10
210.279904
 20
172.557657
 30
0.0
 11
210.279904
 21
172.607657
 31
0.0
  0
LINE
  5
30C
100
AcDbEntity
  8
0
  6
Continuous
 62
   174
100
AcDbLine
 10
265.779904
 20
180.615595
 30
0.0
 11
265.779904
 21
187.222198
 31
0.0
  0
LINE
  5
30D
100
AcDbEntity
  8
0
  6
Continuous
 62
   174
100
AcDbLine
 10
269.479904
 20
176.194057
 30
0.0
 11
269.479904
 21
180.615595
 31
0.0
  0
LINE
  5
30E
100
AcDbEntity
  8
0
  6
Continuous
 62
   174
100
AcDbLine
 10
33.079904
 20
185.193057
 30
0.0
 11
33.079904
 21
180.615595
 31
0.0
  0
LINE
  5
30F
100
AcDbEntity
  8
0
  6
HIDDEN
 62
   174
100
AcDbLine
 10
46.779904
 20
147.689252
 30
0.0
 11
46.779904
 21
151.223302
 31
0.0
  0
LWPOLYLINE
  5
310
100
AcDbEntity
  8
0
  6
Continuous
 62
   174
100
AcDbPolyline
 90
        4
 70
   128
 10
253.779904
 20
183.39154
 10
253.767344
 20
182.494804
 10
253.746939
 20
181.556651
 10
253.737944
 20
180.607657
  0
LWPOLYLINE
  5
311
100
AcDbEntity
  8
0
  6
HIDDEN
 62
   174
100
AcDbPolyline
 90
        4
 70
   128
 10
48.779904
 20
183.39154
 10
48.792464
 20
182.494804
 10
48.812869
 20
181.556651
 10
48.821864
 20
180.607657
  0
LWPOLYLINE
  5
312
100
AcDbEntity
  8
0
  6
Continuous
 62
   174
100
AcDbPolyline
 90
        4
 70
   128
 10
48.821864
 20
180.607657
 10
48.81287
 20
181.55664
 10
48.792464
 20
182.494807
 10
48.779904
 20
183.39154
  0
LINE
  5
313
100
AcDbEntity
  8
0
  6
Continuous
 62
   174
100
AcDbLine
 10
253.798059
 20
185.607657
 30
0.0
 11
250.797896
 21
185.607657
 31
0.0
  0
LINE
  5
314
100
AcDbEntity
  8
0
  6
HIDDEN
 62
   174
100
AcDbLine
 10
77.798163
 20
185.607657
 30
0.0
 11
74.798001
 21
185.607657
 31
0.0
  0
LINE
  5
315
100
AcDbEntity
  8
0
  6
Continuous
 62
   174
100
AcDbLine
 10
224.279904
 20
112.607657
 30
0.0
 11
224.279904
 21
172.607657
 31
0.0
  0
LINE
  5
316
100
AcDbEntity
  8
0
  6
HIDDEN
 62
   174
100
AcDbLine
 10
224.779904
 20
185.607657
 30
0.0
 11
224.779904
 21
159.607657
 31
0.0
  0
LINE
  5
317
100
AcDbEntity
  8
0
  6
HIDDEN
 62
   174
100
AcDbLine
 10
63.279904
 20
188.607657
 30
0.0
 11
65.097309
 21
188.607657
 31
0.0
  0
LINE
  5
318
100
AcDbEntity
  8
0
  6
Continuous
 62
   174
100
AcDbLine
 10
250.779904
 20
159.607657
 30
0.0
 11
250.779904
 21
185.607657
 31
0.0
  0
ARC
  5
319
100
AcDbEntity
  8
0
  6
HIDDEN
 62
   174
100
AcDbCircle
 10
171.279904
 20
165.107657
 30
0.0
 40
3.0
100
AcDbArc
 50
0.0
 51
54.40899
  0
LINE
  5
31A
100
AcDbEntity
  8
0
  6
HIDDEN
 62
   174
100
AcDbLine
 10
176.799904
 20
158.607657
 30
0.0
 11
176.799904
 21
172.607657
 31
0.0
  0
LINE
  5
31B
100
AcDbEntity
  8
0
  6
HIDDEN
 62
   174
100
AcDbLine
 10
160.679904
 20
158.607657
 30
0.0
 11
160.679904
 21
172.607657
 31
0.0
  0
ARC
  5
31C
100
AcDbEntity
  8
0
  6
Continuous
 62
   174
100
AcDbCircle
 10
227.779904
 20
185.607657
 30
0.0
 40
3.0
100
AcDbArc
 50
90.0
 51
180.0
  0
LINE
  5
31D
100
AcDbEntity
  8
0
  6
HIDDEN
 62
   174
100
AcDbLine
 10
60.911177
 20
188.557657
 30
0.0
 11
60.298101
 21
188.557657
 31
0.0
  0
LINE
  5
31E
100
AcDbEntity
  8
0
  6
Continuous
 62
   174
100
AcDbLine
 10
51.779904
 20
185.61537
 30
0.0
 11
51.779904
 21
188.615107
 31
0.0
  0
LINE
  5
31F
100
AcDbEntity
  8
0
  6
HIDDEN
 62
   174
100
AcDbLine
 10
33.079904
 20
176.185767
 30
0.0
 11
33.079904
 21
185.029548
 31
0.0
  0
LINE
  5
320
100
AcDbEntity
  8
0
  6
Continuous
 62
   174
100
AcDbLine
 10
40.579904
 20
152.289793
 30
0.0
 11
46.779904
 21
152.289793
 31
0.0
  0
LWPOLYLINE
  5
321
100
AcDbEntity
  8
0
  6
HIDDEN
 62
   174
100
AcDbPolyline
 90
        4
 70
   128
 10
253.737944
 20
180.607657
 10
253.746939
 20
179.65865
 10
253.767345
 20
178.720484
 10
253.779904
 20
177.823775
  0
LINE
  5
322
100
AcDbEntity
  8
0
  6
HIDDEN
 62
   174
100
AcDbLine
 10
88.798051
 20
172.607657
 30
0.0
 11
86.577722
 21
172.607657
 31
0.0
  0
LINE
  5
323
100
AcDbEntity
  8
0
  6
HIDDEN
 62
   174
100
AcDbLine
 10
94.279904
 20
148.607657
 30
0.0
 11
94.229904
 21
148.607657
 31
0.0
  0
LWPOLYLINE
  5
324
100
AcDbEntity
  8
0
  6
HIDDEN
 62
   174
100
AcDbPolyline
 90
        4
 70
   128
 10
29.279904
 20
173.451131
 10
29.413025
 20
172.842772
 10
29.646107
 20
172.231697
 10
29.944003
 20
171.657408
  0
LWPOLYLINE
  5
325
100
AcDbEntity
  8
0
  6
Continuous
 62
   174
100
AcDbPolyline
 90
        6
 70
   128
 10
29.972725
 20
185.185317
 10
29.606598
 20
185.937008
 10
29.3785
 20
186.674055
 10
29.301596
 20
187.396303
 10
29.378515
 20
188.118542
 10
29.429415
 20
188.330124
  0
LINE
  5
326
100
AcDbEntity
  8
0
  6
Continuous
 62
   174
100
AcDbLine
 10
48.779904
 20
185.607657
 30
0.0
 11
48.779904
 21
183.39154
 31
0.0
  0
LINE
  5
327
100
AcDbEntity
  8
0
  6
HIDDEN
 62
   174
100
AcDbLine
 10
105.898105
 20
172.607657
 30
0.0
 11
124.698032
 21
172.607657
 31
0.0
  0
ARC
  5
328
100
AcDbEntity
  8
0
  6
HIDDEN
 62
   174
100
AcDbCircle
 10
131.279904
 20
120.107657
 30
0.0
 40
3.0
100
AcDbArc
 50
-243.688787
 51
-234.40899
  0
LINE
  5
329
100
AcDbEntity
  8
0
  6
HIDDEN
 62
   174
100
AcDbLine
 10
88.794439
 20
172.607657
 30
0.0
 11
86.69987
 21
172.607657
 31
0.0
  0
LINE
  5
32A
100
AcDbEntity
  8
0
  6
HIDDEN
 62
   174
100
AcDbLine
 10
91.896144
 20
172.607657
 30
0.0
 11
89.801787
 21
172.607657
 31
0.0
  0
LINE
  5
32B
100
AcDbEntity
  8
0
  6
HIDDEN
 62
   174
100
AcDbLine
 10
237.041717
 20
188.557657
 30
0.0
 11
236.297997
 21
188.557657
 31
0.0
  0
LINE
  5
32C
100
AcDbEntity
  8
0
  6
Continuous
 62
   174
100
AcDbLine
 10
255.779904
 20
132.607657
 30
0.0
 11
254.279904
 21
132.607657
 31
0.0
  0
LINE
  5
32D
100
AcDbEntity
  8
0
  6
Continuous
 62
   174
100
AcDbLine
 10
227.779904
 20
159.607657
 30
0.0
 11
227.779904
 21
185.607657
 31
0.0
  0
LINE
  5
32E
100
AcDbEntity
  8
0
  6
HIDDEN
 62
   174
100
AcDbLine
 10
140.799904
 20
158.607657
 30
0.0
 11
140.799904
 21
172.607657
 31
0.0
  0
LINE
  5
32F
100
AcDbEntity
  8
0
  6
Continuous
 62
   174
100
AcDbLine
 10
46.779904
 20
152.607657
 30
0.0
 11
48.279904
 21
152.607657
 31
0.0
  0
LINE
  5
330
100
AcDbEntity
  8
0
  6
HIDDEN
 62
   174
100
AcDbLine
 10
241.257087
 20
188.607657
 30
0.0
 11
241.666751
 21
188.607657
 31
0.0
  0
LINE
  5
331
100
AcDbEntity
  8
0
  6
Continuous
 62
   174
100
AcDbLine
 10
255.779904
 20
152.617195
 30
0.0
 11
255.779904
 21
152.300248
 31
0.0
  0
LINE
  5
332
100
AcDbEntity
  8
0
  6
HIDDEN
 62
   174
100
AcDbLine
 10
89.779904
 20
172.607657
 30
0.0
 11
89.779904
 21
172.557657
 31
0.0
  0
LINE
  5
333
100
AcDbEntity
  8
0
  6
HIDDEN
 62
   174
100
AcDbLine
 10
124.679904
 20
172.607657
 30
0.0
 11
124.679904
 21
156.607657
 31
0.0
  0
LINE
  5
334
100
AcDbEntity
  8
0
  6
HIDDEN
 62
   174
100
AcDbLine
 10
141.879904
 20
158.607657
 30
0.0
 11
141.879904
 21
172.607657
 31
0.0
  0
LINE
  5
335
100
AcDbEntity
  8
0
  6
HIDDEN
 62
   174
100
AcDbLine
 10
227.779904
 20
188.615107
 30
0.0
 11
227.779904
 21
185.61537
 31
0.0
  0
LINE
  5
336
100
AcDbEntity
  8
0
  6
Continuous
 62
   174
100
AcDbLine
 10
77.779904
 20
185.607657
 30
0.0
 11
77.779904
 21
159.607657
 31
0.0
  0
LINE
  5
337
100
AcDbEntity
  8
0
  6
HIDDEN
 62
   174
100
AcDbLine
 10
48.279904
 20
132.618308
 30
0.0
 11
48.279904
 21
142.617858
 31
0.0
  0
LINE
  5
338
100
AcDbEntity
  8
0
  6
Continuous
 62
   174
100
AcDbLine
 10
33.779904
 20
171.61617
 30
0.0
 11
33.779904
 21
173.901715
 31
0.0
  0
LINE
  5
339
100
AcDbEntity
  8
0
  6
Continuous
 62
   174
100
AcDbLine
 10
261.979904
 20
137.542245
 30
0.0
 11
261.979904
 21
140.121369
 31
0.0
  0
LINE
  5
33A
100
AcDbEntity
  8
0
  6
HIDDEN
 62
   174
100
AcDbLine
 10
261.979904
 20
151.221537
 30
0.0
 11
255.779904
 21
151.221537
 31
0.0
  0
ARC
  5
33B
100
AcDbEntity
  8
0
  6
HIDDEN
 62
   174
100
AcDbCircle
 10
250.779904
 20
185.607657
 30
0.0
 40
3.0
100
AcDbArc
 50
0.0
 51
18.0
  0
LINE
  5
33C
100
AcDbEntity
  8
0
  6
HIDDEN
 62
   174
100
AcDbLine
 10
216.279904
 20
172.557657
 30
0.0
 11
216.279904
 21
172.607657
 31
0.0
  0
LINE
  5
33D
100
AcDbEntity
  8
0
  6
HIDDEN
 62
   174
100
AcDbLine
 10
212.779904
 20
172.607657
 30
0.0
 11
212.779904
 21
172.557657
 31
0.0
  0
LINE
  5
33E
100
AcDbEntity
  8
0
  6
HIDDEN
 62
   174
100
AcDbLine
 10
212.794423
 20
172.607657
 30
0.0
 11
210.699854
 21
172.607657
 31
0.0
  0
LINE
  5
33F
100
AcDbEntity
  8
0
  6
HIDDEN
 62
   174
100
AcDbLine
 10
212.798035
 20
172.607657
 30
0.0
 11
210.577706
 21
172.607657
 31
0.0
  0
ARC
  5
340
100
AcDbEntity
  8
0
  6
Continuous
 62
   174
100
AcDbCircle
 10
171.279904
 20
165.107657
 30
0.0
 40
3.0
100
AcDbArc
 50
0.0
 51
180.0
  0
LWPOLYLINE
  5
341
100
AcDbEntity
  8
0
  6
Continuous
 62
   174
100
AcDbPolyline
 90
        4
 70
   128
 10
29.972725
 20
176.029998
 10
29.644824
 20
177.282812
 10
29.41207
 20
178.505634
 10
29.279904
 20
179.716046
  0
LWPOLYLINE
  5
342
100
AcDbEntity
  8
0
  6
Continuous
 62
   174
100
AcDbPolyline
 90
        7
 70
   128
 10
272.587084
 20
185.029548
 10
272.953186
 20
183.526278
 10
273.181286
 20
182.052287
 10
273.258217
 20
180.607895
 10
273.18133
 20
179.163448
 10
272.953238
 20
177.689297
 10
272.587084
 20
176.185767
  0
LINE
  5
343
100
AcDbEntity
  8
0
  6
HIDDEN
 62
   174
100
AcDbLine
 10
65.097309
 20
188.607657
 30
0.0
 11
65.536173
 21
188.607657
 31
0.0
  0
LINE
  5
344
100
AcDbEntity
  8
0
  6
HIDDEN
 62
   174
100
AcDbLine
 10
250.779904
 20
159.607657
 30
0.0
 11
227.779904
 21
159.607657
 31
0.0
  0
ARC
  5
345
100
AcDbEntity
  8
0
  6
Continuous
 62
   174
100
AcDbCircle
 10
171.279904
 20
142.607657
 30
0.0
 40
11.75
100
AcDbArc
 50
0.0
 51
180.0
  0
LINE
  5
346
100
AcDbEntity
  8
0
  6
HIDDEN
 62
   174
100
AcDbLine
 10
104.799904
 20
158.607657
 30
0.0
 11
104.799904
 21
172.607657
 31
0.0
  0
LINE
  5
347
100
AcDbEntity
  8
0
  6
HIDDEN
 62
   174
100
AcDbLine
 10
197.759904
 20
158.607657
 30
0.0
 11
197.759904
 21
172.607657
 31
0.0
  0
LINE
  5
348
100
AcDbEntity
  8
0
  6
Continuous
 62
   174
100
AcDbLine
 10
268.779904
 20
187.329688
 30
0.0
 11
268.779904
 21
180.615595
 31
0.0
  0
ARC
  5
349
100
AcDbEntity
  8
0
  6
Continuous
 62
   174
100
AcDbCircle
 10
51.779904
 20
185.607657
 30
0.0
 40
3.0
100
AcDbArc
 50
-270.0
 51
-180.0
  0
ARC
  5
34A
100
AcDbEntity
  8
0
  6
HIDDEN
 62
   174
100
AcDbCircle
 10
51.779904
 20
185.607657
 30
0.0
 40
3.0
100
AcDbArc
 50
90.0
 51
180.0
  0
LINE
  5
34B
100
AcDbEntity
  8
0
  6
HIDDEN
 62
   174
100
AcDbLine
 10
105.898105
 20
156.607657
 30
0.0
 11
124.698032
 21
156.607657
 31
0.0
  0
LINE
  5
34C
100
AcDbEntity
  8
0
  6
HIDDEN
 62
   174
100
AcDbLine
 10
74.779904
 20
159.607657
 30
0.0
 11
51.779904
 21
159.607657
 31
0.0
  0
LINE
  5
34D
100
AcDbEntity
  8
0
  6
HIDDEN
 62
   174
100
AcDbLine
 10
216.298047
 20
172.607657
 30
0.0
 11
216.041006
 21
172.607657
 31
0.0
  0
LINE
  5
34E
100
AcDbEntity
  8
0
  6
HIDDEN
 62
   174
100
AcDbLine
 10
161.759904
 20
158.607657
 30
0.0
 11
161.759904
 21
172.607657
 31
0.0
  0
ARC
  5
34F
100
AcDbEntity
  8
0
  6
HIDDEN
 62
   174
100
AcDbCircle
 10
74.779904
 20
185.607657
 30
0.0
 40
3.0
100
AcDbArc
 50
-288.0
 51
-270.0
  0
LINE
  5
350
100
AcDbEntity
  8
0
  6
HIDDEN
 62
   174
100
AcDbLine
 10
250.779904
 20
188.615107
 30
0.0
 11
250.779904
 21
185.61537
 31
0.0
  0
LINE
  5
351
100
AcDbEntity
  8
0
  6
Continuous
 62
   174
100
AcDbLine
 10
40.579904
 20
145.107657
 30
0.0
 11
46.779904
 21
145.107657
 31
0.0
  0
LINE
  5
352
100
AcDbEntity
  8
0
  6
HIDDEN
 62
   174
100
AcDbLine
 10
253.779904
 20
177.8319
 30
0.0
 11
253.779904
 21
172.616082
 31
0.0
  0
LINE
  5
353
100
AcDbEntity
  8
0
  6
Continuous
 62
   174
100
AcDbLine
 10
265.779904
 20
174.009417
 30
0.0
 11
265.779904
 21
180.615595
 31
0.0
  0
LINE
  5
354
100
AcDbEntity
  8
0
  6
HIDDEN
 62
   174
100
AcDbLine
 10
33.079904
 20
189.607208
 30
0.0
 11
33.079904
 21
185.029548
 31
0.0
  0
LINE
  5
355
100
AcDbEntity
  8
0
  6
HIDDEN
 62
   174
100
AcDbLine
 10
269.479904
 20
185.185317
 30
0.0
 11
269.479904
 21
189.607208
 31
0.0
  0
ARC
  5
356
100
AcDbEntity
  8
0
  6
HIDDEN
 62
   174
100
AcDbCircle
 10
250.779904
 20
185.607657
 30
0.0
 40
3.0
100
AcDbArc
 50
72.0
 51
90.0
  0
ARC
  5
357
100
AcDbEntity
  8
0
  6
HIDDEN
 62
   174
100
AcDbCircle
 10
171.279904
 20
165.107657
 30
0.0
 40
3.0
100
AcDbArc
 50
-305.59101
 51
-296.311213
  0
LINE
  5
358
100
AcDbEntity
  8
0
  6
Continuous
 62
   174
100
AcDbLine
 10
208.279904
 20
112.607657
 30
0.0
 11
224.279904
 21
112.607657
 31
0.0
  0
LINE
  5
359
100
AcDbEntity
  8
0
  6
HIDDEN
 62
   174
100
AcDbLine
 10
269.479904
 20
171.61617
 30
0.0
 11
269.479904
 21
171.616595
 31
0.0
  0
LINE
  5
35A
100
AcDbEntity
  8
0
  6
HIDDEN
 62
   174
100
AcDbLine
 10
269.479904
 20
176.029998
 30
0.0
 11
272.587084
 21
176.029998
 31
0.0
  0
LINE
  5
35B
100
AcDbEntity
  8
0
  6
Continuous
 62
   174
100
AcDbLine
 10
269.479904
 20
189.607208
 30
0.0
 11
272.587084
 21
189.607208
 31
0.0
  0
LINE
  5
35C
100
AcDbEntity
  8
0
  6
HIDDEN
 62
   174
100
AcDbLine
 10
40.579904
 20
140.111025
 30
0.0
 11
46.779904
 21
140.111025
 31
0.0
  0
LINE
  5
35D
100
AcDbEntity
  8
0
  6
HIDDEN
 62
   174
100
AcDbLine
 10
241.666751
 20
188.607657
 30
0.0
 11
242.279904
 21
188.607657
 31
0.0
  0
ARC
  5
35E
100
AcDbEntity
  8
0
  6
HIDDEN
 62
   174
100
AcDbCircle
 10
131.279904
 20
120.107657
 30
0.0
 40
3.0
100
AcDbArc
 50
-234.40899
 51
-180.0
  0
LINE
  5
35F
100
AcDbEntity
  8
0
  6
HIDDEN
 62
   174
100
AcDbLine
 10
86.69987
 20
172.607657
 30
0.0
 11
86.554992
 21
172.607657
 31
0.0
  0
LINE
  5
360
100
AcDbEntity
  8
0
  6
HIDDEN
 62
   174
100
AcDbLine
 10
196.679904
 20
158.607657
 30
0.0
 11
196.679904
 21
172.607657
 31
0.0
  0
LINE
  5
361
100
AcDbEntity
  8
0
  6
HIDDEN
 62
   174
100
AcDbLine
 10
177.879904
 20
172.607657
 30
0.0
 11
177.879904
 21
156.607657
 31
0.0
  0
LINE
  5
362
100
AcDbEntity
  8
0
  6
HIDDEN
 62
   174
100
AcDbLine
 10
51.779904
 20
185.61537
 30
0.0
 11
51.779904
 21
188.615107
 31
0.0
  0
LINE
  5
363
100
AcDbEntity
  8
0
  6
HIDDEN
 62
   174
100
AcDbLine
 10
269.479904
 20
176.029998
 30
0.0
 11
269.479904
 21
185.185317
 31
0.0
  0
LINE
  5
364
100
AcDbEntity
  8
0
  6
Continuous
 62
   174
100
AcDbLine
 10
40.579904
 20
134.00357
 30
0.0
 11
40.579904
 21
132.935467
 31
0.0
  0
LINE
  5
365
100
AcDbEntity
  8
0
  6
Continuous
 62
   174
100
AcDbLine
 10
261.979904
 20
133.994705
 30
0.0
 11
261.979904
 21
137.531723
 31
0.0
  0
ARC
  5
366
100
AcDbEntity
  8
0
  6
Continuous
 62
   174
100
AcDbCircle
 10
171.279904
 20
142.607657
 30
0.0
 40
6.0
100
AcDbArc
 50
-180.0
 51
0.0
  0
LINE
  5
367
100
AcDbEntity
  8
0
  6
HIDDEN
 62
   174
100
AcDbLine
 10
210.279904
 20
172.557657
 30
0.0
 11
210.279904
 21
172.607657
 31
0.0
  0
LINE
  5
368
100
AcDbEntity
  8
0
  6
Continuous
 62
   174
100
AcDbLine
 10
255.779904
 20
145.120932
 30
0.0
 11
255.779904
 21
144.113584
 31
0.0
  0
LINE
  5
369
100
AcDbEntity
  8
0
  6
Continuous
 62
   174
100
AcDbLine
 10
227.797997
 20
185.607657
 30
0.0
 11
224.798047
 21
185.607657
 31
0.0
  0
LINE
  5
36A
100
AcDbEntity
  8
0
  6
Continuous
 62
   174
100
AcDbLine
 10
94.279904
 20
172.607657
 30
0.0
 11
208.279904
 21
172.607657
 31
0.0
  0
LINE
  5
36B
100
AcDbEntity
  8
0
  6
Continuous
 62
   174
100
AcDbLine
 10
268.779904
 20
173.901502
 30
0.0
 11
268.779904
 21
171.61617
 31
0.0
  0
LINE
  5
36C
100
AcDbEntity
  8
0
  6
Continuous
 62
   174
100
AcDbLine
 10
33.079904
 20
176.038345
 30
0.0
 11
33.079904
 21
171.616595
 31
0.0
  0
LINE
  5
36D
100
AcDbEntity
  8
0
  6
HIDDEN
 62
   174
100
AcDbLine
 10
40.579904
 20
151.223302
 30
0.0
 11
46.779904
 21
151.223302
 31
0.0
  0
LINE
  5
36E
100
AcDbEntity
  8
0
  6
HIDDEN
 62
   174
100
AcDbLine
 10
65.536173
 20
188.607657
 30
0.0
 11
66.279904
 21
188.607657
 31
0.0
  0
LINE
  5
36F
100
AcDbEntity
  8
0
  6
HIDDEN
 62
   174
100
AcDbLine
 10
212.798035
 20
172.557657
 30
0.0
 11
210.577706
 21
172.557657
 31
0.0
  0
LINE
  5
370
100
AcDbEntity
  8
0
  6
Continuous
 62
   174
100
AcDbLine
 10
48.279904
 20
131.607657
 30
0.0
 11
78.279904
 21
131.607657
 31
0.0
  0
LINE
  5
371
100
AcDbEntity
  8
0
  6
HIDDEN
 62
   174
100
AcDbLine
 10
125.759904
 20
158.607657
 30
0.0
 11
125.759904
 21
172.607657
 31
0.0
  0
LINE
  5
372
100
AcDbEntity
  8
0
  6
HIDDEN
 62
   174
100
AcDbLine
 10
140.799904
 20
158.607657
 30
0.0
 11
140.799904
 21
172.607657
 31
0.0
  0
LINE
  5
373
100
AcDbEntity
  8
0
  6
HIDDEN
 62
   174
100
AcDbLine
 10
254.279904
 20
142.617858
 30
0.0
 11
254.279904
 21
132.618308
 31
0.0
  0
LINE
  5
374
100
AcDbEntity
  8
0
  6
Continuous
 62
   174
100
AcDbLine
 10
33.079904
 20
171.608107
 30
0.0
 11
29.972725
 21
171.608107
 31
0.0
  0
LWPOLYLINE
  5
375
100
AcDbEntity
  8
0
  6
HIDDEN
 62
   174
100
AcDbPolyline
 90
        7
 70
   128
 10
29.972725
 20
185.029548
 10
29.606622
 20
183.526278
 10
29.378522
 20
182.052287
 10
29.301591
 20
180.607895
 10
29.378478
 20
179.163448
 10
29.606571
 20
177.689297
 10
29.972725
 20
176.185767
  0
LINE
  5
376
100
AcDbEntity
  8
0
  6
HIDDEN
 62
   174
100
AcDbLine
 10
253.798059
 20
185.607657
 30
0.0
 11
250.797896
 21
185.607657
 31
0.0
  0
LINE
  5
377
100
AcDbEntity
  8
0
  6
Continuous
 62
   174
100
AcDbLine
 10
48.779904
 20
177.823775
 30
0.0
 11
48.779904
 21
159.607657
 31
0.0
  0
LINE
  5
378
100
AcDbEntity
  8
0
  6
HIDDEN
 62
   174
100
AcDbLine
 10
51.798102
 20
185.607657
 30
0.0
 11
48.798152
 21
185.607657
 31
0.0
  0
LINE
  5
379
100
AcDbEntity
  8
0
  6
HIDDEN
 62
   174
100
AcDbLine
 10
210.699854
 20
172.607657
 30
0.0
 11
210.554976
 21
172.607657
 31
0.0
  0
LINE
  5
37A
100
AcDbEntity
  8
0
  6
Continuous
 62
   174
100
AcDbLine
 10
269.479904
 20
180.615595
 30
0.0
 11
269.479904
 21
185.037345
 31
0.0
  0
LINE
  5
37B
100
AcDbEntity
  8
0
  6
Continuous
 62
   174
100
AcDbLine
 10
33.079904
 20
180.615595
 30
0.0
 11
33.079904
 21
176.038345
 31
0.0
  0
LWPOLYLINE
  5
37C
100
AcDbEntity
  8
0
  6
Continuous
 62
   174
100
AcDbPolyline
 90
        4
 70
   128
 10
48.821864
 20
180.607657
 10
48.812869
 20
179.65865
 10
48.792464
 20
178.720484
 10
48.779904
 20
177.823775
  0
LINE
  5
37D
100
AcDbEntity
  8
0
  6
HIDDEN
 62
   174
100
AcDbLine
 10
74.779904
 20
159.607657
 30
0.0
 11
74.779904
 21
185.607657
 31
0.0
  0
LINE
  5
37E
100
AcDbEntity
  8
0
  6
HIDDEN
 62
   174
100
AcDbLine
 10
63.298051
 20
188.557657
 30
0.0
 11
66.698009
 21
188.557657
 31
0.0
  0
LINE
  5
37F
100
AcDbEntity
  8
0
  6
Continuous
 62
   174
100
AcDbLine
 10
74.779904
 20
185.607657
 30
0.0
 11
74.779904
 21
159.607657
 31
0.0
  0
LINE
  5
380
100
AcDbEntity
  8
0
  6
HIDDEN
 62
   174
100
AcDbLine
 10
208.279904
 20
148.607657
 30
0.0
 11
208.329904
 21
148.607657
 31
0.0
  0
LINE
  5
381
100
AcDbEntity
  8
0
  6
HIDDEN
 62
   174
100
AcDbLine
 10
36.779904
 20
174.116057
 30
0.0
 11
36.779904
 21
180.615595
 31
0.0
  0
LINE
  5
382
100
AcDbEntity
  8
0
  6
Continuous
 62
   174
100
AcDbLine
 10
29.279904
 20
188.41521
 30
0.0
 11
29.279904
 21
181.507168
 31
0.0
  0
LINE
  5
383
100
AcDbEntity
  8
0
  6
HIDDEN
 62
   174
100
AcDbLine
 10
261.979904
 20
147.686257
 30
0.0
 11
255.779904
 21
147.686257
 31
0.0
  0
LINE
  5
384
100
AcDbEntity
  8
0
  6
HIDDEN
 62
   174
100
AcDbLine
 10
227.779904
 20
188.607657
 30
0.0
 11
235.879904
 21
188.607657
 31
0.0
  0
LINE
  5
385
100
AcDbEntity
  8
0
  6
HIDDEN
 62
   174
100
AcDbLine
 10
86.55961
 20
172.557657
 30
0.0
 11
86.55961
 21
172.607657
 31
0.0
  0
LINE
  5
386
100
AcDbEntity
  8
0
  6
HIDDEN
 62
   174
100
AcDbLine
 10
177.897966
 20
172.607657
 30
0.0
 11
196.698105
 21
172.607657
 31
0.0
  0
LINE
  5
387
100
AcDbEntity
  8
0
  6
Continuous
 62
   174
100
AcDbLine
 10
254.279904
 20
159.607657
 30
0.0
 11
254.279904
 21
131.607657
 31
0.0
  0
LINE
  5
388
100
AcDbEntity
  8
0
  6
HIDDEN
 62
   174
100
AcDbLine
 10
124.679904
 20
172.607657
 30
0.0
 11
124.679904
 21
156.607657
 31
0.0
  0
LINE
  5
389
100
AcDbEntity
  8
0
  6
Continuous
 62
   174
100
AcDbLine
 10
77.798163
 20
185.607657
 30
0.0
 11
74.798001
 21
185.607657
 31
0.0
  0
LINE
  5
38A
100
AcDbEntity
  8
0
  6
Continuous
 62
   174
100
AcDbLine
 10
36.779904
 20
174.009205
 30
0.0
 11
36.779904
 21
172.616082
 31
0.0
  0
LINE
  5
38B
100
AcDbEntity
  8
0
  6
HIDDEN
 62
   174
100
AcDbLine
 10
242.279904
 20
188.607657
 30
0.0
 11
242.679904
 21
188.607657
 31
0.0
  0
LINE
  5
38C
100
AcDbEntity
  8
0
  6
Continuous
 62
   174
100
AcDbLine
 10
224.779904
 20
185.607657
 30
0.0
 11
224.779904
 21
159.607657
 31
0.0
  0
ARC
  5
38D
100
AcDbEntity
  8
0
  6
Continuous
 62
   174
100
AcDbCircle
 10
131.279904
 20
120.107657
 30
0.0
 40
3.0
100
AcDbArc
 50
-180.0
 51
0.0
  0
LWPOLYLINE
  5
38E
100
AcDbEntity
  8
0
  6
HIDDEN
 62
   174
100
AcDbPolyline
 90
        4
 70
   128
 10
29.972725
 20
176.185767
 10
29.644824
 20
175.55936
 10
29.41207
 20
174.947947
 10
29.279904
 20
174.342743
  0
LINE
  5
38F
100
AcDbEntity
  8
0
  6
HIDDEN
 62
   174
100
AcDbLine
 10
48.779904
 20
185.61537
 30
0.0
 11
48.779904
 21
183.39929
 31
0.0
  0
LINE
  5
390
100
AcDbEntity
  8
0
  6
HIDDEN
 62
   174
100
AcDbLine
 10
40.579904
 20
145.111024
 30
0.0
 11
46.779904
 21
145.111024
 31
0.0
  0
LINE
  5
391
100
AcDbEntity
  8
0
  6
HIDDEN
 62
   174
100
AcDbLine
 10
77.779904
 20
185.607657
 30
0.0
 11
77.779904
 21
159.607657
 31
0.0
  0
LINE
  5
392
100
AcDbEntity
  8
0
  6
HIDDEN
 62
   174
100
AcDbLine
 10
48.279904
 20
142.617858
 30
0.0
 11
48.279904
 21
152.617195
 31
0.0
  0
LINE
  5
393
100
AcDbEntity
  8
0
  6
HIDDEN
 62
   174
100
AcDbLine
 10
268.779904
 20
174.116057
 30
0.0
 11
268.779904
 21
180.615595
 31
0.0
  0
LINE
  5
394
100
AcDbEntity
  8
0
  6
Continuous
 62
   174
100
AcDbLine
 10
36.779904
 20
187.221773
 30
0.0
 11
36.779904
 21
180.615595
 31
0.0
  0
LINE
  5
395
100
AcDbEntity
  8
0
  6
HIDDEN
 62
   174
100
AcDbLine
 10
29.972725
 20
189.607208
 30
0.0
 11
29.943873
 21
189.557684
 31
0.0
  0
LINE
  5
396
100
AcDbEntity
  8
0
  6
HIDDEN
 62
   174
100
AcDbLine
 10
66.279904
 20
188.607657
 30
0.0
 11
66.679904
 21
188.607657
 31
0.0
  0
ARC
  5
397
100
AcDbEntity
  8
0
  6
HIDDEN
 62
   174
100
AcDbCircle
 10
131.279904
 20
120.107657
 30
0.0
 40
5.0
100
AcDbArc
 50
-180.0
 51
0.0
  0
ARC
  5
398
100
AcDbEntity
  8
0
  6
Continuous
 62
   174
100
AcDbCircle
 10
250.779904
 20
185.607657
 30
0.0
 40
3.0
100
AcDbArc
 50
0.0
 51
90.0
  0
LINE
  5
399
100
AcDbEntity
  8
0
  6
HIDDEN
 62
   174
100
AcDbLine
 10
86.554992
 20
172.607657
 30
0.0
 11
86.297951
 21
172.607657
 31
0.0
  0
LINE
  5
39A
100
AcDbEntity
  8
0
  6
HIDDEN
 62
   174
100
AcDbLine
 10
104.799904
 20
158.607657
 30
0.0
 11
104.799904
 21
172.607657
 31
0.0
  0
LINE
  5
39B
100
AcDbEntity
  8
0
  6
HIDDEN
 62
   174
100
AcDbLine
 10
125.759904
 20
158.607657
 30
0.0
 11
125.759904
 21
172.607657
 31
0.0
  0
LINE
  5
39C
100
AcDbEntity
  8
0
  6
HIDDEN
 62
   174
100
AcDbLine
 10
161.759904
 20
158.607657
 30
0.0
 11
161.759904
 21
172.607657
 31
0.0
  0
LINE
  5
39D
100
AcDbEntity
  8
0
  6
Continuous
 62
   174
100
AcDbLine
 10
94.279904
 20
112.607657
 30
0.0
 11
94.279904
 21
172.607657
 31
0.0
  0
LINE
  5
39E
100
AcDbEntity
  8
0
  6
Continuous
 62
   174
100
AcDbLine
 10
265.779904
 20
172.616082
 30
0.0
 11
265.779904
 21
174.009417
 31
0.0
  0
LINE
  5
39F
100
AcDbEntity
  8
0
  6
Continuous
 62
   174
100
AcDbLine
 10
29.429415
 20
188.330124
 30
0.0
 11
29.946071
 21
189.559825
 31
0.0
  0
LWPOLYLINE
  5
3A0
100
AcDbEntity
  8
0
  6
HIDDEN
 62
   174
100
AcDbPolyline
 90
        6
 70
   128
 10
253.779904
 20
185.607657
 10
253.607562
 20
186.609832
 10
253.155761
 20
187.439406
 10
252.492691
 20
188.070656
 10
251.68416
 20
188.468133
 10
250.779904
 20
188.607657
  0
LINE
  5
3A1
100
AcDbEntity
  8
0
  6
Continuous
 62
   174
100
AcDbLine
 10
36.779904
 20
188.615107
 30
0.0
 11
36.779904
 21
187.221773
 31
0.0
  0
LINE
  5
3A2
100
AcDbEntity
  8
0
  6
HIDDEN
 62
   174
100
AcDbLine
 10
269.479904
 20
171.608107
 30
0.0
 11
269.479904
 21
176.029998
 31
0.0
  0
LWPOLYLINE
  5
3A3
100
AcDbEntity
  8
0
  6
HIDDEN
 62
   174
100
AcDbPolyline
 90
        4
 70
   128
 10
29.279904
 20
186.872572
 10
29.413025
 20
186.264213
 10
29.646107
 20
185.653139
 10
29.972725
 20
185.029548
  0
LINE
  5
3A4
100
AcDbEntity
  8
0
  6
Continuous
 62
   174
100
AcDbLine
 10
272.587084
 20
189.607208
 30
0.0
 11
272.615935
 21
189.557684
 31
0.0
  0
LWPOLYLINE
  5
3A5
100
AcDbEntity
  8
0
  6
HIDDEN
 62
   174
100
AcDbPolyline
 90
        7
 70
   128
 10
272.587084
 20
185.185317
 10
272.95321
 20
185.937008
 10
273.181308
 20
186.674055
 10
273.258212
 20
187.396303
 10
273.181294
 20
188.118542
 10
272.953193
 20
188.855561
 10
272.587084
 20
189.607208
  0
ARC
  5
3A6
100
AcDbEntity
  8
0
  6
HIDDEN
 62
   174
100
AcDbCircle
 10
171.279904
 20
165.107657
 30
0.0
 40
3.0
100
AcDbArc
 50
-180.0
 51
-125.59101
  0
LINE
  5
3A7
100
AcDbEntity
  8
0
  6
HIDDEN
 62
   174
100
AcDbLine
 10
124.679904
 20
158.607657
 30
0.0
 11
124.679904
 21
172.607657
 31
0.0
  0
LINE
  5
3A8
100
AcDbEntity
  8
0
  6
HIDDEN
 62
   174
100
AcDbLine
 10
177.879904
 20
158.607657
 30
0.0
 11
177.879904
 21
172.607657
 31
0.0
  0
LINE
  5
3A9
100
AcDbEntity
  8
0
  6
HIDDEN
 62
   174
100
AcDbLine
 10
65.097309
 20
188.557657
 30
0.0
 11
60.893057
 21
188.557657
 31
0.0
  0
LINE
  5
3AA
100
AcDbEntity
  8
0
  6
Continuous
 62
   174
100
AcDbLine
 10
208.279904
 20
172.607657
 30
0.0
 11
208.279904
 21
112.607657
 31
0.0
  0
LINE
  5
3AB
100
AcDbEntity
  8
0
  6
Continuous
 62
   174
100
AcDbLine
 10
268.779904
 20
189.615232
 30
0.0
 11
268.779904
 21
187.329688
 31
0.0
  0
LWPOLYLINE
  5
3AC
100
AcDbEntity
  8
0
  6
Continuous
 62
   174
100
AcDbPolyline
 90
        4
 70
   128
 10
273.279904
 20
186.872572
 10
273.146784
 20
186.264213
 10
272.913701
 20
185.653139
 10
272.587084
 20
185.029548
  0
LINE
  5
3AD
100
AcDbEntity
  8
0
  6
HIDDEN
 62
   174
100
AcDbLine
 10
40.579904
 20
137.531723
 30
0.0
 11
46.779904
 21
137.531723
 31
0.0
  0
LINE
  5
3AE
100
AcDbEntity
  8
0
  6
Continuous
 62
   174
100
AcDbLine
 10
74.779904
 20
188.607657
 30
0.0
 11
51.779904
 21
188.607657
 31
0.0
  0
LINE
  5
3AF
100
AcDbEntity
  8
0
  6
HIDDEN
 62
   174
100
AcDbLine
 10
48.798152
 20
159.607657
 30
0.0
 11
51.798102
 21
159.607657
 31
0.0
  0
LINE
  5
3B0
100
AcDbEntity
  8
0
  6
HIDDEN
 62
   174
100
AcDbLine
 10
210.554976
 20
172.607657
 30
0.0
 11
210.297935
 21
172.607657
 31
0.0
  0
LINE
  5
3B1
100
AcDbEntity
  8
0
  6
HIDDEN
 62
   174
100
AcDbLine
 10
105.879904
 20
172.607657
 30
0.0
 11
105.879904
 21
156.607657
 31
0.0
  0
LINE
  5
3B2
100
AcDbEntity
  8
0
  6
Continuous
 62
   174
100
AcDbLine
 10
265.779904
 20
187.222198
 30
0.0
 11
265.779904
 21
188.615107
 31
0.0
  0
LINE
  5
3B3
100
AcDbEntity
  8
0
  6
Continuous
 62
   174
100
AcDbLine
 10
261.979904
 20
140.111025
 30
0.0
 11
261.979904
 21
145.111024
 31
0.0
  0
LINE
  5
3B4
100
AcDbEntity
  8
0
  6
HIDDEN
 62
   174
100
AcDbLine
 10
141.897929
 20
156.607657
 30
0.0
 11
160.698069
 21
156.607657
 31
0.0
  0
LINE
  5
3B5
100
AcDbEntity
  8
0
  6
HIDDEN
 62
   174
100
AcDbLine
 10
242.679904
 20
188.607657
 30
0.0
 11
250.779904
 21
188.607657
 31
0.0
  0
LINE
  5
3B6
100
AcDbEntity
  8
0
  6
Continuous
 62
   174
100
AcDbLine
 10
255.779904
 20
144.113584
 30
0.0
 11
255.779904
 21
140.121369
 31
0.0
  0
ARC
  5
3B7
100
AcDbEntity
  8
0
  6
Continuous
 62
   174
100
AcDbCircle
 10
131.279904
 20
142.607657
 30
0.0
 40
11.75
100
AcDbArc
 50
0.0
 51
180.0
  0
LINE
  5
3B8
100
AcDbEntity
  8
0
  6
HIDDEN
 62
   174
100
AcDbLine
 10
216.041006
 20
172.607657
 30
0.0
 11
215.896128
 21
172.607657
 31
0.0
  0
ARC
  5
3B9
100
AcDbEntity
  8
0
  6
Continuous
 62
   174
100
AcDbCircle
 10
171.279904
 20
142.607657
 30
0.0
 40
14.75
100
AcDbArc
 50
180.0
 51
360.0
  0
LINE
  5
3BA
100
AcDbEntity
  8
0
  6
HIDDEN
 62
   174
100
AcDbLine
 10
227.797997
 20
185.607657
 30
0.0
 11
224.798047
 21
185.607657
 31
0.0
  0
LINE
  5
3BB
100
AcDbEntity
  8
0
  6
Continuous
 62
   174
100
AcDbLine
 10
208.279904
 20
172.607657
 30
0.0
 11
208.279904
 21
112.607657
 31
0.0
  0
LINE
  5
3BC
100
AcDbEntity
  8
0
  6
Continuous
 62
   174
100
AcDbLine
 10
268.779904
 20
180.615595
 30
0.0
 11
268.779904
 21
173.901502
 31
0.0
  0
ARC
  5
3BD
100
AcDbEntity
  8
0
  6
HIDDEN
 62
   174
100
AcDbCircle
 10
250.779904
 20
185.607657
 30
0.0
 40
3.0
100
AcDbArc
 50
54.0
 51
72.0
  0
LINE
  5
3BE
100
AcDbEntity
  8
0
  6
Continuous
 62
   174
100
AcDbLine
 10
48.279904
 20
131.607657
 30
0.0
 11
48.279904
 21
159.607657
 31
0.0
  0
LINE
  5
3BF
100
AcDbEntity
  8
0
  6
Continuous
 62
   174
100
AcDbLine
 10
33.779904
 20
187.3299
 30
0.0
 11
33.779904
 21
189.615232
 31
0.0
  0
LINE
  5
3C0
100
AcDbEntity
  8
0
  6
Continuous
 62
   174
100
AcDbLine
 10
269.479904
 20
171.61617
 30
0.0
 11
269.479904
 21
176.194057
 31
0.0
  0
LINE
  5
3C1
100
AcDbEntity
  8
0
  6
HIDDEN
 62
   174
100
AcDbLine
 10
272.587084
 20
185.185317
 30
0.0
 11
269.479904
 21
185.185317
 31
0.0
  0
LINE
  5
3C2
100
AcDbEntity
  8
0
  6
Continuous
 62
   174
100
AcDbLine
 10
273.279904
 20
174.342743
 30
0.0
 11
273.279904
 21
173.451131
 31
0.0
  0
LINE
  5
3C3
100
AcDbEntity
  8
0
  6
Continuous
 62
   174
100
AcDbLine
 10
46.779904
 20
147.69602
 30
0.0
 11
46.779904
 21
151.231296
 31
0.0
  0
LINE
  5
3C4
100
AcDbEntity
  8
0
  6
HIDDEN
 62
   174
100
AcDbLine
 10
124.679904
 20
158.607657
 30
0.0
 11
124.679904
 21
172.607657
 31
0.0
  0
LINE
  5
3C5
100
AcDbEntity
  8
0
  6
Continuous
 62
   174
100
AcDbLine
 10
33.079904
 20
176.029998
 30
0.0
 11
29.972725
 21
176.029998
 31
0.0
  0
LINE
  5
3C6
100
AcDbEntity
  8
0
  6
Continuous
 62
   174
100
AcDbLine
 10
40.579904
 20
140.11797
 30
0.0
 11
40.579904
 21
137.539271
 31
0.0
  0
LINE
  5
3C7
100
AcDbEntity
  8
0
  6
HIDDEN
 62
   174
100
AcDbLine
 10
46.779904
 20
140.111025
 30
0.0
 11
46.779904
 21
145.111024
 31
0.0
  0
LINE
  5
3C8
100
AcDbEntity
  8
0
  6
Continuous
 62
   174
100
AcDbLine
 10
261.979904
 20
151.223302
 30
0.0
 11
255.779904
 21
151.223302
 31
0.0
  0
LINE
  5
3C9
100
AcDbEntity
  8
0
  6
HIDDEN
 62
   174
100
AcDbLine
 10
235.879904
 20
188.607657
 30
0.0
 11
236.279962
 21
188.607657
 31
0.0
  0
ARC
  5
3CA
100
AcDbEntity
  8
0
  6
HIDDEN
 62
   174
100
AcDbCircle
 10
171.279904
 20
165.107657
 30
0.0
 40
3.0
100
AcDbArc
 50
-125.59101
 51
-116.311213
  0
LINE
  5
3CB
100
AcDbEntity
  8
0
  6
HIDDEN
 62
   174
100
AcDbLine
 10
74.779904
 20
185.61537
 30
0.0
 11
74.779904
 21
188.615107
 31
0.0
  0
LINE
  5
3CC
100
AcDbEntity
  8
0
  6
HIDDEN
 62
   174
100
AcDbLine
 10
33.079904
 20
176.185767
 30
0.0
 11
29.972725
 21
176.185767
 31
0.0
  0
LINE
  5
3CD
100
AcDbEntity
  8
0
  6
Continuous
 62
   174
100
AcDbLine
 10
29.945284
 20
189.558414
 30
0.0
 11
29.972725
 21
189.607208
 31
0.0
  0
LINE
  5
3CE
100
AcDbEntity
  8
0
  6
HIDDEN
 62
   174
100
AcDbLine
 10
48.779904
 20
183.39154
 30
0.0
 11
48.779904
 21
185.607657
 31
0.0
  0
LINE
  5
3CF
100
AcDbEntity
  8
0
  6
HIDDEN
 62
   174
100
AcDbLine
 10
92.000198
 20
172.557657
 30
0.0
 11
92.000198
 21
172.607657
 31
0.0
  0
ARC
  5
3D0
100
AcDbEntity
  8
0
  6
HIDDEN
 62
   174
100
AcDbCircle
 10
171.279904
 20
165.107657
 30
0.0
 40
5.0
100
AcDbArc
 50
0.0
 51
180.0
  0
ARC
  5
3D1
100
AcDbEntity
  8
0
  6
HIDDEN
 62
   174
100
AcDbCircle
 10
131.279904
 20
120.107657
 30
0.0
 40
3.0
100
AcDbArc
 50
-180.0
 51
-125.59101
  0
LINE
  5
3D2
100
AcDbEntity
  8
0
  6
HIDDEN
 62
   174
100
AcDbLine
 10
92.018291
 20
172.607657
 30
0.0
 11
89.797963
 21
172.607657
 31
0.0
  0
LINE
  5
3D3
100
AcDbEntity
  8
0
  6
HIDDEN
 62
   174
100
AcDbLine
 10
105.879904
 20
158.607657
 30
0.0
 11
105.879904
 21
172.607657
 31
0.0
  0
LINE
  5
3D4
100
AcDbEntity
  8
0
  6
HIDDEN
 62
   174
100
AcDbLine
 10
74.779904
 20
185.607657
 30
0.0
 11
51.779904
 21
185.607657
 31
0.0
  0
LINE
  5
3D5
100
AcDbEntity
  8
0
  6
Continuous
 62
   174
100
AcDbLine
 10
40.579904
 20
140.107657
 30
0.0
 11
46.779904
 21
140.107657
 31
0.0
  0
LINE
  5
3D6
100
AcDbEntity
  8
0
  6
Continuous
 62
   174
100
AcDbLine
 10
46.779904
 20
132.618308
 30
0.0
 11
46.779904
 21
132.935467
 31
0.0
  0
LINE
  5
3D7
100
AcDbEntity
  8
0
  6
HIDDEN
 62
   174
100
AcDbLine
 10
92.279904
 20
172.557657
 30
0.0
 11
92.279904
 21
172.607657
 31
0.0
  0
LINE
  5
3D8
100
AcDbEntity
  8
0
  6
HIDDEN
 62
   174
100
AcDbLine
 10
250.779904
 20
185.607657
 30
0.0
 11
227.779904
 21
185.607657
 31
0.0
  0
LWPOLYLINE
  5
3D9
100
AcDbEntity
  8
0
  6
HIDDEN
 62
   174
100
AcDbPolyline
 90
        4
 70
   128
 10
273.279904
 20
181.499269
 10
273.146784
 20
182.715984
 10
272.913698
 20
183.938148
 10
272.587084
 20
185.185317
  0
LINE
  5
3DA
100
AcDbEntity
  8
0
  6
HIDDEN
 62
   174
100
AcDbLine
 10
224.279904
 20
131.607657
 30
0.0
 11
224.279904
 21
159.607657
 31
0.0
  0
LINE
  5
3DB
100
AcDbEntity
  8
0
  6
HIDDEN
 62
   174
100
AcDbLine
 10
94.279904
 20
148.607657
 30
0.0
 11
94.229904
 21
148.607657
 31
0.0
  0
LWPOLYLINE
  5
3DC
100
AcDbEntity
  8
0
  6
HIDDEN
 62
   174
100
AcDbPolyline
 90
        7
 70
   128
 10
272.587084
 20
171.608107
 10
272.95321
 20
172.359797
 10
273.181308
 20
173.096844
 10
273.258212
 20
173.819092
 10
273.181294
 20
174.541331
 10
272.953193
 20
175.278351
 10
272.587084
 20
176.029998
  0
LWPOLYLINE
  5
3DD
100
AcDbEntity
  8
0
  6
Continuous
 62
   174
100
AcDbPolyline
 90
        4
 70
   128
 10
272.587084
 20
176.185767
 10
272.914984
 20
175.55936
 10
273.147739
 20
174.947947
 10
273.279904
 20
174.342743
  0
LINE
  5
3DE
100
AcDbEntity
  8
0
  6
HIDDEN
 62
   174
100
AcDbLine
 10
141.879904
 20
158.607657
 30
0.0
 11
141.879904
 21
172.607657
 31
0.0
  0
LINE
  5
3DF
100
AcDbEntity
  8
0
  6
Continuous
 62
   174
100
AcDbLine
 10
29.279904
 20
179.716046
 30
0.0
 11
29.279904
 21
181.499269
 31
0.0
  0
LINE
  5
3E0
100
AcDbEntity
  8
0
  6
HIDDEN
 62
   174
100
AcDbLine
 10
177.897966
 20
156.607657
 30
0.0
 11
196.698105
 21
156.607657
 31
0.0
  0
LINE
  5
3E1
100
AcDbEntity
  8
0
  6
Continuous
 62
   174
100
AcDbLine
 10
74.779904
 20
185.61537
 30
0.0
 11
74.779904
 21
188.615107
 31
0.0
  0
LINE
  5
3E2
100
AcDbEntity
  8
0
  6
Continuous
 62
   174
100
AcDbLine
 10
261.979904
 20
132.936529
 30
0.0
 11
261.979904
 21
134.00527
 31
0.0
  0
LINE
  5
3E3
100
AcDbEntity
  8
0
  6
Continuous
 62
   174
100
AcDbLine
 10
261.979904
 20
145.111024
 30
0.0
 11
255.779904
 21
145.111024
 31
0.0
  0
LINE
  5
3E4
100
AcDbEntity
  8
0
  6
Continuous
 62
   174
100
AcDbLine
 10
254.279904
 20
159.607657
 30
0.0
 11
224.279904
 21
159.607657
 31
0.0
  0
LINE
  5
3E5
100
AcDbEntity
  8
0
  6
HIDDEN
 62
   174
100
AcDbLine
 10
177.879904
 20
158.607657
 30
0.0
 11
177.879904
 21
172.607657
 31
0.0
  0
ARC
  5
3E6
100
AcDbEntity
  8
0
  6
Continuous
 62
   174
100
AcDbCircle
 10
74.779904
 20
185.607657
 30
0.0
 40
3.0
100
AcDbArc
 50
-324.0
 51
-288.0
  0
LINE
  5
3E7
100
AcDbEntity
  8
0
  6
Continuous
 62
   174
100
AcDbLine
 10
224.279904
 20
172.607657
 30
0.0
 11
208.279904
 21
172.607657
 31
0.0
  0
LINE
  5
3E8
100
AcDbEntity
  8
0
  6
Continuous
 62
   174
100
AcDbLine
 10
40.579904
 20
152.299398
 30
0.0
 11
40.579904
 21
151.231296
 31
0.0
  0
LINE
  5
3E9
100
AcDbEntity
  8
0
  6
Continuous
 62
   174
100
AcDbLine
 10
269.479904
 20
171.608107
 30
0.0
 11
272.587084
 21
171.608107
 31
0.0
  0
LINE
  5
3EA
100
AcDbEntity
  8
0
  6
Continuous
 62
   174
100
AcDbLine
 10
272.615891
 20
171.657557
 30
0.0
 11
272.587084
 21
171.608107
 31
0.0
  0
LINE
  5
3EB
100
AcDbEntity
  8
0
  6
HIDDEN
 62
   174
100
AcDbLine
 10
40.579904
 20
133.994705
 30
0.0
 11
46.779904
 21
133.994705
 31
0.0
  0
LINE
  5
3EC
100
AcDbEntity
  8
0
  6
HIDDEN
 62
   174
100
AcDbLine
 10
86.297951
 20
172.557657
 30
0.0
 11
92.298063
 21
172.557657
 31
0.0
  0
LINE
  5
3ED
100
AcDbEntity
  8
0
  6
Continuous
 62
   174
100
AcDbLine
 10
253.779904
 20
159.607657
 30
0.0
 11
253.779904
 21
177.823775
 31
0.0
  0
LINE
  5
3EE
100
AcDbEntity
  8
0
  6
HIDDEN
 62
   174
100
AcDbLine
 10
92.279904
 20
172.557657
 30
0.0
 11
92.279904
 21
172.607657
 31
0.0
  0
LINE
  5
3EF
100
AcDbEntity
  8
0
  6
Continuous
 62
   174
100
AcDbLine
 10
255.779904
 20
137.542245
 30
0.0
 11
255.779904
 21
134.00527
 31
0.0
  0
LINE
  5
3F0
100
AcDbEntity
  8
0
  6
HIDDEN
 62
   174
100
AcDbLine
 10
77.798163
 20
159.607657
 30
0.0
 11
74.798001
 21
159.607657
 31
0.0
  0
LINE
  5
3F1
100
AcDbEntity
  8
0
  6
HIDDEN
 62
   174
100
AcDbLine
 10
105.879904
 20
172.607657
 30
0.0
 11
105.879904
 21
156.607657
 31
0.0
  0
LINE
  5
3F2
100
AcDbEntity
  8
0
  6
HIDDEN
 62
   174
100
AcDbLine
 10
105.879904
 20
158.607657
 30
0.0
 11
105.879904
 21
172.607657
 31
0.0
  0
LINE
  5
3F3
100
AcDbEntity
  8
0
  6
HIDDEN
 62
   174
100
AcDbLine
 10
66.298001
 20
188.557657
 30
0.0
 11
61.320956
 21
188.557657
 31
0.0
  0
LINE
  5
3F4
100
AcDbEntity
  8
0
  6
Continuous
 62
   174
100
AcDbLine
 10
208.279904
 20
112.607657
 30
0.0
 11
94.279904
 21
112.607657
 31
0.0
  0
LINE
  5
3F5
100
AcDbEntity
  8
0
  6
Continuous
 62
   174
100
AcDbLine
 10
33.779904
 20
180.615595
 30
0.0
 11
33.779904
 21
187.3299
 31
0.0
  0
LINE
  5
3F6
100
AcDbEntity
  8
0
  6
Continuous
 62
   174
100
AcDbLine
 10
273.279904
 20
187.771756
 30
0.0
 11
273.279904
 21
188.41521
 31
0.0
  0
LINE
  5
3F7
100
AcDbEntity
  8
0
  6
Continuous
 62
   174
100
AcDbLine
 10
40.579904
 20
133.992939
 30
0.0
 11
46.779904
 21
133.992939
 31
0.0
  0
LINE
  5
3F8
100
AcDbEntity
  8
0
  6
Continuous
 62
   174
100
AcDbLine
 10
261.979904
 20
132.925746
 30
0.0
 11
255.779904
 21
132.925746
 31
0.0
  0
LINE
  5
3F9
100
AcDbEntity
  8
0
  6
HIDDEN
 62
   174
100
AcDbLine
 10
51.779904
 20
188.607657
 30
0.0
 11
59.879904
 21
188.607657
 31
0.0
  0
ARC
  5
3FA
100
AcDbEntity
  8
0
  6
HIDDEN
 62
   174
100
AcDbCircle
 10
131.279904
 20
120.107657
 30
0.0
 40
3.0
100
AcDbArc
 50
-54.40899
 51
0.0
  0
LINE
  5
3FB
100
AcDbEntity
  8
0
  6
HIDDEN
 62
   174
100
AcDbLine
 10
94.279904
 20
136.607657
 30
0.0
 11
94.229904
 21
136.607657
 31
0.0
  0
LINE
  5
3FC
100
AcDbEntity
  8
0
  6
HIDDEN
 62
   174
100
AcDbLine
 10
254.279904
 20
152.617195
 30
0.0
 11
254.279904
 21
142.617858
 31
0.0
  0
LINE
  5
3FD
100
AcDbEntity
  8
0
  6
HIDDEN
 62
   174
100
AcDbLine
 10
46.779904
 20
133.994705
 30
0.0
 11
46.779904
 21
137.531723
 31
0.0
  0
LWPOLYLINE
  5
3FE
100
AcDbEntity
  8
0
  6
HIDDEN
 62
   174
100
AcDbPolyline
 90
        4
 70
   128
 10
48.779904
 20
177.823775
 10
48.792464
 20
178.720477
 10
48.812869
 20
179.658631
 10
48.821864
 20
180.607657
  0
ARC
  5
3FF
100
AcDbEntity
  8
0
  6
HIDDEN
 62
   174
100
AcDbCircle
 10
171.279904
 20
165.107657
 30
0.0
 40
3.0
100
AcDbArc
 50
-116.311213
 51
-63.688787
  0
LINE
  5
400
100
AcDbEntity
  8
0
  6
HIDDEN
 62
   174
100
AcDbLine
 10
78.279904
 20
159.607657
 30
0.0
 11
78.279904
 21
131.607657
 31
0.0
  0
LINE
  5
401
100
AcDbEntity
  8
0
  6
Continuous
 62
   174
100
AcDbLine
 10
227.779904
 20
185.607657
 30
0.0
 11
250.779904
 21
185.607657
 31
0.0
  0
LINE
  5
402
100
AcDbEntity
  8
0
  6
Continuous
 62
   174
100
AcDbLine
 10
94.279904
 20
172.607657
 30
0.0
 11
94.279904
 21
112.607657
 31
0.0
  0
LINE
  5
403
100
AcDbEntity
  8
0
  6
Continuous
 62
   174
100
AcDbLine
 10
261.979904
 20
147.689252
 30
0.0
 11
255.779904
 21
147.689252
 31
0.0
  0
ARC
  5
404
100
AcDbEntity
  8
0
  6
Continuous
 62
   174
100
AcDbCircle
 10
171.279904
 20
142.607657
 30
0.0
 40
14.75
100
AcDbArc
 50
0.0
 51
180.0
  0
ENDBLK
  5
405
100
AcDbEntity
  8
0
100
AcDbBlockEnd
  0
BLOCK
  5
408
100
AcDbEntity
  8
0
100
AcDbBlockBegin
  2
*B5
 70
     0
 10
0.0
 20
0.0
 30
0.0
  3
*B5
  1

  0
LINE
  5
409
100
AcDbEntity
  8
0
  6
Continuous
 62
   172
100
AcDbLine
 10
73.806054
 20
137.422893
 30
0.0
 11
56.114605
 21
107.33794
 31
0.0
  0
LINE
  5
40A
100
AcDbEntity
  8
0
  6
Continuous
 62
   172
100
AcDbLine
 10
56.114605
 20
107.33794
 30
0.0
 11
47.706054
 21
107.33794
 31
0.0
  0
ENDBLK
  5
40B
100
AcDbEntity
  8
0
100
AcDbBlockEnd
  0
BLOCK
  5
40E
100
AcDbEntity
  8
0
100
AcDbBlockBegin
  2
*B6
 70
     0
 10
0.0
 20
0.0
 30
0.0
  3
*B6
  1

  0
LINE
  5
40F
100
AcDbEntity
  8
0
  6
Continuous
 62
   172
100
AcDbLine
 10
54.367449
 20
109.161498
 30
0.0
 11
52.567449
 21
109.822893
 31
0.0
  0
LINE
  5
410
100
AcDbEntity
  8
0
  6
Continuous
 62
   172
100
AcDbLine
 10
54.367449
 20
109.161498
 30
0.0
 11
52.567449
 21
108.622893
 31
0.0
  0
LINE
  5
411
100
AcDbEntity
  8
0
  6
Continuous
 62
   172
100
AcDbLine
 10
53.167449
 20
109.161498
 30
0.0
 11
54.367449
 21
109.161498
 31
0.0
  0
LINE
  5
412
100
AcDbEntity
  8
0
  6
Continuous
 62
   172
100
AcDbLine
 10
54.367449
 20
119.484288
 30
0.0
 11
52.567449
 21
118.822893
 31
0.0
  0
LINE
  5
413
100
AcDbEntity
  8
0
  6
Continuous
 62
   172
100
AcDbLine
 10
54.367449
 20
119.484288
 30
0.0
 11
52.567449
 21
120.022893
 31
0.0
  0
LINE
  5
414
100
AcDbEntity
  8
0
  6
Continuous
 62
   172
100
AcDbLine
 10
53.167449
 20
119.484288
 30
0.0
 11
54.367449
 21
119.484288
 31
0.0
  0
ARC
  5
415
100
AcDbEntity
  8
0
  6
Continuous
 62
   172
100
AcDbCircle
 10
53.167449
 20
114.322893
 30
0.0
 40
5.161395
100
AcDbArc
 50
-270.0
 51
-90.0
  0
ENDBLK
  5
416
100
AcDbEntity
  8
0
100
AcDbBlockEnd
  0
BLOCK
  5
419
100
AcDbEntity
  8
0
100
AcDbBlockBegin
  2
*B7
 70
     0
 10
0.0
 20
0.0
 30
0.0
  3
*B7
  1

  0
ENDBLK
  5
41A
100
AcDbEntity
  8
0
100
AcDbBlockEnd
  0
BLOCK
  5
41C
100
AcDbEntity
  8
0
100
AcDbBlockBegin
  2
*B8
 70
     0
 10
0.0
 20
0.0
 30
0.0
  3
*B8
  1

  0
LINE
  5
41D
100
AcDbEntity
  8
0
  6
Continuous
 62
     0
100
AcDbLine
 10
219.018013
 20
165.11642
 30
0.0
 11
219.018013
 21
120.119083
 31
0.0
  0
SOLID
  5
41E
100
AcDbEntity
  8
0
  6
Continuous
 62
     0
100
AcDbTrace
 10
219.61813
 20
161.61662
 30
0.0
 11
219.018013
 21
165.11642
 31
0.0
 12
218.418108
 22
161.61662
 32
0.0
 13
218.418108
 23
161.61662
 33
0.0
  0
SOLID
  5
41F
100
AcDbEntity
  8
0
  6
Continuous
 62
     0
100
AcDbTrace
 10
218.418108
 20
123.618883
 30
0.0
 11
219.018013
 21
120.119083
 31
0.0
 12
219.61813
 22
123.618883
 32
0.0
 13
219.61813
 23
123.618883
 33
0.0
  0
ENDBLK
  5
420
100
AcDbEntity
  8
0
100
AcDbBlockEnd
  0
BLOCK
  5
423
100
AcDbEntity
  8
0
100
AcDbBlockBegin
  2
*B9
 70
     0
 10
0.0
 20
0.0
 30
0.0
  3
*B9
  1

  0
LINE
  5
424
100
AcDbEntity
  8
0
  6
Continuous
 62
     0
100
AcDbLine
 10
151.297999
 20
85.013381
 30
0.0
 11
187.298035
 21
85.013381
 31
0.0
  0
SOLID
  5
425
100
AcDbEntity
  8
0
  6
Continuous
 62
     0
100
AcDbTrace
 10
154.798011
 20
85.613286
 30
0.0
 11
151.297999
 21
85.013381
 31
0.0
 12
154.798011
 22
84.413476
 32
0.0
 13
154.798011
 23
84.413476
 33
0.0
  0
SOLID
  5
426
100
AcDbEntity
  8
0
  6
Continuous
 62
     0
100
AcDbTrace
 10
183.798023
 20
84.413476
 30
0.0
 11
187.298035
 21
85.013381
 31
0.0
 12
183.798023
 22
85.613286
 32
0.0
 13
183.798023
 23
85.613286
 33
0.0
  0
ENDBLK
  5
427
100
AcDbEntity
  8
0
100
AcDbBlockEnd
  0
BLOCK
  5
42A
100
AcDbEntity
  8
0
100
AcDbBlockBegin
  2
*B10
 70
     0
 10
0.0
 20
0.0
 30
0.0
  3
*B10
  1

  0
LINE
  5
42B
100
AcDbEntity
  8
0
  6
Continuous
 62
     0
100
AcDbLine
 10
115.297962
 20
85.013381
 30
0.0
 11
151.297999
 21
85.013381
 31
0.0
  0
SOLID
  5
42C
100
AcDbEntity
  8
0
  6
Continuous
 62
     0
100
AcDbTrace
 10
118.797975
 20
85.613286
 30
0.0
 11
115.297962
 21
85.013381
 31
0.0
 12
118.797975
 22
84.413476
 32
0.0
 13
118.797975
 23
84.413476
 33
0.0
  0
SOLID
  5
42D
100
AcDbEntity
  8
0
  6
Continuous
 62
     0
100
AcDbTrace
 10
147.797987
 20
84.413476
 30
0.0
 11
151.297999
 21
85.013381
 31
0.0
 12
147.797987
 22
85.613286
 32
0.0
 13
147.797987
 23
85.613286
 33
0.0
  0
ENDBLK
  5
42E
100
AcDbEntity
  8
0
100
AcDbBlockEnd
  0
BLOCK
  5
431
100
AcDbEntity
  8
0
100
AcDbBlockBegin
  2
*B11
 70
     0
 10
0.0
 20
0.0
 30
0.0
  3
*B11
  1

  0
LINE
  5
432
100
AcDbEntity
  8
0
  6
Continuous
 62
     0
100
AcDbLine
 10
219.018013
 20
47.709231
 30
0.0
 11
219.018013
 21
25.710518
 31
0.0
  0
SOLID
  5
433
100
AcDbEntity
  8
0
  6
Continuous
 62
     0
100
AcDbTrace
 10
218.418108
 20
44.209431
 30
0.0
 11
219.018013
 21
40.709631
 31
0.0
 12
219.61813
 22
44.209431
 32
0.0
 13
219.61813
 23
44.209431
 33
0.0
  0
SOLID
  5
434
100
AcDbEntity
  8
0
  6
Continuous
 62
     0
100
AcDbTrace
 10
219.61813
 20
29.210318
 30
0.0
 11
219.018013
 21
32.710118
 31
0.0
 12
218.418108
 22
29.210318
 32
0.0
 13
218.418108
 23
29.210318
 33
0.0
  0
ENDBLK
  5
435
100
AcDbEntity
  8
0
100
AcDbBlockEnd
  0
BLOCK
  5
438
100
AcDbEntity
  8
0
100
AcDbBlockBegin
  2
*B12
 70
     0
 10
0.0
 20
0.0
 30
0.0
  3
*B12
  1

  0
LINE
  5
439
100
AcDbEntity
  8
0
  6
Continuous
 62
     0
100
AcDbLine
 10
167.698093
 20
184.007905
 30
0.0
 11
134.898117
 21
184.007905
 31
0.0
  0
SOLID
  5
43A
100
AcDbEntity
  8
0
  6
Continuous
 62
     0
100
AcDbTrace
 10
164.198081
 20
184.60781
 30
0.0
 11
160.698069
 21
184.007905
 31
0.0
 12
164.198081
 22
183.407787
 32
0.0
 13
164.198081
 23
183.407787
 33
0.0
  0
SOLID
  5
43B
100
AcDbEntity
  8
0
  6
Continuous
 62
     0
100
AcDbTrace
 10
138.398129
 20
183.407787
 30
0.0
 11
141.897929
 21
184.007905
 31
0.0
 12
138.398129
 22
184.60781
 32
0.0
 13
138.398129
 23
184.60781
 33
0.0
  0
ENDBLK
  5
43C
100
AcDbEntity
  8
0
100
AcDbBlockEnd
  0
BLOCK
  5
43F
100
AcDbEntity
  8
0
100
AcDbBlockBegin
  2
*B13
 70
     0
 10
0.0
 20
0.0
 30
0.0
  3
*B13
  1

  0
LINE
  5
440
100
AcDbEntity
  8
0
  6
Continuous
 62
     0
100
AcDbLine
 10
224.297984
 20
198.007105
 30
0.0
 11
78.298013
 21
198.007105
 31
0.0
  0
SOLID
  5
441
100
AcDbEntity
  8
0
  6
Continuous
 62
     0
100
AcDbTrace
 10
220.797972
 20
197.406987
 30
0.0
 11
224.297984
 21
198.007105
 31
0.0
 12
220.797972
 22
198.60701
 32
0.0
 13
220.797972
 23
198.60701
 33
0.0
  0
SOLID
  5
442
100
AcDbEntity
  8
0
  6
Continuous
 62
     0
100
AcDbTrace
 10
81.798026
 20
198.60701
 30
0.0
 11
78.298013
 21
198.007105
 31
0.0
 12
81.798026
 22
197.406987
 32
0.0
 13
81.798026
 23
197.406987
 33
0.0
  0
ENDBLK
  5
443
100
AcDbEntity
  8
0
100
AcDbBlockEnd
  0
BLOCK
  5
446
100
AcDbEntity
  8
0
100
AcDbBlockBegin
  2
*B14
 70
     0
 10
0.0
 20
0.0
 30
0.0
  3
*B14
  1

  0
LINE
  5
447
100
AcDbEntity
  8
0
  6
Continuous
 62
     0
100
AcDbLine
 10
78.298013
 20
198.007105
 30
0.0
 11
29.298052
 21
198.007105
 31
0.0
  0
SOLID
  5
448
100
AcDbEntity
  8
0
  6
Continuous
 62
     0
100
AcDbTrace
 10
74.798001
 20
197.406987
 30
0.0
 11
78.298013
 21
198.007105
 31
0.0
 12
74.798001
 22
198.60701
 32
0.0
 13
74.798001
 23
198.60701
 33
0.0
  0
SOLID
  5
449
100
AcDbEntity
  8
0
  6
Continuous
 62
     0
100
AcDbTrace
 10
32.798065
 20
198.60701
 30
0.0
 11
29.298052
 21
198.007105
 31
0.0
 12
32.798065
 22
197.406987
 32
0.0
 13
32.798065
 23
197.406987
 33
0.0
  0
ENDBLK
  5
44A
100
AcDbEntity
  8
0
100
AcDbBlockEnd
  0
BLOCK
  5
44D
100
AcDbEntity
  8
0
100
AcDbBlockBegin
  2
*B15
 70
     0
 10
0.0
 20
0.0
 30
0.0
  3
*B15
  1

  0
LINE
  5
44E
100
AcDbEntity
  8
0
  6
Continuous
 62
     0
100
AcDbLine
 10
224.297984
 20
198.007105
 30
0.0
 11
273.297945
 21
198.007105
 31
0.0
  0
SOLID
  5
44F
100
AcDbEntity
  8
0
  6
Continuous
 62
     0
100
AcDbTrace
 10
227.797997
 20
198.60701
 30
0.0
 11
224.297984
 21
198.007105
 31
0.0
 12
227.797997
 22
197.406987
 32
0.0
 13
227.797997
 23
197.406987
 33
0.0
  0
SOLID
  5
450
100
AcDbEntity
  8
0
  6
Continuous
 62
     0
100
AcDbTrace
 10
269.797933
 20
197.406987
 30
0.0
 11
273.297945
 21
198.007105
 31
0.0
 12
269.797933
 22
198.60701
 32
0.0
 13
269.797933
 23
198.60701
 33
0.0
  0
ENDBLK
  5
451
100
AcDbEntity
  8
0
100
AcDbBlockEnd
  0
BLOCK
  5
454
100
AcDbEntity
  8
0
100
AcDbBlockBegin
  2
*B16
 70
     0
 10
0.0
 20
0.0
 30
0.0
  3
*B16
  1

  0
LINE
  5
455
100
AcDbEntity
  8
0
  6
Continuous
 62
     0
100
AcDbLine
 10
20.018219
 20
189.614595
 30
0.0
 11
20.018219
 21
112.619421
 31
0.0
  0
SOLID
  5
456
100
AcDbEntity
  8
0
  6
Continuous
 62
     0
100
AcDbTrace
 10
20.618124
 20
186.115007
 30
0.0
 11
20.018219
 21
189.614595
 31
0.0
 12
19.418101
 22
186.115007
 32
0.0
 13
19.418101
 23
186.115007
 33
0.0
  0
SOLID
  5
457
100
AcDbEntity
  8
0
  6
Continuous
 62
     0
100
AcDbTrace
 10
19.418101
 20
116.11922
 30
0.0
 11
20.018219
 21
112.619421
 31
0.0
 12
20.618124
 22
116.11922
 32
0.0
 13
20.618124
 23
116.11922
 33
0.0
  0
ENDBLK
  5
458
100
AcDbEntity
  8
0
100
AcDbBlockEnd
  0
BLOCK
  5
45B
100
AcDbEntity
  8
0
100
AcDbBlockBegin
  2
*B17
 70
     0
 10
0.0
 20
0.0
 30
0.0
  3
*B17
  1

  0
LINE
  5
45C
100
AcDbEntity
  8
0
  6
Continuous
 62
     0
100
AcDbLine
 10
21.018131
 20
70.708068
 30
0.0
 11
21.018131
 21
40.709631
 31
0.0
  0
SOLID
  5
45D
100
AcDbEntity
  8
0
  6
Continuous
 62
     0
100
AcDbTrace
 10
21.618248
 20
67.208268
 30
0.0
 11
21.018131
 21
70.708068
 31
0.0
 12
20.418226
 22
67.208268
 32
0.0
 13
20.418226
 23
67.208268
 33
0.0
  0
SOLID
  5
45E
100
AcDbEntity
  8
0
  6
Continuous
 62
     0
100
AcDbTrace
 10
20.418226
 20
44.209431
 30
0.0
 11
21.018131
 21
40.709631
 31
0.0
 12
21.618248
 22
44.209431
 32
0.0
 13
21.618248
 23
44.209431
 33
0.0
  0
ENDBLK
  5
45F
100
AcDbEntity
  8
0
100
AcDbBlockEnd
  0
BLOCK
  5
462
100
AcDbEntity
  8
0
100
AcDbBlockBegin
  2
*B18
 70
     0
 10
0.0
 20
0.0
 30
0.0
  3
*B18
  1

  0
LINE
  5
463
100
AcDbEntity
  8
0
  6
Continuous
 62
     0
100
AcDbLine
 10
208.297897
 20
98.012668
 30
0.0
 11
171.297948
 21
98.012668
 31
0.0
  0
SOLID
  5
464
100
AcDbEntity
  8
0
  6
Continuous
 62
     0
100
AcDbTrace
 10
204.798097
 20
97.412763
 30
0.0
 11
208.297897
 21
98.012668
 31
0.0
 12
204.798097
 22
98.612573
 32
0.0
 13
204.798097
 23
98.612573
 33
0.0
  0
SOLID
  5
465
100
AcDbEntity
  8
0
  6
Continuous
 62
     0
100
AcDbTrace
 10
174.797961
 20
98.612573
 30
0.0
 11
171.297948
 21
98.012668
 31
0.0
 12
174.797961
 22
97.412763
 32
0.0
 13
174.797961
 23
97.412763
 33
0.0
  0
ENDBLK
  5
466
100
AcDbEntity
  8
0
100
AcDbBlockEnd
  0
BLOCK
  5
469
100
AcDbEntity
  8
0
100
AcDbBlockBegin
  2
*B19
 70
     0
 10
0.0
 20
0.0
 30
0.0
  3
*B19
  1

  0
LINE
  5
46A
100
AcDbEntity
  8
0
  6
Continuous
 62
     0
100
AcDbLine
 10
131.298049
 20
98.012668
 30
0.0
 11
171.297948
 21
98.012668
 31
0.0
  0
SOLID
  5
46B
100
AcDbEntity
  8
0
  6
Continuous
 62
     0
100
AcDbTrace
 10
134.798062
 20
98.612573
 30
0.0
 11
131.298049
 21
98.012668
 31
0.0
 12
134.798062
 22
97.412763
 32
0.0
 13
134.798062
 23
97.412763
 33
0.0
  0
SOLID
  5
46C
100
AcDbEntity
  8
0
  6
Continuous
 62
     0
100
AcDbTrace
 10
167.797936
 20
97.412763
 30
0.0
 11
171.297948
 21
98.012668
 31
0.0
 12
167.797936
 22
98.612573
 32
0.0
 13
167.797936
 23
98.612573
 33
0.0
  0
ENDBLK
  5
46D
100
AcDbEntity
  8
0
100
AcDbBlockEnd
  0
BLOCK
  5
470
100
AcDbEntity
  8
0
100
AcDbBlockBegin
  2
*B20
 70
     0
 10
0.0
 20
0.0
 30
0.0
  3
*B20
  1

  0
LINE
  5
471
100
AcDbEntity
  8
0
  6
Continuous
 62
     0
100
AcDbLine
 10
94.2981
 20
98.012668
 30
0.0
 11
131.298049
 21
98.012668
 31
0.0
  0
SOLID
  5
472
100
AcDbEntity
  8
0
  6
Continuous
 62
     0
100
AcDbTrace
 10
97.798113
 20
98.612573
 30
0.0
 11
94.2981
 21
98.012668
 31
0.0
 12
97.798113
 22
97.412763
 32
0.0
 13
97.798113
 23
97.412763
 33
0.0
  0
SOLID
  5
473
100
AcDbEntity
  8
0
  6
Continuous
 62
     0
100
AcDbTrace
 10
127.798037
 20
97.412763
 30
0.0
 11
131.298049
 21
98.012668
 31
0.0
 12
127.798037
 22
98.612573
 32
0.0
 13
127.798037
 23
98.612573
 33
0.0
  0
ENDBLK
  5
474
100
AcDbEntity
  8
0
100
AcDbBlockEnd
  0
BLOCK
  5
477
100
AcDbEntity
  8
0
100
AcDbBlockBegin
  2
*B21
 70
     0
 10
0.0
 20
0.0
 30
0.0
  3
*B21
  1

  0
LINE
  5
478
100
AcDbEntity
  8
0
  6
Continuous
 62
     0
100
AcDbLine
 10
186.286014
 20
22.016981
 30
0.0
 11
161.297974
 21
22.016981
 31
0.0
  0
SOLID
  5
479
100
AcDbEntity
  8
0
  6
Continuous
 62
     0
100
AcDbTrace
 10
177.797911
 20
22.616886
 30
0.0
 11
174.298111
 21
22.016981
 31
0.0
 12
177.797911
 22
21.417076
 32
0.0
 13
177.797911
 23
21.417076
 33
0.0
  0
SOLID
  5
47A
100
AcDbEntity
  8
0
  6
Continuous
 62
     0
100
AcDbTrace
 10
164.797986
 20
21.417076
 30
0.0
 11
168.297998
 21
22.016981
 31
0.0
 12
164.797986
 22
22.616886
 32
0.0
 13
164.797986
 23
22.616886
 33
0.0
  0
ENDBLK
  5
47B
100
AcDbEntity
  8
0
100
AcDbBlockEnd
  0
BLOCK
  5
47E
100
AcDbEntity
  8
0
100
AcDbBlockBegin
  2
*B22
 70
     0
 10
0.0
 20
0.0
 30
0.0
  3
*B22
  1

  0
LINE
  5
47F
100
AcDbEntity
  8
0
  6
Continuous
 62
     0
100
AcDbLine
 10
94.2981
 20
85.013381
 30
0.0
 11
115.297962
 21
85.013381
 31
0.0
  0
SOLID
  5
480
100
AcDbEntity
  8
0
  6
Continuous
 62
     0
100
AcDbTrace
 10
97.798113
 20
85.613286
 30
0.0
 11
94.2981
 21
85.013381
 31
0.0
 12
97.798113
 22
84.413476
 32
0.0
 13
97.798113
 23
84.413476
 33
0.0
  0
SOLID
  5
481
100
AcDbEntity
  8
0
  6
Continuous
 62
     0
100
AcDbTrace
 10
111.79795
 20
84.413476
 30
0.0
 11
115.297962
 21
85.013381
 31
0.0
 12
111.79795
 22
85.613286
 32
0.0
 13
111.79795
 23
85.613286
 33
0.0
  0
ENDBLK
  5
482
100
AcDbEntity
  8
0
100
AcDbBlockEnd
  0
BLOCK
  5
485
100
AcDbEntity
  8
0
100
AcDbBlockBegin
  2
*B23
 70
     0
 10
0.0
 20
0.0
 30
0.0
  3
*B23
  1

  0
LINE
  5
486
100
AcDbEntity
  8
0
  6
Continuous
 62
     0
100
AcDbLine
 10
241.018
 20
112.619421
 30
0.0
 11
241.018
 21
172.616082
 31
0.0
  0
SOLID
  5
487
100
AcDbEntity
  8
0
  6
Continuous
 62
     0
100
AcDbTrace
 10
240.418095
 20
116.11922
 30
0.0
 11
241.018
 21
112.619421
 31
0.0
 12
241.618117
 22
116.11922
 32
0.0
 13
241.618117
 23
116.11922
 33
0.0
  0
SOLID
  5
488
100
AcDbEntity
  8
0
  6
Continuous
 62
     0
100
AcDbTrace
 10
241.618117
 20
169.116282
 30
0.0
 11
241.018
 21
172.616082
 31
0.0
 12
240.418095
 22
169.116282
 32
0.0
 13
240.418095
 23
169.116282
 33
0.0
  0
ENDBLK
  5
489
100
AcDbEntity
  8
0
100
AcDbBlockEnd
  0
BLOCK
  5
48C
100
AcDbEntity
  8
0
100
AcDbBlockBegin
  2
*B24
 70
     0
 10
0.0
 20
0.0
 30
0.0
  3
*B24
  1

  0
LINE
  5
48D
100
AcDbEntity
  8
0
  6
Continuous
 62
     0
100
AcDbLine
 10
187.298035
 20
85.013381
 30
0.0
 11
208.297897
 21
85.013381
 31
0.0
  0
SOLID
  5
48E
100
AcDbEntity
  8
0
  6
Continuous
 62
     0
100
AcDbTrace
 10
190.798048
 20
85.613286
 30
0.0
 11
187.298035
 21
85.013381
 31
0.0
 12
190.798048
 22
84.413476
 32
0.0
 13
190.798048
 23
84.413476
 33
0.0
  0
SOLID
  5
48F
100
AcDbEntity
  8
0
  6
Continuous
 62
     0
100
AcDbTrace
 10
204.798097
 20
84.413476
 30
0.0
 11
208.297897
 21
85.013381
 31
0.0
 12
204.798097
 22
85.613286
 32
0.0
 13
204.798097
 23
85.613286
 33
0.0
  0
ENDBLK
  5
490
100
AcDbEntity
  8
0
100
AcDbBlockEnd
  0
BLOCK
  5
493
100
AcDbEntity
  8
0
100
AcDbBlockBegin
  2
*B25
 70
     0
 10
0.0
 20
0.0
 30
0.0
  3
*B25
  1

  0
LINE
  5
494
100
AcDbEntity
  8
0
  6
Continuous
 62
     8
100
AcDbLine
 10
78.298013
 20
173.615995
 30
0.0
 11
78.298013
 21
200.00693
 31
0.0
  0
ENDBLK
  5
495
100
AcDbEntity
  8
0
100
AcDbBlockEnd
  0
BLOCK
  5
498
100
AcDbEntity
  8
0
100
AcDbBlockBegin
  2
*B26
 70
     0
 10
0.0
 20
0.0
 30
0.0
  3
*B26
  1

  0
LINE
  5
499
100
AcDbEntity
  8
0
  6
Continuous
 62
     8
100
AcDbLine
 10
239.297946
 20
49.309261
 30
0.0
 11
239.297946
 21
54.208981
 31
0.0
  0
LINE
  5
49A
100
AcDbEntity
  8
0
  6
Continuous
 62
     8
100
AcDbLine
 10
239.297946
 20
57.208718
 30
0.0
 11
239.297946
 21
62.108438
 31
0.0
  0
ENDBLK
  5
49B
100
AcDbEntity
  8
0
100
AcDbBlockEnd
  0
BLOCK
  5
49E
100
AcDbEntity
  8
0
100
AcDbBlockBegin
  2
*B27
 70
     0
 10
0.0
 20
0.0
 30
0.0
  3
*B27
  1

  0
LINE
  5
49F
100
AcDbEntity
  8
0
  6
Continuous
 62
     8
100
AcDbLine
 10
168.297998
 20
20.017156
 30
0.0
 11
168.297998
 21
31.710206
 31
0.0
  0
ENDBLK
  5
4A0
100
AcDbEntity
  8
0
100
AcDbBlockEnd
  0
BLOCK
  5
4A3
100
AcDbEntity
  8
0
100
AcDbBlockBegin
  2
*B28
 70
     0
 10
0.0
 20
0.0
 30
0.0
  3
*B28
  1

  0
LINE
  5
4A4
100
AcDbEntity
  8
0
  6
Continuous
 62
     8
100
AcDbLine
 10
208.297897
 20
71.70798
 30
0.0
 11
208.297897
 21
87.013206
 31
0.0
  0
ENDBLK
  5
4A5
100
AcDbEntity
  8
0
100
AcDbBlockEnd
  0
BLOCK
  5
4A8
100
AcDbEntity
  8
0
100
AcDbBlockBegin
  2
*B29
 70
     0
 10
0.0
 20
0.0
 30
0.0
  3
*B29
  1

  0
LINE
  5
4A9
100
AcDbEntity
  8
0
  6
Continuous
 62
     8
100
AcDbLine
 10
208.297897
 20
96.012843
 30
0.0
 11
208.297897
 21
111.619508
 31
0.0
  0
ENDBLK
  5
4AA
100
AcDbEntity
  8
0
100
AcDbBlockEnd
  0
BLOCK
  5
4AD
100
AcDbEntity
  8
0
100
AcDbBlockBegin
  2
*B30
 70
     0
 10
0.0
 20
0.0
 30
0.0
  3
*B30
  1

  0
LINE
  5
4AE
100
AcDbEntity
  8
0
  6
Continuous
 62
     8
100
AcDbLine
 10
217.018188
 20
120.119083
 30
0.0
 11
221.01805
 21
120.119083
 31
0.0
  0
LINE
  5
4AF
100
AcDbEntity
  8
0
  6
Continuous
 62
     8
100
AcDbLine
 10
123.298112
 20
120.119083
 30
0.0
 11
129.798074
 21
120.119083
 31
0.0
  0
LINE
  5
4B0
100
AcDbEntity
  8
0
  6
Continuous
 62
     8
100
AcDbLine
 10
132.798024
 20
120.119083
 30
0.0
 11
139.798049
 21
120.119083
 31
0.0
  0
LINE
  5
4B1
100
AcDbEntity
  8
0
  6
Continuous
 62
     8
100
AcDbLine
 10
140.797962
 20
120.119083
 30
0.0
 11
141.798087
 21
120.119083
 31
0.0
  0
LINE
  5
4B2
100
AcDbEntity
  8
0
  6
Continuous
 62
     8
100
AcDbLine
 10
142.797999
 20
120.119083
 30
0.0
 11
149.798024
 21
120.119083
 31
0.0
  0
LINE
  5
4B3
100
AcDbEntity
  8
0
  6
Continuous
 62
     8
100
AcDbLine
 10
152.797974
 20
120.119083
 30
0.0
 11
158.200518
 21
120.119083
 31
0.0
  0
LINE
  5
4B4
100
AcDbEntity
  8
0
  6
Continuous
 62
     8
100
AcDbLine
 10
159.20043
 20
120.119083
 30
0.0
 11
160.200555
 21
120.119083
 31
0.0
  0
LINE
  5
4B5
100
AcDbEntity
  8
0
  6
Continuous
 62
     8
100
AcDbLine
 10
161.200468
 20
120.119083
 30
0.0
 11
166.603012
 21
120.119083
 31
0.0
  0
LINE
  5
4B6
100
AcDbEntity
  8
0
  6
Continuous
 62
     8
100
AcDbLine
 10
167.603137
 20
120.119083
 30
0.0
 11
168.603049
 21
120.119083
 31
0.0
  0
LINE
  5
4B7
100
AcDbEntity
  8
0
  6
Continuous
 62
     8
100
AcDbLine
 10
169.602962
 20
120.119083
 30
0.0
 11
175.005506
 21
120.119083
 31
0.0
  0
LINE
  5
4B8
100
AcDbEntity
  8
0
  6
Continuous
 62
     8
100
AcDbLine
 10
176.005631
 20
120.119083
 30
0.0
 11
177.005543
 21
120.119083
 31
0.0
  0
LINE
  5
4B9
100
AcDbEntity
  8
0
  6
Continuous
 62
     8
100
AcDbLine
 10
178.005456
 20
120.119083
 30
0.0
 11
183.408
 21
120.119083
 31
0.0
  0
LINE
  5
4BA
100
AcDbEntity
  8
0
  6
Continuous
 62
     8
100
AcDbLine
 10
184.408125
 20
120.119083
 30
0.0
 11
185.408037
 21
120.119083
 31
0.0
  0
LINE
  5
4BB
100
AcDbEntity
  8
0
  6
Continuous
 62
     8
100
AcDbLine
 10
186.408162
 20
120.119083
 30
0.0
 11
191.810494
 21
120.119083
 31
0.0
  0
LINE
  5
4BC
100
AcDbEntity
  8
0
  6
Continuous
 62
     8
100
AcDbLine
 10
192.810619
 20
120.119083
 30
0.0
 11
193.810531
 21
120.119083
 31
0.0
  0
LINE
  5
4BD
100
AcDbEntity
  8
0
  6
Continuous
 62
     8
100
AcDbLine
 10
194.810656
 20
120.119083
 30
0.0
 11
200.212988
 21
120.119083
 31
0.0
  0
LINE
  5
4BE
100
AcDbEntity
  8
0
  6
Continuous
 62
     8
100
AcDbLine
 10
201.213113
 20
120.119083
 30
0.0
 11
202.213025
 21
120.119083
 31
0.0
  0
LINE
  5
4BF
100
AcDbEntity
  8
0
  6
Continuous
 62
     8
100
AcDbLine
 10
203.21315
 20
120.119083
 30
0.0
 11
208.615694
 21
120.119083
 31
0.0
  0
LINE
  5
4C0
100
AcDbEntity
  8
0
  6
Continuous
 62
     8
100
AcDbLine
 10
209.615607
 20
120.119083
 30
0.0
 11
210.615519
 21
120.119083
 31
0.0
  0
LINE
  5
4C1
100
AcDbEntity
  8
0
  6
Continuous
 62
     8
100
AcDbLine
 10
211.615644
 20
120.119083
 30
0.0
 11
217.018188
 21
120.119083
 31
0.0
  0
ENDBLK
  5
4C2
100
AcDbEntity
  8
0
100
AcDbBlockEnd
  0
BLOCK
  5
4C5
100
AcDbEntity
  8
0
100
AcDbBlockBegin
  2
*B31
 70
     0
 10
0.0
 20
0.0
 30
0.0
  3
*B31
  1

  0
LINE
  5
4C6
100
AcDbEntity
  8
0
  6
Continuous
 62
     8
100
AcDbLine
 10
26.298102
 20
180.615595
 30
0.0
 11
31.172968
 21
180.615595
 31
0.0
  0
LINE
  5
4C7
100
AcDbEntity
  8
0
  6
Continuous
 62
     8
100
AcDbLine
 10
32.173093
 20
180.615595
 30
0.0
 11
33.173005
 21
180.615595
 31
0.0
  0
LINE
  5
4C8
100
AcDbEntity
  8
0
  6
Continuous
 62
     8
100
AcDbLine
 10
34.17313
 20
180.615595
 30
0.0
 11
39.047996
 21
180.615595
 31
0.0
  0
LINE
  5
4C9
100
AcDbEntity
  8
0
  6
Continuous
 62
     8
100
AcDbLine
 10
40.048121
 20
180.615595
 30
0.0
 11
41.048033
 21
180.615595
 31
0.0
  0
LINE
  5
4CA
100
AcDbEntity
  8
0
  6
Continuous
 62
     8
100
AcDbLine
 10
42.048158
 20
180.615595
 30
0.0
 11
46.923024
 21
180.615595
 31
0.0
  0
LINE
  5
4CB
100
AcDbEntity
  8
0
  6
Continuous
 62
     8
100
AcDbLine
 10
47.923149
 20
180.615595
 30
0.0
 11
48.923061
 21
180.615595
 31
0.0
  0
LINE
  5
4CC
100
AcDbEntity
  8
0
  6
Continuous
 62
     8
100
AcDbLine
 10
49.922974
 20
180.615595
 30
0.0
 11
54.798052
 21
180.615595
 31
0.0
  0
ENDBLK
  5
4CD
100
AcDbEntity
  8
0
100
AcDbBlockEnd
  0
BLOCK
  5
4D0
100
AcDbEntity
  8
0
100
AcDbBlockBegin
  2
*B32
 70
     0
 10
0.0
 20
0.0
 30
0.0
  3
*B32
  1

  0
LINE
  5
4D1
100
AcDbEntity
  8
0
  6
Continuous
 62
     8
100
AcDbLine
 10
247.797946
 20
180.615595
 30
0.0
 11
252.673024
 21
180.615595
 31
0.0
  0
LINE
  5
4D2
100
AcDbEntity
  8
0
  6
Continuous
 62
     8
100
AcDbLine
 10
253.672937
 20
180.615595
 30
0.0
 11
254.673062
 21
180.615595
 31
0.0
  0
LINE
  5
4D3
100
AcDbEntity
  8
0
  6
Continuous
 62
     8
100
AcDbLine
 10
255.672974
 20
180.615595
 30
0.0
 11
260.548052
 21
180.615595
 31
0.0
  0
LINE
  5
4D4
100
AcDbEntity
  8
0
  6
Continuous
 62
     8
100
AcDbLine
 10
261.547965
 20
180.615595
 30
0.0
 11
262.54809
 21
180.615595
 31
0.0
  0
LINE
  5
4D5
100
AcDbEntity
  8
0
  6
Continuous
 62
     8
100
AcDbLine
 10
263.548002
 20
180.615595
 30
0.0
 11
268.42308
 21
180.615595
 31
0.0
  0
LINE
  5
4D6
100
AcDbEntity
  8
0
  6
Continuous
 62
     8
100
AcDbLine
 10
269.422992
 20
180.615595
 30
0.0
 11
270.422905
 21
180.615595
 31
0.0
  0
LINE
  5
4D7
100
AcDbEntity
  8
0
  6
Continuous
 62
     8
100
AcDbLine
 10
271.42303
 20
180.615595
 30
0.0
 11
276.297895
 21
180.615595
 31
0.0
  0
ENDBLK
  5
4D8
100
AcDbEntity
  8
0
100
AcDbBlockEnd
  0
BLOCK
  5
4DB
100
AcDbEntity
  8
0
100
AcDbBlockBegin
  2
*B33
 70
     0
 10
0.0
 20
0.0
 30
0.0
  3
*B33
  1

  0
LINE
  5
4DC
100
AcDbEntity
  8
0
  6
Continuous
 62
     8
100
AcDbLine
 10
187.298035
 20
153.617108
 30
0.0
 11
187.298035
 21
158.950187
 31
0.0
  0
LINE
  5
4DD
100
AcDbEntity
  8
0
  6
Continuous
 62
     8
100
AcDbLine
 10
187.298035
 20
159.950099
 30
0.0
 11
187.298035
 21
160.950012
 31
0.0
  0
LINE
  5
4DE
100
AcDbEntity
  8
0
  6
Continuous
 62
     8
100
AcDbLine
 10
187.298035
 20
161.950137
 30
0.0
 11
187.298035
 21
167.283003
 31
0.0
  0
LINE
  5
4DF
100
AcDbEntity
  8
0
  6
Continuous
 62
     8
100
AcDbLine
 10
187.298035
 20
168.283128
 30
0.0
 11
187.298035
 21
169.283041
 31
0.0
  0
LINE
  5
4E0
100
AcDbEntity
  8
0
  6
Continuous
 62
     8
100
AcDbLine
 10
187.298035
 20
170.282953
 30
0.0
 11
187.298035
 21
175.616032
 31
0.0
  0
ENDBLK
  5
4E1
100
AcDbEntity
  8
0
100
AcDbBlockEnd
  0
BLOCK
  5
4E4
100
AcDbEntity
  8
0
100
AcDbBlockBegin
  2
*B34
 70
     0
 10
0.0
 20
0.0
 30
0.0
  3
*B34
  1

  0
LINE
  5
4E5
100
AcDbEntity
  8
0
  6
Continuous
 62
     8
100
AcDbLine
 10
187.298035
 20
83.013556
 30
0.0
 11
187.298035
 21
87.013206
 31
0.0
  0
LINE
  5
4E6
100
AcDbEntity
  8
0
  6
Continuous
 62
     8
100
AcDbLine
 10
187.298035
 20
43.309573
 30
0.0
 11
187.298035
 21
54.208981
 31
0.0
  0
LINE
  5
4E7
100
AcDbEntity
  8
0
  6
Continuous
 62
     8
100
AcDbLine
 10
187.298035
 20
57.208718
 30
0.0
 11
187.298035
 21
63.810435
 31
0.0
  0
LINE
  5
4E8
100
AcDbEntity
  8
0
  6
Continuous
 62
     8
100
AcDbLine
 10
187.298035
 20
64.810347
 30
0.0
 11
187.298035
 21
65.81026
 31
0.0
  0
LINE
  5
4E9
100
AcDbEntity
  8
0
  6
Continuous
 62
     8
100
AcDbLine
 10
187.298035
 20
66.810172
 30
0.0
 11
187.298035
 21
73.411889
 31
0.0
  0
LINE
  5
4EA
100
AcDbEntity
  8
0
  6
Continuous
 62
     8
100
AcDbLine
 10
187.298035
 20
74.412014
 30
0.0
 11
187.298035
 21
75.411927
 31
0.0
  0
LINE
  5
4EB
100
AcDbEntity
  8
0
  6
Continuous
 62
     8
100
AcDbLine
 10
187.298035
 20
76.411839
 30
0.0
 11
187.298035
 21
83.013556
 31
0.0
  0
ENDBLK
  5
4EC
100
AcDbEntity
  8
0
100
AcDbBlockEnd
  0
BLOCK
  5
4EF
100
AcDbEntity
  8
0
100
AcDbBlockBegin
  2
*B35
 70
     0
 10
0.0
 20
0.0
 30
0.0
  3
*B35
  1

  0
LINE
  5
4F0
100
AcDbEntity
  8
0
  6
Continuous
 62
     8
100
AcDbLine
 10
18.018181
 20
189.614595
 30
0.0
 11
28.990877
 21
189.614595
 31
0.0
  0
ENDBLK
  5
4F1
100
AcDbEntity
  8
0
100
AcDbBlockEnd
  0
BLOCK
  5
4F4
100
AcDbEntity
  8
0
100
AcDbBlockBegin
  2
*B36
 70
     0
 10
0.0
 20
0.0
 30
0.0
  3
*B36
  1

  0
LINE
  5
4F5
100
AcDbEntity
  8
0
  6
Continuous
 62
     8
100
AcDbLine
 10
115.297962
 20
153.617108
 30
0.0
 11
115.297962
 21
158.950187
 31
0.0
  0
LINE
  5
4F6
100
AcDbEntity
  8
0
  6
Continuous
 62
     8
100
AcDbLine
 10
115.297962
 20
159.950099
 30
0.0
 11
115.297962
 21
160.950012
 31
0.0
  0
LINE
  5
4F7
100
AcDbEntity
  8
0
  6
Continuous
 62
     8
100
AcDbLine
 10
115.297962
 20
161.950137
 30
0.0
 11
115.297962
 21
167.283003
 31
0.0
  0
LINE
  5
4F8
100
AcDbEntity
  8
0
  6
Continuous
 62
     8
100
AcDbLine
 10
115.297962
 20
168.283128
 30
0.0
 11
115.297962
 21
169.283041
 31
0.0
  0
LINE
  5
4F9
100
AcDbEntity
  8
0
  6
Continuous
 62
     8
100
AcDbLine
 10
115.297962
 20
170.282953
 30
0.0
 11
115.297962
 21
175.616032
 31
0.0
  0
ENDBLK
  5
4FA
100
AcDbEntity
  8
0
100
AcDbBlockEnd
  0
BLOCK
  5
4FD
100
AcDbEntity
  8
0
100
AcDbBlockBegin
  2
*B37
 70
     0
 10
0.0
 20
0.0
 30
0.0
  3
*B37
  1

  0
LINE
  5
4FE
100
AcDbEntity
  8
0
  6
Continuous
 62
     8
100
AcDbLine
 10
115.297962
 20
83.013556
 30
0.0
 11
115.297962
 21
87.013206
 31
0.0
  0
LINE
  5
4FF
100
AcDbEntity
  8
0
  6
Continuous
 62
     8
100
AcDbLine
 10
115.297962
 20
43.309573
 30
0.0
 11
115.297962
 21
54.208981
 31
0.0
  0
LINE
  5
500
100
AcDbEntity
  8
0
  6
Continuous
 62
     8
100
AcDbLine
 10
115.297962
 20
57.208718
 30
0.0
 11
115.297962
 21
63.810435
 31
0.0
  0
LINE
  5
501
100
AcDbEntity
  8
0
  6
Continuous
 62
     8
100
AcDbLine
 10
115.297962
 20
64.810347
 30
0.0
 11
115.297962
 21
65.81026
 31
0.0
  0
LINE
  5
502
100
AcDbEntity
  8
0
  6
Continuous
 62
     8
100
AcDbLine
 10
115.297962
 20
66.810172
 30
0.0
 11
115.297962
 21
73.411889
 31
0.0
  0
LINE
  5
503
100
AcDbEntity
  8
0
  6
Continuous
 62
     8
100
AcDbLine
 10
115.297962
 20
74.412014
 30
0.0
 11
115.297962
 21
75.411927
 31
0.0
  0
LINE
  5
504
100
AcDbEntity
  8
0
  6
Continuous
 62
     8
100
AcDbLine
 10
115.297962
 20
76.411839
 30
0.0
 11
115.297962
 21
83.013556
 31
0.0
  0
ENDBLK
  5
505
100
AcDbEntity
  8
0
100
AcDbBlockEnd
  0
BLOCK
  5
508
100
AcDbEntity
  8
0
100
AcDbBlockBegin
  2
*B38
 70
     0
 10
0.0
 20
0.0
 30
0.0
  3
*B38
  1

  0
LINE
  5
509
100
AcDbEntity
  8
0
  6
Continuous
 62
     8
100
AcDbLine
 10
174.298111
 20
20.017156
 30
0.0
 11
174.298111
 21
31.710206
 31
0.0
  0
ENDBLK
  5
50A
100
AcDbEntity
  8
0
100
AcDbBlockEnd
  0
BLOCK
  5
50D
100
AcDbEntity
  8
0
100
AcDbBlockBegin
  2
*B39
 70
     0
 10
0.0
 20
0.0
 30
0.0
  3
*B39
  1

  0
LINE
  5
50E
100
AcDbEntity
  8
0
  6
Continuous
 62
     8
100
AcDbLine
 10
273.297945
 20
189.414485
 30
0.0
 11
273.297945
 21
200.00693
 31
0.0
  0
ENDBLK
  5
50F
100
AcDbEntity
  8
0
100
AcDbBlockEnd
  0
BLOCK
  5
512
100
AcDbEntity
  8
0
100
AcDbBlockBegin
  2
*B40
 70
     0
 10
0.0
 20
0.0
 30
0.0
  3
*B40
  1

  0
LINE
  5
513
100
AcDbEntity
  8
0
  6
Continuous
 62
     8
100
AcDbLine
 10
19.018094
 20
40.709631
 30
0.0
 11
77.298101
 21
40.709631
 31
0.0
  0
LINE
  5
514
100
AcDbEntity
  8
0
  6
Continuous
 62
     8
100
AcDbLine
 10
209.298022
 20
40.709631
 30
0.0
 11
221.01805
 21
40.709631
 31
0.0
  0
ENDBLK
  5
515
100
AcDbEntity
  8
0
100
AcDbBlockEnd
  0
BLOCK
  5
518
100
AcDbEntity
  8
0
100
AcDbBlockBegin
  2
*B41
 70
     0
 10
0.0
 20
0.0
 30
0.0
  3
*B41
  1

  0
LINE
  5
519
100
AcDbEntity
  8
0
  6
Continuous
 62
     8
100
AcDbLine
 10
89.298113
 20
49.709268
 30
0.0
 11
89.298113
 21
54.208981
 31
0.0
  0
LINE
  5
51A
100
AcDbEntity
  8
0
  6
Continuous
 62
     8
100
AcDbLine
 10
89.298113
 20
57.208718
 30
0.0
 11
89.298113
 21
61.708431
 31
0.0
  0
ENDBLK
  5
51B
100
AcDbEntity
  8
0
100
AcDbBlockEnd
  0
BLOCK
  5
51E
100
AcDbEntity
  8
0
100
AcDbBlockBegin
  2
*B42
 70
     0
 10
0.0
 20
0.0
 30
0.0
  3
*B42
  1

  0
LINE
  5
51F
100
AcDbEntity
  8
0
  6
Continuous
 62
     8
100
AcDbLine
 10
213.298097
 20
49.709268
 30
0.0
 11
213.298097
 21
54.208981
 31
0.0
  0
LINE
  5
520
100
AcDbEntity
  8
0
  6
Continuous
 62
     8
100
AcDbLine
 10
213.298097
 20
57.208718
 30
0.0
 11
213.298097
 21
61.708431
 31
0.0
  0
ENDBLK
  5
521
100
AcDbEntity
  8
0
100
AcDbBlockEnd
  0
BLOCK
  5
524
100
AcDbEntity
  8
0
100
AcDbBlockBegin
  2
*B43
 70
     0
 10
0.0
 20
0.0
 30
0.0
  3
*B43
  1

  0
LINE
  5
525
100
AcDbEntity
  8
0
  6
Continuous
 62
     8
100
AcDbLine
 10
217.018188
 20
165.11642
 30
0.0
 11
221.01805
 21
165.11642
 31
0.0
  0
LINE
  5
526
100
AcDbEntity
  8
0
  6
Continuous
 62
     8
100
AcDbLine
 10
163.298011
 20
165.11642
 30
0.0
 11
169.797973
 21
165.11642
 31
0.0
  0
LINE
  5
527
100
AcDbEntity
  8
0
  6
Continuous
 62
     8
100
AcDbLine
 10
172.797923
 20
165.11642
 30
0.0
 11
177.668115
 21
165.11642
 31
0.0
  0
LINE
  5
528
100
AcDbEntity
  8
0
  6
Continuous
 62
     8
100
AcDbLine
 10
178.668028
 20
165.11642
 30
0.0
 11
179.66794
 21
165.11642
 31
0.0
  0
LINE
  5
529
100
AcDbEntity
  8
0
  6
Continuous
 62
     8
100
AcDbLine
 10
180.668065
 20
165.11642
 30
0.0
 11
185.538045
 21
165.11642
 31
0.0
  0
LINE
  5
52A
100
AcDbEntity
  8
0
  6
Continuous
 62
     8
100
AcDbLine
 10
186.537957
 20
165.11642
 30
0.0
 11
187.538082
 21
165.11642
 31
0.0
  0
LINE
  5
52B
100
AcDbEntity
  8
0
  6
Continuous
 62
     8
100
AcDbLine
 10
188.537995
 20
165.11642
 30
0.0
 11
193.407974
 21
165.11642
 31
0.0
  0
LINE
  5
52C
100
AcDbEntity
  8
0
  6
Continuous
 62
     8
100
AcDbLine
 10
194.408099
 20
165.11642
 30
0.0
 11
195.408012
 21
165.11642
 31
0.0
  0
LINE
  5
52D
100
AcDbEntity
  8
0
  6
Continuous
 62
     8
100
AcDbLine
 10
196.408137
 20
165.11642
 30
0.0
 11
201.278116
 21
165.11642
 31
0.0
  0
LINE
  5
52E
100
AcDbEntity
  8
0
  6
Continuous
 62
     8
100
AcDbLine
 10
202.278029
 20
165.11642
 30
0.0
 11
203.278154
 21
165.11642
 31
0.0
  0
LINE
  5
52F
100
AcDbEntity
  8
0
  6
Continuous
 62
     8
100
AcDbLine
 10
204.278066
 20
165.11642
 30
0.0
 11
209.148046
 21
165.11642
 31
0.0
  0
LINE
  5
530
100
AcDbEntity
  8
0
  6
Continuous
 62
     8
100
AcDbLine
 10
210.148171
 20
165.11642
 30
0.0
 11
211.148083
 21
165.11642
 31
0.0
  0
LINE
  5
531
100
AcDbEntity
  8
0
  6
Continuous
 62
     8
100
AcDbLine
 10
212.147996
 20
165.11642
 30
0.0
 11
217.018188
 21
165.11642
 31
0.0
  0
ENDBLK
  5
532
100
AcDbEntity
  8
0
100
AcDbBlockEnd
  0
BLOCK
  5
535
100
AcDbEntity
  8
0
100
AcDbBlockBegin
  2
*B44
 70
     0
 10
0.0
 20
0.0
 30
0.0
  3
*B44
  1

  0
LINE
  5
536
100
AcDbEntity
  8
0
  6
Continuous
 62
     8
100
AcDbLine
 10
171.297948
 20
29.710381
 30
0.0
 11
171.297948
 21
35.043247
 31
0.0
  0
LINE
  5
537
100
AcDbEntity
  8
0
  6
Continuous
 62
     8
100
AcDbLine
 10
171.297948
 20
36.043372
 30
0.0
 11
171.297948
 21
37.043285
 31
0.0
  0
LINE
  5
538
100
AcDbEntity
  8
0
  6
Continuous
 62
     8
100
AcDbLine
 10
171.297948
 20
38.043197
 30
0.0
 11
171.297948
 21
43.376276
 31
0.0
  0
LINE
  5
539
100
AcDbEntity
  8
0
  6
Continuous
 62
     8
100
AcDbLine
 10
171.297948
 20
44.376189
 30
0.0
 11
171.297948
 21
45.376101
 31
0.0
  0
LINE
  5
53A
100
AcDbEntity
  8
0
  6
Continuous
 62
     8
100
AcDbLine
 10
171.297948
 20
46.376014
 30
0.0
 11
171.297948
 21
51.709093
 31
0.0
  0
LINE
  5
53B
100
AcDbEntity
  8
0
  6
Continuous
 62
     8
100
AcDbLine
 10
171.297948
 20
52.709006
 30
0.0
 11
171.297948
 21
53.708918
 31
0.0
  0
LINE
  5
53C
100
AcDbEntity
  8
0
  6
Continuous
 62
     8
100
AcDbLine
 10
171.297948
 20
54.708831
 30
0.0
 11
171.297948
 21
60.04191
 31
0.0
  0
LINE
  5
53D
100
AcDbEntity
  8
0
  6
Continuous
 62
     8
100
AcDbLine
 10
171.297948
 20
61.041822
 30
0.0
 11
171.297948
 21
62.041735
 31
0.0
  0
LINE
  5
53E
100
AcDbEntity
  8
0
  6
Continuous
 62
     8
100
AcDbLine
 10
171.297948
 20
63.041647
 30
0.0
 11
171.297948
 21
68.374726
 31
0.0
  0
LINE
  5
53F
100
AcDbEntity
  8
0
  6
Continuous
 62
     8
100
AcDbLine
 10
171.297948
 20
69.374639
 30
0.0
 11
171.297948
 21
70.374764
 31
0.0
  0
LINE
  5
540
100
AcDbEntity
  8
0
  6
Continuous
 62
     8
100
AcDbLine
 10
171.297948
 20
71.374676
 30
0.0
 11
171.297948
 21
76.707543
 31
0.0
  0
ENDBLK
  5
541
100
AcDbEntity
  8
0
100
AcDbBlockEnd
  0
BLOCK
  5
544
100
AcDbEntity
  8
0
100
AcDbBlockBegin
  2
*B45
 70
     0
 10
0.0
 20
0.0
 30
0.0
  3
*B45
  1

  0
LINE
  5
545
100
AcDbEntity
  8
0
  6
Continuous
 62
     8
100
AcDbLine
 10
63.298051
 20
49.309261
 30
0.0
 11
63.298051
 21
54.208981
 31
0.0
  0
LINE
  5
546
100
AcDbEntity
  8
0
  6
Continuous
 62
     8
100
AcDbLine
 10
63.298051
 20
57.208718
 30
0.0
 11
63.298051
 21
62.108438
 31
0.0
  0
ENDBLK
  5
547
100
AcDbEntity
  8
0
100
AcDbBlockEnd
  0
BLOCK
  5
54A
100
AcDbEntity
  8
0
100
AcDbBlockBegin
  2
*B46
 70
     0
 10
0.0
 20
0.0
 30
0.0
  3
*B46
  1

  0
LINE
  5
54B
100
AcDbEntity
  8
0
  6
Continuous
 62
     8
100
AcDbLine
 10
224.297984
 20
173.615995
 30
0.0
 11
224.297984
 21
200.00693
 31
0.0
  0
ENDBLK
  5
54C
100
AcDbEntity
  8
0
100
AcDbBlockEnd
  0
BLOCK
  5
54F
100
AcDbEntity
  8
0
100
AcDbBlockBegin
  2
*B47
 70
     0
 10
0.0
 20
0.0
 30
0.0
  3
*B47
  1

  0
LINE
  5
550
100
AcDbEntity
  8
0
  6
Continuous
 62
     8
100
AcDbLine
 10
160.698069
 20
173.615995
 30
0.0
 11
160.698069
 21
186.00773
 31
0.0
  0
ENDBLK
  5
551
100
AcDbEntity
  8
0
100
AcDbBlockEnd
  0
BLOCK
  5
554
100
AcDbEntity
  8
0
100
AcDbBlockBegin
  2
*B48
 70
     0
 10
0.0
 20
0.0
 30
0.0
  3
*B48
  1

  0
LINE
  5
555
100
AcDbEntity
  8
0
  6
Continuous
 62
     8
100
AcDbLine
 10
225.297897
 20
172.616082
 30
0.0
 11
243.018037
 21
172.616082
 31
0.0
  0
ENDBLK
  5
556
100
AcDbEntity
  8
0
100
AcDbBlockEnd
  0
BLOCK
  5
559
100
AcDbEntity
  8
0
100
AcDbBlockBegin
  2
*B49
 70
     0
 10
0.0
 20
0.0
 30
0.0
  3
*B49
  1

  0
LINE
  5
55A
100
AcDbEntity
  8
0
  6
Continuous
 62
     8
100
AcDbLine
 10
29.798115
 20
55.708743
 30
0.0
 11
35.547983
 21
55.708743
 31
0.0
  0
LINE
  5
55B
100
AcDbEntity
  8
0
  6
Continuous
 62
     8
100
AcDbLine
 10
36.548108
 20
55.708743
 30
0.0
 11
37.548021
 21
55.708743
 31
0.0
  0
LINE
  5
55C
100
AcDbEntity
  8
0
  6
Continuous
 62
     8
100
AcDbLine
 10
38.548146
 20
55.708743
 30
0.0
 11
44.298014
 21
55.708743
 31
0.0
  0
LINE
  5
55D
100
AcDbEntity
  8
0
  6
Continuous
 62
     8
100
AcDbLine
 10
45.298139
 20
55.708743
 30
0.0
 11
46.298052
 21
55.708743
 31
0.0
  0
LINE
  5
55E
100
AcDbEntity
  8
0
  6
Continuous
 62
     8
100
AcDbLine
 10
47.298177
 20
55.708743
 30
0.0
 11
53.048045
 21
55.708743
 31
0.0
  0
LINE
  5
55F
100
AcDbEntity
  8
0
  6
Continuous
 62
     8
100
AcDbLine
 10
54.04817
 20
55.708743
 30
0.0
 11
55.048083
 21
55.708743
 31
0.0
  0
LINE
  5
560
100
AcDbEntity
  8
0
  6
Continuous
 62
     8
100
AcDbLine
 10
56.047995
 20
55.708743
 30
0.0
 11
61.798076
 21
55.708743
 31
0.0
  0
LINE
  5
561
100
AcDbEntity
  8
0
  6
Continuous
 62
     8
100
AcDbLine
 10
64.798026
 20
55.708743
 30
0.0
 11
70.464834
 21
55.708743
 31
0.0
  0
LINE
  5
562
100
AcDbEntity
  8
0
  6
Continuous
 62
     8
100
AcDbLine
 10
71.464747
 20
55.708743
 30
0.0
 11
72.464659
 21
55.708743
 31
0.0
  0
LINE
  5
563
100
AcDbEntity
  8
0
  6
Continuous
 62
     8
100
AcDbLine
 10
73.464784
 20
55.708743
 30
0.0
 11
79.13138
 21
55.708743
 31
0.0
  0
LINE
  5
564
100
AcDbEntity
  8
0
  6
Continuous
 62
     8
100
AcDbLine
 10
80.131505
 20
55.708743
 30
0.0
 11
81.131418
 21
55.708743
 31
0.0
  0
LINE
  5
565
100
AcDbEntity
  8
0
  6
Continuous
 62
     8
100
AcDbLine
 10
82.13133
 20
55.708743
 30
0.0
 11
87.798138
 21
55.708743
 31
0.0
  0
LINE
  5
566
100
AcDbEntity
  8
0
  6
Continuous
 62
     8
100
AcDbLine
 10
90.798088
 20
55.708743
 30
0.0
 11
96.464684
 21
55.708743
 31
0.0
  0
LINE
  5
567
100
AcDbEntity
  8
0
  6
Continuous
 62
     8
100
AcDbLine
 10
97.464809
 20
55.708743
 30
0.0
 11
98.464721
 21
55.708743
 31
0.0
  0
LINE
  5
568
100
AcDbEntity
  8
0
  6
Continuous
 62
     8
100
AcDbLine
 10
99.464634
 20
55.708743
 30
0.0
 11
105.131442
 21
55.708743
 31
0.0
  0
LINE
  5
569
100
AcDbEntity
  8
0
  6
Continuous
 62
     8
100
AcDbLine
 10
106.131354
 20
55.708743
 30
0.0
 11
107.131479
 21
55.708743
 31
0.0
  0
LINE
  5
56A
100
AcDbEntity
  8
0
  6
Continuous
 62
     8
100
AcDbLine
 10
108.131392
 20
55.708743
 30
0.0
 11
113.797987
 21
55.708743
 31
0.0
  0
LINE
  5
56B
100
AcDbEntity
  8
0
  6
Continuous
 62
     8
100
AcDbLine
 10
116.79815
 20
55.708743
 30
0.0
 11
122.79805
 21
55.708743
 31
0.0
  0
LINE
  5
56C
100
AcDbEntity
  8
0
  6
Continuous
 62
     8
100
AcDbLine
 10
123.797962
 20
55.708743
 30
0.0
 11
124.798087
 21
55.708743
 31
0.0
  0
LINE
  5
56D
100
AcDbEntity
  8
0
  6
Continuous
 62
     8
100
AcDbLine
 10
125.798
 20
55.708743
 30
0.0
 11
131.798112
 21
55.708743
 31
0.0
  0
LINE
  5
56E
100
AcDbEntity
  8
0
  6
Continuous
 62
     8
100
AcDbLine
 10
132.798024
 20
55.708743
 30
0.0
 11
133.797937
 21
55.708743
 31
0.0
  0
LINE
  5
56F
100
AcDbEntity
  8
0
  6
Continuous
 62
     8
100
AcDbLine
 10
134.798062
 20
55.708743
 30
0.0
 11
140.797962
 21
55.708743
 31
0.0
  0
LINE
  5
570
100
AcDbEntity
  8
0
  6
Continuous
 62
     8
100
AcDbLine
 10
141.798087
 20
55.708743
 30
0.0
 11
142.797999
 21
55.708743
 31
0.0
  0
LINE
  5
571
100
AcDbEntity
  8
0
  6
Continuous
 62
     8
100
AcDbLine
 10
143.798124
 20
55.708743
 30
0.0
 11
149.798024
 21
55.708743
 31
0.0
  0
LINE
  5
572
100
AcDbEntity
  8
0
  6
Continuous
 62
     8
100
AcDbLine
 10
152.797974
 20
55.708743
 30
0.0
 11
158.798086
 21
55.708743
 31
0.0
  0
LINE
  5
573
100
AcDbEntity
  8
0
  6
Continuous
 62
     8
100
AcDbLine
 10
159.797999
 20
55.708743
 30
0.0
 11
160.798124
 21
55.708743
 31
0.0
  0
LINE
  5
574
100
AcDbEntity
  8
0
  6
Continuous
 62
     8
100
AcDbLine
 10
161.798036
 20
55.708743
 30
0.0
 11
167.797936
 21
55.708743
 31
0.0
  0
LINE
  5
575
100
AcDbEntity
  8
0
  6
Continuous
 62
     8
100
AcDbLine
 10
168.798061
 20
55.708743
 30
0.0
 11
169.797973
 21
55.708743
 31
0.0
  0
LINE
  5
576
100
AcDbEntity
  8
0
  6
Continuous
 62
     8
100
AcDbLine
 10
170.798098
 20
55.708743
 30
0.0
 11
176.797998
 21
55.708743
 31
0.0
  0
LINE
  5
577
100
AcDbEntity
  8
0
  6
Continuous
 62
     8
100
AcDbLine
 10
177.797911
 20
55.708743
 30
0.0
 11
178.798036
 21
55.708743
 31
0.0
  0
LINE
  5
578
100
AcDbEntity
  8
0
  6
Continuous
 62
     8
100
AcDbLine
 10
179.797948
 20
55.708743
 30
0.0
 11
185.79806
 21
55.708743
 31
0.0
  0
LINE
  5
579
100
AcDbEntity
  8
0
  6
Continuous
 62
     8
100
AcDbLine
 10
188.79801
 20
55.708743
 30
0.0
 11
194.464606
 21
55.708743
 31
0.0
  0
LINE
  5
57A
100
AcDbEntity
  8
0
  6
Continuous
 62
     8
100
AcDbLine
 10
195.464731
 20
55.708743
 30
0.0
 11
196.464643
 21
55.708743
 31
0.0
  0
LINE
  5
57B
100
AcDbEntity
  8
0
  6
Continuous
 62
     8
100
AcDbLine
 10
197.464768
 20
55.708743
 30
0.0
 11
203.131364
 21
55.708743
 31
0.0
  0
LINE
  5
57C
100
AcDbEntity
  8
0
  6
Continuous
 62
     8
100
AcDbLine
 10
204.131277
 20
55.708743
 30
0.0
 11
205.131402
 21
55.708743
 31
0.0
  0
LINE
  5
57D
100
AcDbEntity
  8
0
  6
Continuous
 62
     8
100
AcDbLine
 10
206.131314
 20
55.708743
 30
0.0
 11
211.79791
 21
55.708743
 31
0.0
  0
LINE
  5
57E
100
AcDbEntity
  8
0
  6
Continuous
 62
     8
100
AcDbLine
 10
214.798072
 20
55.708743
 30
0.0
 11
220.464668
 21
55.708743
 31
0.0
  0
LINE
  5
57F
100
AcDbEntity
  8
0
  6
Continuous
 62
     8
100
AcDbLine
 10
221.46458
 20
55.708743
 30
0.0
 11
222.464705
 21
55.708743
 31
0.0
  0
LINE
  5
580
100
AcDbEntity
  8
0
  6
Continuous
 62
     8
100
AcDbLine
 10
223.464618
 20
55.708743
 30
0.0
 11
229.131426
 21
55.708743
 31
0.0
  0
LINE
  5
581
100
AcDbEntity
  8
0
  6
Continuous
 62
     8
100
AcDbLine
 10
230.131338
 20
55.708743
 30
0.0
 11
231.131251
 21
55.708743
 31
0.0
  0
LINE
  5
582
100
AcDbEntity
  8
0
  6
Continuous
 62
     8
100
AcDbLine
 10
232.131376
 20
55.708743
 30
0.0
 11
237.797971
 21
55.708743
 31
0.0
  0
LINE
  5
583
100
AcDbEntity
  8
0
  6
Continuous
 62
     8
100
AcDbLine
 10
240.797921
 20
55.708743
 30
0.0
 11
246.297971
 21
55.708743
 31
0.0
  0
LINE
  5
584
100
AcDbEntity
  8
0
  6
Continuous
 62
     8
100
AcDbLine
 10
247.297884
 20
55.708743
 30
0.0
 11
248.298009
 21
55.708743
 31
0.0
  0
LINE
  5
585
100
AcDbEntity
  8
0
  6
Continuous
 62
     8
100
AcDbLine
 10
249.297921
 20
55.708743
 30
0.0
 11
254.797971
 21
55.708743
 31
0.0
  0
LINE
  5
586
100
AcDbEntity
  8
0
  6
Continuous
 62
     8
100
AcDbLine
 10
255.797884
 20
55.708743
 30
0.0
 11
256.798008
 21
55.708743
 31
0.0
  0
LINE
  5
587
100
AcDbEntity
  8
0
  6
Continuous
 62
     8
100
AcDbLine
 10
257.797921
 20
55.708743
 30
0.0
 11
263.297971
 21
55.708743
 31
0.0
  0
LINE
  5
588
100
AcDbEntity
  8
0
  6
Continuous
 62
     8
100
AcDbLine
 10
264.297883
 20
55.708743
 30
0.0
 11
265.298008
 21
55.708743
 31
0.0
  0
LINE
  5
589
100
AcDbEntity
  8
0
  6
Continuous
 62
     8
100
AcDbLine
 10
266.297921
 20
55.708743
 30
0.0
 11
271.797971
 21
55.708743
 31
0.0
  0
ENDBLK
  5
58A
100
AcDbEntity
  8
0
100
AcDbBlockEnd
  0
BLOCK
  5
58D
100
AcDbEntity
  8
0
100
AcDbBlockBegin
  2
*B50
 70
     0
 10
0.0
 20
0.0
 30
0.0
  3
*B50
  1

  0
LINE
  5
58E
100
AcDbEntity
  8
0
  6
Continuous
 62
     8
100
AcDbLine
 10
175.298023
 20
32.710118
 30
0.0
 11
221.01805
 21
32.710118
 31
0.0
  0
ENDBLK
  5
58F
100
AcDbEntity
  8
0
100
AcDbBlockEnd
  0
BLOCK
  5
592
100
AcDbEntity
  8
0
100
AcDbBlockBegin
  2
*B51
 70
     0
 10
0.0
 20
0.0
 30
0.0
  3
*B51
  1

  0
LINE
  5
593
100
AcDbEntity
  8
0
  6
Continuous
 62
     8
100
AcDbLine
 10
141.897929
 20
173.615995
 30
0.0
 11
141.897929
 21
186.00773
 31
0.0
  0
ENDBLK
  5
594
100
AcDbEntity
  8
0
100
AcDbBlockEnd
  0
BLOCK
  5
597
100
AcDbEntity
  8
0
100
AcDbBlockBegin
  2
*B52
 70
     0
 10
0.0
 20
0.0
 30
0.0
  3
*B52
  1

  0
LINE
  5
598
100
AcDbEntity
  8
0
  6
Continuous
 62
     8
100
AcDbLine
 10
151.297999
 20
153.617108
 30
0.0
 11
151.297999
 21
158.950187
 31
0.0
  0
LINE
  5
599
100
AcDbEntity
  8
0
  6
Continuous
 62
     8
100
AcDbLine
 10
151.297999
 20
159.950099
 30
0.0
 11
151.297999
 21
160.950012
 31
0.0
  0
LINE
  5
59A
100
AcDbEntity
  8
0
  6
Continuous
 62
     8
100
AcDbLine
 10
151.297999
 20
161.950137
 30
0.0
 11
151.297999
 21
167.283003
 31
0.0
  0
LINE
  5
59B
100
AcDbEntity
  8
0
  6
Continuous
 62
     8
100
AcDbLine
 10
151.297999
 20
168.283128
 30
0.0
 11
151.297999
 21
169.283041
 31
0.0
  0
LINE
  5
59C
100
AcDbEntity
  8
0
  6
Continuous
 62
     8
100
AcDbLine
 10
151.297999
 20
170.282953
 30
0.0
 11
151.297999
 21
175.616032
 31
0.0
  0
ENDBLK
  5
59D
100
AcDbEntity
  8
0
100
AcDbBlockEnd
  0
BLOCK
  5
5A0
100
AcDbEntity
  8
0
100
AcDbBlockBegin
  2
*B53
 70
     0
 10
0.0
 20
0.0
 30
0.0
  3
*B53
  1

  0
LINE
  5
5A1
100
AcDbEntity
  8
0
  6
Continuous
 62
     8
100
AcDbLine
 10
19.018094
 20
70.708068
 30
0.0
 11
77.298101
 21
70.708068
 31
0.0
  0
ENDBLK
  5
5A2
100
AcDbEntity
  8
0
100
AcDbBlockEnd
  0
BLOCK
  5
5A5
100
AcDbEntity
  8
0
100
AcDbBlockBegin
  2
*B54
 70
     0
 10
0.0
 20
0.0
 30
0.0
  3
*B54
  1

  0
LINE
  5
5A6
100
AcDbEntity
  8
0
  6
Continuous
 62
     8
100
AcDbLine
 10
94.2981
 20
96.012843
 30
0.0
 11
94.2981
 21
111.619508
 31
0.0
  0
ENDBLK
  5
5A7
100
AcDbEntity
  8
0
100
AcDbBlockEnd
  0
BLOCK
  5
5AA
100
AcDbEntity
  8
0
100
AcDbBlockBegin
  2
*B55
 70
     0
 10
0.0
 20
0.0
 30
0.0
  3
*B55
  1

  0
LINE
  5
5AB
100
AcDbEntity
  8
0
  6
Continuous
 62
     8
100
AcDbLine
 10
94.2981
 20
71.70798
 30
0.0
 11
94.2981
 21
87.013206
 31
0.0
  0
ENDBLK
  5
5AC
100
AcDbEntity
  8
0
100
AcDbBlockEnd
  0
BLOCK
  5
5AF
100
AcDbEntity
  8
0
100
AcDbBlockBegin
  2
*B56
 70
     0
 10
0.0
 20
0.0
 30
0.0
  3
*B56
  1

  0
LINE
  5
5B0
100
AcDbEntity
  8
0
  6
Continuous
 62
     8
100
AcDbLine
 10
151.297999
 20
114.119395
 30
0.0
 11
151.297999
 21
118.619108
 31
0.0
  0
LINE
  5
5B1
100
AcDbEntity
  8
0
  6
Continuous
 62
     8
100
AcDbLine
 10
151.297999
 20
121.619058
 30
0.0
 11
151.297999
 21
126.11877
 31
0.0
  0
ENDBLK
  5
5B2
100
AcDbEntity
  8
0
100
AcDbBlockEnd
  0
BLOCK
  5
5B5
100
AcDbEntity
  8
0
100
AcDbBlockBegin
  2
*B57
 70
     0
 10
0.0
 20
0.0
 30
0.0
  3
*B57
  1

  0
LINE
  5
5B6
100
AcDbEntity
  8
0
  6
Continuous
 62
     8
100
AcDbLine
 10
37.598155
 20
142.617858
 30
0.0
 11
42.531439
 21
142.617858
 31
0.0
  0
LINE
  5
5B7
100
AcDbEntity
  8
0
  6
Continuous
 62
     8
100
AcDbLine
 10
43.531351
 20
142.617858
 30
0.0
 11
44.531476
 21
142.617858
 31
0.0
  0
LINE
  5
5B8
100
AcDbEntity
  8
0
  6
Continuous
 62
     8
100
AcDbLine
 10
45.531389
 20
142.617858
 30
0.0
 11
50.464673
 21
142.617858
 31
0.0
  0
LINE
  5
5B9
100
AcDbEntity
  8
0
  6
Continuous
 62
     8
100
AcDbLine
 10
51.464797
 20
142.617858
 30
0.0
 11
52.46471
 21
142.617858
 31
0.0
  0
LINE
  5
5BA
100
AcDbEntity
  8
0
  6
Continuous
 62
     8
100
AcDbLine
 10
53.464835
 20
142.617858
 30
0.0
 11
58.398119
 21
142.617858
 31
0.0
  0
LINE
  5
5BB
100
AcDbEntity
  8
0
  6
Continuous
 62
     8
100
AcDbLine
 10
59.398031
 20
142.617858
 30
0.0
 11
60.398156
 21
142.617858
 31
0.0
  0
LINE
  5
5BC
100
AcDbEntity
  8
0
  6
Continuous
 62
     8
100
AcDbLine
 10
61.398069
 20
142.617858
 30
0.0
 11
66.331353
 21
142.617858
 31
0.0
  0
LINE
  5
5BD
100
AcDbEntity
  8
0
  6
Continuous
 62
     8
100
AcDbLine
 10
67.331478
 20
142.617858
 30
0.0
 11
68.33139
 21
142.617858
 31
0.0
  0
LINE
  5
5BE
100
AcDbEntity
  8
0
  6
Continuous
 62
     8
100
AcDbLine
 10
69.331303
 20
142.617858
 30
0.0
 11
74.264799
 21
142.617858
 31
0.0
  0
LINE
  5
5BF
100
AcDbEntity
  8
0
  6
Continuous
 62
     8
100
AcDbLine
 10
75.264712
 20
142.617858
 30
0.0
 11
76.264837
 21
142.617858
 31
0.0
  0
LINE
  5
5C0
100
AcDbEntity
  8
0
  6
Continuous
 62
     8
100
AcDbLine
 10
77.264749
 20
142.617858
 30
0.0
 11
82.198033
 21
142.617858
 31
0.0
  0
LINE
  5
5C1
100
AcDbEntity
  8
0
  6
Continuous
 62
     8
100
AcDbLine
 10
83.198158
 20
142.617858
 30
0.0
 11
84.198071
 21
142.617858
 31
0.0
  0
LINE
  5
5C2
100
AcDbEntity
  8
0
  6
Continuous
 62
     8
100
AcDbLine
 10
85.197983
 20
142.617858
 30
0.0
 11
90.13148
 21
142.617858
 31
0.0
  0
LINE
  5
5C3
100
AcDbEntity
  8
0
  6
Continuous
 62
     8
100
AcDbLine
 10
91.131392
 20
142.617858
 30
0.0
 11
92.131305
 21
142.617858
 31
0.0
  0
LINE
  5
5C4
100
AcDbEntity
  8
0
  6
Continuous
 62
     8
100
AcDbLine
 10
93.13143
 20
142.617858
 30
0.0
 11
98.064714
 21
142.617858
 31
0.0
  0
LINE
  5
5C5
100
AcDbEntity
  8
0
  6
Continuous
 62
     8
100
AcDbLine
 10
99.064626
 20
142.617858
 30
0.0
 11
100.064751
 21
142.617858
 31
0.0
  0
LINE
  5
5C6
100
AcDbEntity
  8
0
  6
Continuous
 62
     8
100
AcDbLine
 10
101.064664
 20
142.617858
 30
0.0
 11
105.997948
 21
142.617858
 31
0.0
  0
LINE
  5
5C7
100
AcDbEntity
  8
0
  6
Continuous
 62
     8
100
AcDbLine
 10
106.998073
 20
142.617858
 30
0.0
 11
107.997985
 21
142.617858
 31
0.0
  0
LINE
  5
5C8
100
AcDbEntity
  8
0
  6
Continuous
 62
     8
100
AcDbLine
 10
108.99811
 20
142.617858
 30
0.0
 11
113.931394
 21
142.617858
 31
0.0
  0
LINE
  5
5C9
100
AcDbEntity
  8
0
  6
Continuous
 62
     8
100
AcDbLine
 10
114.931307
 20
142.617858
 30
0.0
 11
115.931432
 21
142.617858
 31
0.0
  0
LINE
  5
5CA
100
AcDbEntity
  8
0
  6
Continuous
 62
     8
100
AcDbLine
 10
116.931344
 20
142.617858
 30
0.0
 11
121.864628
 21
142.617858
 31
0.0
  0
LINE
  5
5CB
100
AcDbEntity
  8
0
  6
Continuous
 62
     8
100
AcDbLine
 10
122.864753
 20
142.617858
 30
0.0
 11
123.864666
 21
142.617858
 31
0.0
  0
LINE
  5
5CC
100
AcDbEntity
  8
0
  6
Continuous
 62
     8
100
AcDbLine
 10
124.86479
 20
142.617858
 30
0.0
 11
129.798074
 21
142.617858
 31
0.0
  0
LINE
  5
5CD
100
AcDbEntity
  8
0
  6
Continuous
 62
     8
100
AcDbLine
 10
132.798024
 20
142.617858
 30
0.0
 11
137.798012
 21
142.617858
 31
0.0
  0
LINE
  5
5CE
100
AcDbEntity
  8
0
  6
Continuous
 62
     8
100
AcDbLine
 10
138.798137
 20
142.617858
 30
0.0
 11
139.798049
 21
142.617858
 31
0.0
  0
LINE
  5
5CF
100
AcDbEntity
  8
0
  6
Continuous
 62
     8
100
AcDbLine
 10
140.797962
 20
142.617858
 30
0.0
 11
145.797949
 21
142.617858
 31
0.0
  0
LINE
  5
5D0
100
AcDbEntity
  8
0
  6
Continuous
 62
     8
100
AcDbLine
 10
146.798074
 20
142.617858
 30
0.0
 11
147.797987
 21
142.617858
 31
0.0
  0
LINE
  5
5D1
100
AcDbEntity
  8
0
  6
Continuous
 62
     8
100
AcDbLine
 10
148.798111
 20
142.617858
 30
0.0
 11
153.798099
 21
142.617858
 31
0.0
  0
LINE
  5
5D2
100
AcDbEntity
  8
0
  6
Continuous
 62
     8
100
AcDbLine
 10
154.798011
 20
142.617858
 30
0.0
 11
155.797924
 21
142.617858
 31
0.0
  0
LINE
  5
5D3
100
AcDbEntity
  8
0
  6
Continuous
 62
     8
100
AcDbLine
 10
156.798049
 20
142.617858
 30
0.0
 11
161.798036
 21
142.617858
 31
0.0
  0
LINE
  5
5D4
100
AcDbEntity
  8
0
  6
Continuous
 62
     8
100
AcDbLine
 10
162.797949
 20
142.617858
 30
0.0
 11
163.798074
 21
142.617858
 31
0.0
  0
LINE
  5
5D5
100
AcDbEntity
  8
0
  6
Continuous
 62
     8
100
AcDbLine
 10
164.797986
 20
142.617858
 30
0.0
 11
169.797973
 21
142.617858
 31
0.0
  0
LINE
  5
5D6
100
AcDbEntity
  8
0
  6
Continuous
 62
     8
100
AcDbLine
 10
172.797923
 20
142.617858
 30
0.0
 11
177.73142
 21
142.617858
 31
0.0
  0
LINE
  5
5D7
100
AcDbEntity
  8
0
  6
Continuous
 62
     8
100
AcDbLine
 10
178.731332
 20
142.617858
 30
0.0
 11
179.731457
 21
142.617858
 31
0.0
  0
LINE
  5
5D8
100
AcDbEntity
  8
0
  6
Continuous
 62
     8
100
AcDbLine
 10
180.73137
 20
142.617858
 30
0.0
 11
185.664654
 21
142.617858
 31
0.0
  0
LINE
  5
5D9
100
AcDbEntity
  8
0
  6
Continuous
 62
     8
100
AcDbLine
 10
186.664779
 20
142.617858
 30
0.0
 11
187.664691
 21
142.617858
 31
0.0
  0
LINE
  5
5DA
100
AcDbEntity
  8
0
  6
Continuous
 62
     8
100
AcDbLine
 10
188.664604
 20
142.617858
 30
0.0
 11
193.5981
 21
142.617858
 31
0.0
  0
LINE
  5
5DB
100
AcDbEntity
  8
0
  6
Continuous
 62
     8
100
AcDbLine
 10
194.598013
 20
142.617858
 30
0.0
 11
195.597925
 21
142.617858
 31
0.0
  0
LINE
  5
5DC
100
AcDbEntity
  8
0
  6
Continuous
 62
     8
100
AcDbLine
 10
196.59805
 20
142.617858
 30
0.0
 11
201.531334
 21
142.617858
 31
0.0
  0
LINE
  5
5DD
100
AcDbEntity
  8
0
  6
Continuous
 62
     8
100
AcDbLine
 10
202.531247
 20
142.617858
 30
0.0
 11
203.531372
 21
142.617858
 31
0.0
  0
LINE
  5
5DE
100
AcDbEntity
  8
0
  6
Continuous
 62
     8
100
AcDbLine
 10
204.531284
 20
142.617858
 30
0.0
 11
209.464568
 21
142.617858
 31
0.0
  0
LINE
  5
5DF
100
AcDbEntity
  8
0
  6
Continuous
 62
     8
100
AcDbLine
 10
210.464693
 20
142.617858
 30
0.0
 11
211.464606
 21
142.617858
 31
0.0
  0
LINE
  5
5E0
100
AcDbEntity
  8
0
  6
Continuous
 62
     8
100
AcDbLine
 10
212.464731
 20
142.617858
 30
0.0
 11
217.398015
 21
142.617858
 31
0.0
  0
LINE
  5
5E1
100
AcDbEntity
  8
0
  6
Continuous
 62
     8
100
AcDbLine
 10
218.397927
 20
142.617858
 30
0.0
 11
219.398052
 21
142.617858
 31
0.0
  0
LINE
  5
5E2
100
AcDbEntity
  8
0
  6
Continuous
 62
     8
100
AcDbLine
 10
220.397964
 20
142.617858
 30
0.0
 11
225.331249
 21
142.617858
 31
0.0
  0
LINE
  5
5E3
100
AcDbEntity
  8
0
  6
Continuous
 62
     8
100
AcDbLine
 10
226.331373
 20
142.617858
 30
0.0
 11
227.331286
 21
142.617858
 31
0.0
  0
LINE
  5
5E4
100
AcDbEntity
  8
0
  6
Continuous
 62
     8
100
AcDbLine
 10
228.331411
 20
142.617858
 30
0.0
 11
233.264695
 21
142.617858
 31
0.0
  0
LINE
  5
5E5
100
AcDbEntity
  8
0
  6
Continuous
 62
     8
100
AcDbLine
 10
234.264607
 20
142.617858
 30
0.0
 11
235.264732
 21
142.617858
 31
0.0
  0
LINE
  5
5E6
100
AcDbEntity
  8
0
  6
Continuous
 62
     8
100
AcDbLine
 10
236.264645
 20
142.617858
 30
0.0
 11
241.197929
 21
142.617858
 31
0.0
  0
LINE
  5
5E7
100
AcDbEntity
  8
0
  6
Continuous
 62
     8
100
AcDbLine
 10
242.198054
 20
142.617858
 30
0.0
 11
243.197966
 21
142.617858
 31
0.0
  0
LINE
  5
5E8
100
AcDbEntity
  8
0
  6
Continuous
 62
     8
100
AcDbLine
 10
244.197879
 20
142.617858
 30
0.0
 11
249.131375
 21
142.617858
 31
0.0
  0
LINE
  5
5E9
100
AcDbEntity
  8
0
  6
Continuous
 62
     8
100
AcDbLine
 10
250.131288
 20
142.617858
 30
0.0
 11
251.131413
 21
142.617858
 31
0.0
  0
LINE
  5
5EA
100
AcDbEntity
  8
0
  6
Continuous
 62
     8
100
AcDbLine
 10
252.131325
 20
142.617858
 30
0.0
 11
257.064609
 21
142.617858
 31
0.0
  0
LINE
  5
5EB
100
AcDbEntity
  8
0
  6
Continuous
 62
     8
100
AcDbLine
 10
258.064734
 20
142.617858
 30
0.0
 11
259.064647
 21
142.617858
 31
0.0
  0
LINE
  5
5EC
100
AcDbEntity
  8
0
  6
Continuous
 62
     8
100
AcDbLine
 10
260.064559
 20
142.617858
 30
0.0
 11
264.998056
 21
142.617858
 31
0.0
  0
ENDBLK
  5
5ED
100
AcDbEntity
  8
0
100
AcDbBlockEnd
  0
BLOCK
  5
5F0
100
AcDbEntity
  8
0
100
AcDbBlockBegin
  2
*B58
 70
     0
 10
0.0
 20
0.0
 30
0.0
  3
*B58
  1

  0
LINE
  5
5F1
100
AcDbEntity
  8
0
  6
Continuous
 62
     8
100
AcDbLine
 10
131.298049
 20
96.012843
 30
0.0
 11
131.298049
 21
100.012493
 31
0.0
  0
LINE
  5
5F2
100
AcDbEntity
  8
0
  6
Continuous
 62
     8
100
AcDbLine
 10
131.298049
 20
100.012493
 30
0.0
 11
131.298049
 21
107.815932
 31
0.0
  0
LINE
  5
5F3
100
AcDbEntity
  8
0
  6
Continuous
 62
     8
100
AcDbLine
 10
131.298049
 20
108.815844
 30
0.0
 11
131.298049
 21
109.815757
 31
0.0
  0
LINE
  5
5F4
100
AcDbEntity
  8
0
  6
Continuous
 62
     8
100
AcDbLine
 10
131.298049
 20
110.815669
 30
0.0
 11
131.298049
 21
118.619108
 31
0.0
  0
LINE
  5
5F5
100
AcDbEntity
  8
0
  6
Continuous
 62
     8
100
AcDbLine
 10
131.298049
 20
121.619058
 30
0.0
 11
131.298049
 21
129.868602
 31
0.0
  0
LINE
  5
5F6
100
AcDbEntity
  8
0
  6
Continuous
 62
     8
100
AcDbLine
 10
131.298049
 20
130.868514
 30
0.0
 11
131.298049
 21
131.868427
 31
0.0
  0
LINE
  5
5F7
100
AcDbEntity
  8
0
  6
Continuous
 62
     8
100
AcDbLine
 10
131.298049
 20
132.868339
 30
0.0
 11
131.298049
 21
141.117883
 31
0.0
  0
LINE
  5
5F8
100
AcDbEntity
  8
0
  6
Continuous
 62
     8
100
AcDbLine
 10
131.298049
 20
144.11762
 30
0.0
 11
131.298049
 21
150.74228
 31
0.0
  0
LINE
  5
5F9
100
AcDbEntity
  8
0
  6
Continuous
 62
     8
100
AcDbLine
 10
131.298049
 20
151.742192
 30
0.0
 11
131.298049
 21
152.742317
 31
0.0
  0
LINE
  5
5FA
100
AcDbEntity
  8
0
  6
Continuous
 62
     8
100
AcDbLine
 10
131.298049
 20
153.742229
 30
0.0
 11
131.298049
 21
160.366889
 31
0.0
  0
ENDBLK
  5
5FB
100
AcDbEntity
  8
0
100
AcDbBlockEnd
  0
BLOCK
  5
5FE
100
AcDbEntity
  8
0
100
AcDbBlockBegin
  2
*B59
 70
     0
 10
0.0
 20
0.0
 30
0.0
  3
*B59
  1

  0
LINE
  5
5FF
100
AcDbEntity
  8
0
  6
Continuous
 62
     8
100
AcDbLine
 10
171.297948
 20
96.012843
 30
0.0
 11
171.297948
 21
100.012493
 31
0.0
  0
LINE
  5
600
100
AcDbEntity
  8
0
  6
Continuous
 62
     8
100
AcDbLine
 10
171.297948
 20
100.012493
 30
0.0
 11
171.297948
 21
105.833739
 31
0.0
  0
LINE
  5
601
100
AcDbEntity
  8
0
  6
Continuous
 62
     8
100
AcDbLine
 10
171.297948
 20
106.833651
 30
0.0
 11
171.297948
 21
107.833564
 31
0.0
  0
LINE
  5
602
100
AcDbEntity
  8
0
  6
Continuous
 62
     8
100
AcDbLine
 10
171.297948
 20
108.833476
 30
0.0
 11
171.297948
 21
114.654721
 31
0.0
  0
LINE
  5
603
100
AcDbEntity
  8
0
  6
Continuous
 62
     8
100
AcDbLine
 10
171.297948
 20
115.654634
 30
0.0
 11
171.297948
 21
116.654759
 31
0.0
  0
LINE
  5
604
100
AcDbEntity
  8
0
  6
Continuous
 62
     8
100
AcDbLine
 10
171.297948
 20
117.654671
 30
0.0
 11
171.297948
 21
123.475917
 31
0.0
  0
LINE
  5
605
100
AcDbEntity
  8
0
  6
Continuous
 62
     8
100
AcDbLine
 10
171.297948
 20
124.475829
 30
0.0
 11
171.297948
 21
125.475742
 31
0.0
  0
LINE
  5
606
100
AcDbEntity
  8
0
  6
Continuous
 62
     8
100
AcDbLine
 10
171.297948
 20
126.475654
 30
0.0
 11
171.297948
 21
132.2969
 31
0.0
  0
LINE
  5
607
100
AcDbEntity
  8
0
  6
Continuous
 62
     8
100
AcDbLine
 10
171.297948
 20
133.296812
 30
0.0
 11
171.297948
 21
134.296725
 31
0.0
  0
LINE
  5
608
100
AcDbEntity
  8
0
  6
Continuous
 62
     8
100
AcDbLine
 10
171.297948
 20
135.296637
 30
0.0
 11
171.297948
 21
141.117883
 31
0.0
  0
LINE
  5
609
100
AcDbEntity
  8
0
  6
Continuous
 62
     8
100
AcDbLine
 10
171.297948
 20
144.11762
 30
0.0
 11
171.297948
 21
152.367164
 31
0.0
  0
LINE
  5
60A
100
AcDbEntity
  8
0
  6
Continuous
 62
     8
100
AcDbLine
 10
171.297948
 20
153.367289
 30
0.0
 11
171.297948
 21
154.367201
 31
0.0
  0
LINE
  5
60B
100
AcDbEntity
  8
0
  6
Continuous
 62
     8
100
AcDbLine
 10
171.297948
 20
155.367114
 30
0.0
 11
171.297948
 21
163.616657
 31
0.0
  0
LINE
  5
60C
100
AcDbEntity
  8
0
  6
Continuous
 62
     8
100
AcDbLine
 10
171.297948
 20
166.616395
 30
0.0
 11
171.297948
 21
173.116145
 31
0.0
  0
ENDBLK
  5
60D
100
AcDbEntity
  8
0
100
AcDbBlockEnd
  0
BLOCK
  5
610
100
AcDbEntity
  8
0
100
AcDbBlockBegin
  2
*B60
 70
     0
 10
0.0
 20
0.0
 30
0.0
  3
*B60
  1

  0
LINE
  5
611
100
AcDbEntity
  8
0
  6
Continuous
 62
     8
100
AcDbLine
 10
131.298049
 20
29.710381
 30
0.0
 11
131.298049
 21
35.043247
 31
0.0
  0
LINE
  5
612
100
AcDbEntity
  8
0
  6
Continuous
 62
     8
100
AcDbLine
 10
131.298049
 20
36.043372
 30
0.0
 11
131.298049
 21
37.043285
 31
0.0
  0
LINE
  5
613
100
AcDbEntity
  8
0
  6
Continuous
 62
     8
100
AcDbLine
 10
131.298049
 20
38.043197
 30
0.0
 11
131.298049
 21
43.376276
 31
0.0
  0
LINE
  5
614
100
AcDbEntity
  8
0
  6
Continuous
 62
     8
100
AcDbLine
 10
131.298049
 20
44.376189
 30
0.0
 11
131.298049
 21
45.376101
 31
0.0
  0
LINE
  5
615
100
AcDbEntity
  8
0
  6
Continuous
 62
     8
100
AcDbLine
 10
131.298049
 20
46.376014
 30
0.0
 11
131.298049
 21
51.709093
 31
0.0
  0
LINE
  5
616
100
AcDbEntity
  8
0
  6
Continuous
 62
     8
100
AcDbLine
 10
131.298049
 20
52.709006
 30
0.0
 11
131.298049
 21
53.708918
 31
0.0
  0
LINE
  5
617
100
AcDbEntity
  8
0
  6
Continuous
 62
     8
100
AcDbLine
 10
131.298049
 20
54.708831
 30
0.0
 11
131.298049
 21
60.04191
 31
0.0
  0
LINE
  5
618
100
AcDbEntity
  8
0
  6
Continuous
 62
     8
100
AcDbLine
 10
131.298049
 20
61.041822
 30
0.0
 11
131.298049
 21
62.041735
 31
0.0
  0
LINE
  5
619
100
AcDbEntity
  8
0
  6
Continuous
 62
     8
100
AcDbLine
 10
131.298049
 20
63.041647
 30
0.0
 11
131.298049
 21
68.374726
 31
0.0
  0
LINE
  5
61A
100
AcDbEntity
  8
0
  6
Continuous
 62
     8
100
AcDbLine
 10
131.298049
 20
69.374639
 30
0.0
 11
131.298049
 21
70.374764
 31
0.0
  0
LINE
  5
61B
100
AcDbEntity
  8
0
  6
Continuous
 62
     8
100
AcDbLine
 10
131.298049
 20
71.374676
 30
0.0
 11
131.298049
 21
76.707543
 31
0.0
  0
ENDBLK
  5
61C
100
AcDbEntity
  8
0
100
AcDbBlockEnd
  0
BLOCK
  5
61F
100
AcDbEntity
  8
0
100
AcDbBlockBegin
  2
*B61
 70
     0
 10
0.0
 20
0.0
 30
0.0
  3
*B61
  1

  0
LINE
  5
620
100
AcDbEntity
  8
0
  6
Continuous
 62
     8
100
AcDbLine
 10
151.297999
 20
83.013556
 30
0.0
 11
151.297999
 21
87.013206
 31
0.0
  0
LINE
  5
621
100
AcDbEntity
  8
0
  6
Continuous
 62
     8
100
AcDbLine
 10
151.297999
 20
43.309573
 30
0.0
 11
151.297999
 21
54.208981
 31
0.0
  0
LINE
  5
622
100
AcDbEntity
  8
0
  6
Continuous
 62
     8
100
AcDbLine
 10
151.297999
 20
57.208718
 30
0.0
 11
151.297999
 21
63.810435
 31
0.0
  0
LINE
  5
623
100
AcDbEntity
  8
0
  6
Continuous
 62
     8
100
AcDbLine
 10
151.297999
 20
64.810347
 30
0.0
 11
151.297999
 21
65.81026
 31
0.0
  0
LINE
  5
624
100
AcDbEntity
  8
0
  6
Continuous
 62
     8
100
AcDbLine
 10
151.297999
 20
66.810172
 30
0.0
 11
151.297999
 21
73.411889
 31
0.0
  0
LINE
  5
625
100
AcDbEntity
  8
0
  6
Continuous
 62
     8
100
AcDbLine
 10
151.297999
 20
74.412014
 30
0.0
 11
151.297999
 21
75.411927
 31
0.0
  0
LINE
  5
626
100
AcDbEntity
  8
0
  6
Continuous
 62
     8
100
AcDbLine
 10
151.297999
 20
76.411839
 30
0.0
 11
151.297999
 21
83.013556
 31
0.0
  0
ENDBLK
  5
627
100
AcDbEntity
  8
0
100
AcDbBlockEnd
  0
BLOCK
  5
62A
100
AcDbEntity
  8
0
100
AcDbBlockBegin
  2
*B62
 70
     0
 10
0.0
 20
0.0
 30
0.0
  3
*B62
  1

  0
LINE
  5
62B
100
AcDbEntity
  8
0
  6
Continuous
 62
     8
100
AcDbLine
 10
29.298052
 20
189.414485
 30
0.0
 11
29.298052
 21
200.00693
 31
0.0
  0
ENDBLK
  5
62C
100
AcDbEntity
  8
0
100
AcDbBlockEnd
  0
BLOCK
  5
62F
100
AcDbEntity
  8
0
100
AcDbBlockBegin
  2
*B63
 70
     0
 10
0.0
 20
0.0
 30
0.0
  3
*B63
  1

  0
LINE
  5
630
100
AcDbEntity
  8
0
  6
Continuous
 62
     8
100
AcDbLine
 10
18.018181
 20
112.619421
 30
0.0
 11
77.298101
 21
112.619421
 31
0.0
  0
ENDBLK
  5
631
100
AcDbEntity
  8
0
100
AcDbBlockEnd
  0
BLOCK
  5
634
100
AcDbEntity
  8
0
100
AcDbBlockBegin
  2
*B64
 70
     0
 10
0.0
 20
0.0
 30
0.0
  3
*B64
  1

  0
LINE
  5
635
100
AcDbEntity
  8
0
  6
Continuous
 62
     8
100
AcDbLine
 10
225.297897
 20
112.619421
 30
0.0
 11
243.018037
 21
112.619421
 31
0.0
  0
ENDBLK
  5
636
100
AcDbEntity
  8
0
100
AcDbBlockEnd
  0
BLOCK
  5
639
100
AcDbEntity
  8
0
100
AcDbBlockBegin
  2
*B65
 70
     0
 10
0.0
 20
0.0
 30
0.0
  3
*B65
  1

  0
LINE
  5
63A
100
AcDbEntity
  8
0
  6
Continuous
 62
     6
100
AcDbLine
 10
212.798035
 20
55.708743
 30
0.0
 11
213.797947
 21
55.708743
 31
0.0
  0
LINE
  5
63B
100
AcDbEntity
  8
0
  6
Continuous
 62
     6
100
AcDbLine
 10
213.298097
 20
55.208893
 30
0.0
 11
213.298097
 21
56.208806
 31
0.0
  0
ENDBLK
  5
63C
100
AcDbEntity
  8
0
100
AcDbBlockEnd
  0
BLOCK
  5
63F
100
AcDbEntity
  8
0
100
AcDbBlockBegin
  2
*B66
 70
     0
 10
0.0
 20
0.0
 30
0.0
  3
*B66
  1

  0
LINE
  5
640
100
AcDbEntity
  8
0
  6
Continuous
 62
     6
100
AcDbLine
 10
29.298052
 20
55.208893
 30
0.0
 11
29.298052
 21
56.208806
 31
0.0
  0
LINE
  5
641
100
AcDbEntity
  8
0
  6
Continuous
 62
     6
100
AcDbLine
 10
28.79799
 20
55.708743
 30
0.0
 11
29.798115
 21
55.708743
 31
0.0
  0
ENDBLK
  5
642
100
AcDbEntity
  8
0
100
AcDbBlockEnd
  0
BLOCK
  5
645
100
AcDbEntity
  8
0
100
AcDbBlockBegin
  2
*B67
 70
     0
 10
0.0
 20
0.0
 30
0.0
  3
*B67
  1

  0
LINE
  5
646
100
AcDbEntity
  8
0
  6
Continuous
 62
     6
100
AcDbLine
 10
171.297948
 20
142.117795
 30
0.0
 11
171.297948
 21
143.117708
 31
0.0
  0
LINE
  5
647
100
AcDbEntity
  8
0
  6
Continuous
 62
     6
100
AcDbLine
 10
170.798098
 20
142.617858
 30
0.0
 11
171.798011
 21
142.617858
 31
0.0
  0
ENDBLK
  5
648
100
AcDbEntity
  8
0
100
AcDbBlockEnd
  0
BLOCK
  5
64B
100
AcDbEntity
  8
0
100
AcDbBlockBegin
  2
*B68
 70
     0
 10
0.0
 20
0.0
 30
0.0
  3
*B68
  1

  0
LINE
  5
64C
100
AcDbEntity
  8
0
  6
Continuous
 62
     6
100
AcDbLine
 10
273.297945
 20
55.208893
 30
0.0
 11
273.297945
 21
56.208806
 31
0.0
  0
LINE
  5
64D
100
AcDbEntity
  8
0
  6
Continuous
 62
     6
100
AcDbLine
 10
272.797883
 20
55.708743
 30
0.0
 11
273.798008
 21
55.708743
 31
0.0
  0
ENDBLK
  5
64E
100
AcDbEntity
  8
0
100
AcDbBlockEnd
  0
BLOCK
  5
651
100
AcDbEntity
  8
0
100
AcDbBlockBegin
  2
*B69
 70
     0
 10
0.0
 20
0.0
 30
0.0
  3
*B69
  1

  0
LINE
  5
652
100
AcDbEntity
  8
0
  6
Continuous
 62
     6
100
AcDbLine
 10
131.298049
 20
119.61902
 30
0.0
 11
131.298049
 21
120.619145
 31
0.0
  0
LINE
  5
653
100
AcDbEntity
  8
0
  6
Continuous
 62
     6
100
AcDbLine
 10
130.797987
 20
120.119083
 30
0.0
 11
131.798112
 21
120.119083
 31
0.0
  0
ENDBLK
  5
654
100
AcDbEntity
  8
0
100
AcDbBlockEnd
  0
BLOCK
  5
657
100
AcDbEntity
  8
0
100
AcDbBlockBegin
  2
*B70
 70
     0
 10
0.0
 20
0.0
 30
0.0
  3
*B70
  1

  0
LINE
  5
658
100
AcDbEntity
  8
0
  6
Continuous
 62
     6
100
AcDbLine
 10
131.298049
 20
142.117795
 30
0.0
 11
131.298049
 21
143.117708
 31
0.0
  0
LINE
  5
659
100
AcDbEntity
  8
0
  6
Continuous
 62
     6
100
AcDbLine
 10
130.797987
 20
142.617858
 30
0.0
 11
131.798112
 21
142.617858
 31
0.0
  0
ENDBLK
  5
65A
100
AcDbEntity
  8
0
100
AcDbBlockEnd
  0
BLOCK
  5
65D
100
AcDbEntity
  8
0
100
AcDbBlockBegin
  2
*B71
 70
     0
 10
0.0
 20
0.0
 30
0.0
  3
*B71
  1

  0
LINE
  5
65E
100
AcDbEntity
  8
0
  6
Continuous
 62
     6
100
AcDbLine
 10
239.297946
 20
55.208893
 30
0.0
 11
239.297946
 21
56.208806
 31
0.0
  0
LINE
  5
65F
100
AcDbEntity
  8
0
  6
Continuous
 62
     6
100
AcDbLine
 10
238.797884
 20
55.708743
 30
0.0
 11
239.798009
 21
55.708743
 31
0.0
  0
ENDBLK
  5
660
100
AcDbEntity
  8
0
100
AcDbBlockEnd
  0
BLOCK
  5
663
100
AcDbEntity
  8
0
100
AcDbBlockBegin
  2
*B72
 70
     0
 10
0.0
 20
0.0
 30
0.0
  3
*B72
  1

  0
LINE
  5
664
100
AcDbEntity
  8
0
  6
Continuous
 62
     6
100
AcDbLine
 10
88.798051
 20
55.708743
 30
0.0
 11
89.797963
 21
55.708743
 31
0.0
  0
LINE
  5
665
100
AcDbEntity
  8
0
  6
Continuous
 62
     6
100
AcDbLine
 10
89.298113
 20
55.208893
 30
0.0
 11
89.298113
 21
56.208806
 31
0.0
  0
ENDBLK
  5
666
100
AcDbEntity
  8
0
100
AcDbBlockEnd
  0
BLOCK
  5
669
100
AcDbEntity
  8
0
100
AcDbBlockBegin
  2
*B73
 70
     0
 10
0.0
 20
0.0
 30
0.0
  3
*B73
  1

  0
LINE
  5
66A
100
AcDbEntity
  8
0
  6
Continuous
 62
     6
100
AcDbLine
 10
187.298035
 20
55.208893
 30
0.0
 11
187.298035
 21
56.208806
 31
0.0
  0
LINE
  5
66B
100
AcDbEntity
  8
0
  6
Continuous
 62
     6
100
AcDbLine
 10
186.797973
 20
55.708743
 30
0.0
 11
187.798098
 21
55.708743
 31
0.0
  0
ENDBLK
  5
66C
100
AcDbEntity
  8
0
100
AcDbBlockEnd
  0
BLOCK
  5
66F
100
AcDbEntity
  8
0
100
AcDbBlockBegin
  2
*B74
 70
     0
 10
0.0
 20
0.0
 30
0.0
  3
*B74
  1

  0
LINE
  5
670
100
AcDbEntity
  8
0
  6
Continuous
 62
     6
100
AcDbLine
 10
62.797989
 20
55.708743
 30
0.0
 11
63.798114
 21
55.708743
 31
0.0
  0
LINE
  5
671
100
AcDbEntity
  8
0
  6
Continuous
 62
     6
100
AcDbLine
 10
63.298051
 20
55.208893
 30
0.0
 11
63.298051
 21
56.208806
 31
0.0
  0
ENDBLK
  5
672
100
AcDbEntity
  8
0
100
AcDbBlockEnd
  0
BLOCK
  5
675
100
AcDbEntity
  8
0
100
AcDbBlockBegin
  2
*B75
 70
     0
 10
0.0
 20
0.0
 30
0.0
  3
*B75
  1

  0
LINE
  5
676
100
AcDbEntity
  8
0
  6
Continuous
 62
     6
100
AcDbLine
 10
150.797936
 20
120.119083
 30
0.0
 11
151.798061
 21
120.119083
 31
0.0
  0
LINE
  5
677
100
AcDbEntity
  8
0
  6
Continuous
 62
     6
100
AcDbLine
 10
151.297999
 20
119.61902
 30
0.0
 11
151.297999
 21
120.619145
 31
0.0
  0
ENDBLK
  5
678
100
AcDbEntity
  8
0
100
AcDbBlockEnd
  0
BLOCK
  5
67B
100
AcDbEntity
  8
0
100
AcDbBlockBegin
  2
*B76
 70
     0
 10
0.0
 20
0.0
 30
0.0
  3
*B76
  1

  0
LINE
  5
67C
100
AcDbEntity
  8
0
  6
Continuous
 62
     6
100
AcDbLine
 10
115.297962
 20
55.208893
 30
0.0
 11
115.297962
 21
56.208806
 31
0.0
  0
LINE
  5
67D
100
AcDbEntity
  8
0
  6
Continuous
 62
     6
100
AcDbLine
 10
114.798112
 20
55.708743
 30
0.0
 11
115.798025
 21
55.708743
 31
0.0
  0
ENDBLK
  5
67E
100
AcDbEntity
  8
0
100
AcDbBlockEnd
  0
BLOCK
  5
681
100
AcDbEntity
  8
0
100
AcDbBlockBegin
  2
*B77
 70
     0
 10
0.0
 20
0.0
 30
0.0
  3
*B77
  1

  0
LINE
  5
682
100
AcDbEntity
  8
0
  6
Continuous
 62
     6
100
AcDbLine
 10
151.297999
 20
55.208893
 30
0.0
 11
151.297999
 21
56.208806
 31
0.0
  0
LINE
  5
683
100
AcDbEntity
  8
0
  6
Continuous
 62
     6
100
AcDbLine
 10
150.797936
 20
55.708743
 30
0.0
 11
151.798061
 21
55.708743
 31
0.0
  0
ENDBLK
  5
684
100
AcDbEntity
  8
0
100
AcDbBlockEnd
  0
BLOCK
  5
687
100
AcDbEntity
  8
0
100
AcDbBlockBegin
  2
*B78
 70
     0
 10
0.0
 20
0.0
 30
0.0
  3
*B78
  1

  0
LINE
  5
688
100
AcDbEntity
  8
0
  6
Continuous
 62
     6
100
AcDbLine
 10
170.798098
 20
165.11642
 30
0.0
 11
171.798011
 21
165.11642
 31
0.0
  0
LINE
  5
689
100
AcDbEntity
  8
0
  6
Continuous
 62
     6
100
AcDbLine
 10
171.297948
 20
164.61657
 30
0.0
 11
171.297948
 21
165.616482
 31
0.0
  0
ENDBLK
  5
68A
100
AcDbEntity
  8
0
100
AcDbBlockEnd
  0
BLOCK
  5
68D
100
AcDbEntity
  8
0
100
AcDbBlockBegin
  2
*B79
 70
     0
 10
0.0
 20
0.0
 30
0.0
  3
*B79
  1

  0
TEXT
  5
68E
100
AcDbEntity
  8
TEXT
  6
Continuous
 62
     0
100
AcDbText
 10
181.7829
 20
56.9
 30
0.0
 40
6.0
  1
3
100
AcDbText
  0
ENDBLK
  5
68F
100
AcDbEntity
  8
0
100
AcDbBlockEnd
  0
BLOCK
  5
692
100
AcDbEntity
  8
0
100
AcDbBlockBegin
  2
*B80
 70
     0
 10
0.0
 20
0.0
 30
0.0
  3
*B80
  1

  0
TEXT
  5
693
100
AcDbEntity
  8
TEXT
  6
Continuous
 62
     0
100
AcDbText
 10
109.7829
 20
56.9
 30
0.0
 40
6.0
  1
5
100
AcDbText
  0
ENDBLK
  5
694
100
AcDbEntity
  8
0
100
AcDbBlockEnd
  0
BLOCK
  5
697
100
AcDbEntity
  8
0
100
AcDbBlockBegin
  2
*B81
 70
     0
 10
0.0
 20
0.0
 30
0.0
  3
*B81
  1

  0
TEXT
  5
698
100
AcDbEntity
  8
TEXT
  6
Continuous
 62
     0
100
AcDbText
 10
169.3829
 20
140.0
 30
0.0
 40
6.0
  1
2
100
AcDbText
  0
ENDBLK
  5
699
100
AcDbEntity
  8
0
100
AcDbBlockEnd
  0
BLOCK
  5
69C
100
AcDbEntity
  8
0
100
AcDbBlockBegin
  2
*B82
 70
     0
 10
0.0
 20
0.0
 30
0.0
  3
*B82
  1

  0
TEXT
  5
69D
100
AcDbEntity
  8
TEXT
  6
Continuous
 62
     0
100
AcDbText
 10
145.7829
 20
56.9
 30
0.0
 40
6.0
  1
1
100
AcDbText
  0
ENDBLK
  5
69E
100
AcDbEntity
  8
0
100
AcDbBlockEnd
  0
BLOCK
  5
6A1
100
AcDbEntity
  8
0
100
AcDbBlockBegin
  2
*B83
 70
     0
 10
0.0
 20
0.0
 30
0.0
  3
*B83
  1

  0
TEXT
  5
6A2
100
AcDbEntity
  8
TEXT
  6
Continuous
 62
     0
100
AcDbText
 10
128.8829
 20
140.0
 30
0.0
 40
6.0
  1
4
100
AcDbText
  0
ENDBLK
  5
6A3
100
AcDbEntity
  8
0
100
AcDbBlockEnd
  0
BLOCK
  5
6A6
100
AcDbEntity
  8
0
100
AcDbBlockBegin
  2
*B84
 70
     0
 10
0.0
 20
0.0
 30
0.0
  3
*B84
  1

  0
TEXT
  5
6A7
100
AcDbEntity
  8
TEXT
  6
Continuous
 62
     0
100
AcDbText
 10
97.665799
 20
140.4
 30
0.0
 40
6.0
  1
14
100
AcDbText
  0
ENDBLK
  5
6A8
100
AcDbEntity
  8
0
100
AcDbBlockEnd
  0
BLOCK
  5
6AB
100
AcDbEntity
  8
0
100
AcDbBlockBegin
  2
*B85
 70
     0
 10
0.0
 20
0.0
 30
0.0
  3
*B85
  1

  0
TEXT
  5
6AC
100
AcDbEntity
  8
TEXT
  6
Continuous
 62
     0
100
AcDbText
 10
196.665799
 20
140.4
 30
0.0
 40
6.0
  1
12
100
AcDbText
  0
ENDBLK
  5
6AD
100
AcDbEntity
  8
0
100
AcDbBlockEnd
  0
BLOCK
  5
6B0
100
AcDbEntity
  8
0
100
AcDbBlockBegin
  2
*B86
 70
     0
 10
0.0
 20
0.0
 30
0.0
  3
*B86
  1

  0
TEXT
  5
6B1
100
AcDbEntity
  8
TEXT
  6
Continuous
 62
     0
100
AcDbText
 10
91.1
 20
46.9886
 30
0.0
 40
4.0
  1
0
 50
90.0
100
AcDbText
  0
ENDBLK
  5
6B2
100
AcDbEntity
  8
0
100
AcDbBlockEnd
  0
BLOCK
  5
6B5
100
AcDbEntity
  8
0
100
AcDbBlockBegin
  2
*B87
 70
     0
 10
0.0
 20
0.0
 30
0.0
  3
*B87
  1

  0
TEXT
  5
6B6
100
AcDbEntity
  8
TEXT
  6
Continuous
 62
     0
100
AcDbText
 10
84.5
 20
54.1886
 30
0.0
 40
4.0
  1
1
 50
90.0
100
AcDbText
  0
ENDBLK
  5
6B7
100
AcDbEntity
  8
0
100
AcDbBlockEnd
  0
BLOCK
  5
6BA
100
AcDbEntity
  8
0
100
AcDbBlockBegin
  2
*B88
 70
     0
 10
0.0
 20
0.0
 30
0.0
  3
*B88
  1

  0
TEXT
  5
6BB
100
AcDbEntity
  8
TEXT
  6
Continuous
 62
     0
100
AcDbText
 10
218.2
 20
57.3114
 30
0.0
 40
4.0
  1
1
 50
-90.0
100
AcDbText
  0
ENDBLK
  5
6BC
100
AcDbEntity
  8
0
100
AcDbBlockEnd
  0
BLOCK
  5
6BF
100
AcDbEntity
  8
0
100
AcDbBlockBegin
  2
*B89
 70
     0
 10
0.0
 20
0.0
 30
0.0
  3
*B89
  1

  0
TEXT
  5
6C0
100
AcDbEntity
  8
TEXT
  6
Continuous
 62
     0
100
AcDbText
 10
211.5
 20
64.4114
 30
0.0
 40
4.0
  1
0
 50
-90.0
100
AcDbText
  0
ENDBLK
  5
6C1
100
AcDbEntity
  8
0
100
AcDbBlockEnd
  0
BLOCK
  5
6C4
100
AcDbEntity
  8
0
100
AcDbBlockBegin
  2
*B90
 70
     0
 10
0.0
 20
0.0
 30
0.0
  3
*B90
  1

  0
TEXT
  5
6C5
100
AcDbEntity
  8
TEXT
  6
Continuous
 62
     0
100
AcDbText
 10
217.5
 20
139.750515
 30
0.0
 40
3.0
  1
45
 50
90.0
100
AcDbText
  0
ENDBLK
  5
6C6
100
AcDbEntity
  8
0
100
AcDbBlockEnd
  0
BLOCK
  5
6C9
100
AcDbEntity
  8
0
100
AcDbBlockBegin
  2
*B91
 70
     0
 10
0.0
 20
0.0
 30
0.0
  3
*B91
  1

  0
TEXT
  5
6CA
100
AcDbEntity
  8
TEXT
  6
Continuous
 62
     0
100
AcDbText
 10
166.422761
 20
86.5
 30
0.0
 40
3.0
  1
36
100
AcDbText
  0
ENDBLK
  5
6CB
100
AcDbEntity
  8
0
100
AcDbBlockEnd
  0
BLOCK
  5
6CE
100
AcDbEntity
  8
0
100
AcDbBlockBegin
  2
*B92
 70
     0
 10
0.0
 20
0.0
 30
0.0
  3
*B92
  1

  0
TEXT
  5
6CF
100
AcDbEntity
  8
TEXT
  6
Continuous
 62
     0
100
AcDbText
 10
130.422761
 20
86.5
 30
0.0
 40
3.0
  1
36
100
AcDbText
  0
ENDBLK
  5
6D0
100
AcDbEntity
  8
0
100
AcDbBlockEnd
  0
BLOCK
  5
6D3
100
AcDbEntity
  8
0
100
AcDbBlockBegin
  2
*B93
 70
     0
 10
0.0
 20
0.0
 30
0.0
  3
*B93
  1

  0
TEXT
  5
6D4
100
AcDbEntity
  8
TEXT
  6
Continuous
 62
     0
100
AcDbText
 10
217.5
 20
35.265205
 30
0.0
 40
3.0
  1
8
 50
90.0
100
AcDbText
  0
ENDBLK
  5
6D5
100
AcDbEntity
  8
0
100
AcDbBlockEnd
  0
BLOCK
  5
6D8
100
AcDbEntity
  8
0
100
AcDbBlockBegin
  2
*B94
 70
     0
 10
0.0
 20
0.0
 30
0.0
  3
*B94
  1

  0
TEXT
  5
6D9
100
AcDbEntity
  8
TEXT
  6
Continuous
 62
     0
100
AcDbText
 10
144.785031
 20
185.5
 30
0.0
 40
3.0
  1
G1/2"
100
AcDbText
  0
ENDBLK
  5
6DA
100
AcDbEntity
  8
0
100
AcDbBlockEnd
  0
BLOCK
  5
6DD
100
AcDbEntity
  8
0
100
AcDbBlockBegin
  2
*B95
 70
     0
 10
0.0
 20
0.0
 30
0.0
  3
*B95
  1

  0
TEXT
  5
6DE
100
AcDbEntity
  8
TEXT
  6
Continuous
 62
     0
100
AcDbText
 10
146.99419
 20
199.5
 30
0.0
 40
3.0
  1
146
100
AcDbText
  0
ENDBLK
  5
6DF
100
AcDbEntity
  8
0
100
AcDbBlockEnd
  0
BLOCK
  5
6E2
100
AcDbEntity
  8
0
100
AcDbBlockBegin
  2
*B96
 70
     0
 10
0.0
 20
0.0
 30
0.0
  3
*B96
  1

  0
TEXT
  5
6E3
100
AcDbEntity
  8
TEXT
  6
Continuous
 62
     0
100
AcDbText
 10
50.922761
 20
199.5
 30
0.0
 40
3.0
  1
48
100
AcDbText
  0
ENDBLK
  5
6E4
100
AcDbEntity
  8
0
100
AcDbBlockEnd
  0
BLOCK
  5
6E7
100
AcDbEntity
  8
0
100
AcDbBlockBegin
  2
*B97
 70
     0
 10
0.0
 20
0.0
 30
0.0
  3
*B97
  1

  0
TEXT
  5
6E8
100
AcDbEntity
  8
TEXT
  6
Continuous
 62
     0
100
AcDbText
 10
245.922761
 20
199.5
 30
0.0
 40
3.0
  1
48
100
AcDbText
  0
ENDBLK
  5
6E9
100
AcDbEntity
  8
0
100
AcDbBlockEnd
  0
BLOCK
  5
6EC
100
AcDbEntity
  8
0
100
AcDbBlockBegin
  2
*B98
 70
     0
 10
0.0
 20
0.0
 30
0.0
  3
*B98
  1

  0
TEXT
  5
6ED
100
AcDbEntity
  8
TEXT
  6
Continuous
 62
     0
100
AcDbText
 10
18.5
 20
148.25029
 30
0.0
 40
3.0
  1
77
 50
90.0
100
AcDbText
  0
ENDBLK
  5
6EE
100
AcDbEntity
  8
0
100
AcDbBlockEnd
  0
BLOCK
  5
6F1
100
AcDbEntity
  8
0
100
AcDbBlockBegin
  2
*B99
 70
     0
 10
0.0
 20
0.0
 30
0.0
  3
*B99
  1

  0
TEXT
  5
6F2
100
AcDbEntity
  8
TEXT
  6
Continuous
 62
     0
100
AcDbText
 10
19.5
 20
52.836634
 30
0.0
 40
3.0
  1
30
 50
90.0
100
AcDbText
  0
ENDBLK
  5
6F3
100
AcDbEntity
  8
0
100
AcDbBlockEnd
  0
BLOCK
  5
6F6
100
AcDbEntity
  8
0
100
AcDbBlockBegin
  2
*B100
 70
     0
 10
0.0
 20
0.0
 30
0.0
  3
*B100
  1

  0
TEXT
  5
6F7
100
AcDbEntity
  8
TEXT
  6
Continuous
 62
     0
100
AcDbText
 10
186.922761
 20
99.5
 30
0.0
 40
3.0
  1
37
100
AcDbText
  0
ENDBLK
  5
6F8
100
AcDbEntity
  8
0
100
AcDbBlockEnd
  0
BLOCK
  5
6FB
100
AcDbEntity
  8
0
100
AcDbBlockBegin
  2
*B101
 70
     0
 10
0.0
 20
0.0
 30
0.0
  3
*B101
  1

  0
TEXT
  5
6FC
100
AcDbEntity
  8
TEXT
  6
Continuous
 62
     0
100
AcDbText
 10
148.422761
 20
99.5
 30
0.0
 40
3.0
  1
40
100
AcDbText
  0
ENDBLK
  5
6FD
100
AcDbEntity
  8
0
100
AcDbBlockEnd
  0
BLOCK
  5
700
100
AcDbEntity
  8
0
100
AcDbBlockBegin
  2
*B102
 70
     0
 10
0.0
 20
0.0
 30
0.0
  3
*B102
  1

  0
TEXT
  5
701
100
AcDbEntity
  8
TEXT
  6
Continuous
 62
     0
100
AcDbText
 10
109.922761
 20
99.5
 30
0.0
 40
3.0
  1
37
100
AcDbText
  0
ENDBLK
  5
702
100
AcDbEntity
  8
0
100
AcDbBlockEnd
  0
BLOCK
  5
705
100
AcDbEntity
  8
0
100
AcDbBlockBegin
  2
*B103
 70
     0
 10
0.0
 20
0.0
 30
0.0
  3
*B103
  1

  0
TEXT
  5
706
100
AcDbEntity
  8
TEXT
  6
Continuous
 62
     0
100
AcDbText
 10
178.857143
 20
23.5
 30
0.0
 40
3.0
  1
M6
100
AcDbText
  0
ENDBLK
  5
707
100
AcDbEntity
  8
0
100
AcDbBlockEnd
  0
BLOCK
  5
70A
100
AcDbEntity
  8
0
100
AcDbBlockBegin
  2
*B104
 70
     0
 10
0.0
 20
0.0
 30
0.0
  3
*B104
  1

  0
TEXT
  5
70B
100
AcDbEntity
  8
TEXT
  6
Continuous
 62
     0
100
AcDbText
 10
101.922761
 20
86.5
 30
0.0
 40
3.0
  1
21
100
AcDbText
  0
ENDBLK
  5
70C
100
AcDbEntity
  8
0
100
AcDbBlockEnd
  0
BLOCK
  5
70F
100
AcDbEntity
  8
0
100
AcDbBlockBegin
  2
*B105
 70
     0
 10
0.0
 20
0.0
 30
0.0
  3
*B105
  1

  0
TEXT
  5
710
100
AcDbEntity
  8
TEXT
  6
Continuous
 62
     0
100
AcDbText
 10
239.5
 20
139.750515
 30
0.0
 40
3.0
  1
60
 50
90.0
100
AcDbText
  0
ENDBLK
  5
711
100
AcDbEntity
  8
0
100
AcDbBlockEnd
  0
BLOCK
  5
714
100
AcDbEntity
  8
0
100
AcDbBlockBegin
  2
*B106
 70
     0
 10
0.0
 20
0.0
 30
0.0
  3
*B106
  1

  0
TEXT
  5
715
100
AcDbEntity
  8
TEXT
  6
Continuous
 62
     0
100
AcDbText
 10
194.922761
 20
86.5
 30
0.0
 40
3.0
  1
21
100
AcDbText
  0
ENDBLK
  5
716
100
AcDbEntity
  8
0
100
AcDbBlockEnd
  0
ENDSEC
  0
SECTION
  2
ENTITIES
  0
INSERT
  5
30
100
AcDbEntity
  8
0
  6
Continuous
 62
   172
100
AcDbBlockReference
  2
*B0
 10
0.0
 20
0.0
 30
0.0
  0
INSERT
  5
1ED
100
AcDbEntity
  8
0
  6
Continuous
 62
   174
100
AcDbBlockReference
  2
*B2
 10
0.0
 20
0.0
 30
0.0
  0
INSERT
  5
1F7
100
AcDbEntity
  8
0
  6
HIDDEN
 62
   172
100
AcDbBlockReference
  2
*B3
 10
0.0
 20
0.0
 30
0.0
  0
INSERT
  5
406
100
AcDbEntity
  8
0
  6
Continuous
 62
   174
100
AcDbBlockReference
  2
*B4
 10
0.0
 20
0.0
 30
0.0
  0
INSERT
  5
40C
100
AcDbEntity
  8
0
  6
Continuous
 62
   172
100
AcDbBlockReference
  2
*B5
 10
0.0
 20
0.0
 30
0.0
  0
INSERT
  5
417
100
AcDbEntity
  8
0
  6
Continuous
 62
   172
100
AcDbBlockReference
  2
*B6
 10
0.0
 20
0.0
 30
0.0
  0
INSERT
  5
421
100
AcDbEntity
  8
0
  6
Continuous
 62
     0
100
AcDbBlockReference
  2
*B8
 10
0.0
 20
0.0
 30
0.0
  0
INSERT
  5
428
100
AcDbEntity
  8
0
  6
Continuous
 62
     0
100
AcDbBlockReference
  2
*B9
 10
0.0
 20
0.0
 30
0.0
  0
INSERT
  5
42F
100
AcDbEntity
  8
0
  6
Continuous
 62
     0
100
AcDbBlockReference
  2
*B10
 10
0.0
 20
0.0
 30
0.0
  0
INSERT
  5
436
100
AcDbEntity
  8
0
  6
Continuous
 62
     0
100
AcDbBlockReference
  2
*B11
 10
0.0
 20
0.0
 30
0.0
  0
INSERT
  5
43D
100
AcDbEntity
  8
0
  6
Continuous
 62
     0
100
AcDbBlockReference
  2
*B12
 10
0.0
 20
0.0
 30
0.0
  0
INSERT
  5
444
100
AcDbEntity
  8
0
  6
Continuous
 62
     0
100
AcDbBlockReference
  2
*B13
 10
0.0
 20
0.0
 30
0.0
  0
INSERT
  5
44B
100
AcDbEntity
  8
0
  6
Continuous
 62
     0
100
AcDbBlockReference
  2
*B14
 10
0.0
 20
0.0
 30
0.0
  0
INSERT
  5
452
100
AcDbEntity
  8
0
  6
Continuous
 62
     0
100
AcDbBlockReference
  2
*B15
 10
0.0
 20
0.0
 30
0.0
  0
INSERT
  5
459
100
AcDbEntity
  8
0
  6
Continuous
 62
     0
100
AcDbBlockReference
  2
*B16
 10
0.0
 20
0.0
 30
0.0
  0
INSERT
  5
460
100
AcDbEntity
  8
0
  6
Continuous
 62
     0
100
AcDbBlockReference
  2
*B17
 10
0.0
 20
0.0
 30
0.0
  0
INSERT
  5
467
100
AcDbEntity
  8
0
  6
Continuous
 62
     0
100
AcDbBlockReference
  2
*B18
 10
0.0
 20
0.0
 30
0.0
  0
INSERT
  5
46E
100
AcDbEntity
  8
0
  6
Continuous
 62
     0
100
AcDbBlockReference
  2
*B19
 10
0.0
 20
0.0
 30
0.0
  0
INSERT
  5
475
100
AcDbEntity
  8
0
  6
Continuous
 62
     0
100
AcDbBlockReference
  2
*B20
 10
0.0
 20
0.0
 30
0.0
  0
INSERT
  5
47C
100
AcDbEntity
  8
0
  6
Continuous
 62
     0
100
AcDbBlockReference
  2
*B21
 10
0.0
 20
0.0
 30
0.0
  0
INSERT
  5
483
100
AcDbEntity
  8
0
  6
Continuous
 62
     0
100
AcDbBlockReference
  2
*B22
 10
0.0
 20
0.0
 30
0.0
  0
INSERT
  5
48A
100
AcDbEntity
  8
0
  6
Continuous
 62
     0
100
AcDbBlockReference
  2
*B23
 10
0.0
 20
0.0
 30
0.0
  0
INSERT
  5
491
100
AcDbEntity
  8
0
  6
Continuous
 62
     0
100
AcDbBlockReference
  2
*B24
 10
0.0
 20
0.0
 30
0.0
  0
INSERT
  5
496
100
AcDbEntity
  8
0
  6
Continuous
 62
     8
100
AcDbBlockReference
  2
*B25
 10
0.0
 20
0.0
 30
0.0
  0
INSERT
  5
49C
100
AcDbEntity
  8
0
  6
Continuous
 62
     8
100
AcDbBlockReference
  2
*B26
 10
0.0
 20
0.0
 30
0.0
  0
INSERT
  5
4A1
100
AcDbEntity
  8
0
  6
Continuous
 62
     8
100
AcDbBlockReference
  2
*B27
 10
0.0
 20
0.0
 30
0.0
  0
INSERT
  5
4A6
100
AcDbEntity
  8
0
  6
Continuous
 62
     8
100
AcDbBlockReference
  2
*B28
 10
0.0
 20
0.0
 30
0.0
  0
INSERT
  5
4AB
100
AcDbEntity
  8
0
  6
Continuous
 62
     8
100
AcDbBlockReference
  2
*B29
 10
0.0
 20
0.0
 30
0.0
  0
INSERT
  5
4C3
100
AcDbEntity
  8
0
  6
Continuous
 62
     8
100
AcDbBlockReference
  2
*B30
 10
0.0
 20
0.0
 30
0.0
  0
INSERT
  5
4CE
100
AcDbEntity
  8
0
  6
Continuous
 62
     8
100
AcDbBlockReference
  2
*B31
 10
0.0
 20
0.0
 30
0.0
  0
INSERT
  5
4D9
100
AcDbEntity
  8
0
  6
Continuous
 62
     8
100
AcDbBlockReference
  2
*B32
 10
0.0
 20
0.0
 30
0.0
  0
INSERT
  5
4E2
100
AcDbEntity
  8
0
  6
Continuous
 62
     8
100
AcDbBlockReference
  2
*B33
 10
0.0
 20
0.0
 30
0.0
  0
INSERT
  5
4ED
100
AcDbEntity
  8
0
  6
Continuous
 62
     8
100
AcDbBlockReference
  2
*B34
 10
0.0
 20
0.0
 30
0.0
  0
INSERT
  5
4F2
100
AcDbEntity
  8
0
  6
Continuous
 62
     8
100
AcDbBlockReference
  2
*B35
 10
0.0
 20
0.0
 30
0.0
  0
INSERT
  5
4FB
100
AcDbEntity
  8
0
  6
Continuous
 62
     8
100
AcDbBlockReference
  2
*B36
 10
0.0
 20
0.0
 30
0.0
  0
INSERT
  5
506
100
AcDbEntity
  8
0
  6
Continuous
 62
     8
100
AcDbBlockReference
  2
*B37
 10
0.0
 20
0.0
 30
0.0
  0
INSERT
  5
50B
100
AcDbEntity
  8
0
  6
Continuous
 62
     8
100
AcDbBlockReference
  2
*B38
 10
0.0
 20
0.0
 30
0.0
  0
INSERT
  5
510
100
AcDbEntity
  8
0
  6
Continuous
 62
     8
100
AcDbBlockReference
  2
*B39
 10
0.0
 20
0.0
 30
0.0
  0
INSERT
  5
516
100
AcDbEntity
  8
0
  6
Continuous
 62
     8
100
AcDbBlockReference
  2
*B40
 10
0.0
 20
0.0
 30
0.0
  0
INSERT
  5
51C
100
AcDbEntity
  8
0
  6
Continuous
 62
     8
100
AcDbBlockReference
  2
*B41
 10
0.0
 20
0.0
 30
0.0
  0
INSERT
  5
522
100
AcDbEntity
  8
0
  6
Continuous
 62
     8
100
AcDbBlockReference
  2
*B42
 10
0.0
 20
0.0
 30
0.0
  0
INSERT
  5
533
100
AcDbEntity
  8
0
  6
Continuous
 62
     8
100
AcDbBlockReference
  2
*B43
 10
0.0
 20
0.0
 30
0.0
  0
INSERT
  5
542
100
AcDbEntity
  8
0
  6
Continuous
 62
     8
100
AcDbBlockReference
  2
*B44
 10
0.0
 20
0.0
 30
0.0
  0
INSERT
  5
548
100
AcDbEntity
  8
0
  6
Continuous
 62
     8
100
AcDbBlockReference
  2
*B45
 10
0.0
 20
0.0
 30
0.0
  0
INSERT
  5
54D
100
AcDbEntity
  8
0
  6
Continuous
 62
     8
100
AcDbBlockReference
  2
*B46
 10
0.0
 20
0.0
 30
0.0
  0
INSERT
  5
552
100
AcDbEntity
  8
0
  6
Continuous
 62
     8
100
AcDbBlockReference
  2
*B47
 10
0.0
 20
0.0
 30
0.0
  0
INSERT
  5
557
100
AcDbEntity
  8
0
  6
Continuous
 62
     8
100
AcDbBlockReference
  2
*B48
 10
0.0
 20
0.0
 30
0.0
  0
INSERT
  5
58B
100
AcDbEntity
  8
0
  6
Continuous
 62
     8
100
AcDbBlockReference
  2
*B49
 10
0.0
 20
0.0
 30
0.0
  0
INSERT
  5
590
100
AcDbEntity
  8
0
  6
Continuous
 62
     8
100
AcDbBlockReference
  2
*B50
 10
0.0
 20
0.0
 30
0.0
  0
INSERT
  5
595
100
AcDbEntity
  8
0
  6
Continuous
 62
     8
100
AcDbBlockReference
  2
*B51
 10
0.0
 20
0.0
 30
0.0
  0
INSERT
  5
59E
100
AcDbEntity
  8
0
  6
Continuous
 62
     8
100
AcDbBlockReference
  2
*B52
 10
0.0
 20
0.0
 30
0.0
  0
INSERT
  5
5A3
100
AcDbEntity
  8
0
  6
Continuous
 62
     8
100
AcDbBlockReference
  2
*B53
 10
0.0
 20
0.0
 30
0.0
  0
INSERT
  5
5A8
100
AcDbEntity
  8
0
  6
Continuous
 62
     8
100
AcDbBlockReference
  2
*B54
 10
0.0
 20
0.0
 30
0.0
  0
INSERT
  5
5AD
100
AcDbEntity
  8
0
  6
Continuous
 62
     8
100
AcDbBlockReference
  2
*B55
 10
0.0
 20
0.0
 30
0.0
  0
INSERT
  5
5B3
100
AcDbEntity
  8
0
  6
Continuous
 62
     8
100
AcDbBlockReference
  2
*B56
 10
0.0
 20
0.0
 30
0.0
  0
INSERT
  5
5EE
100
AcDbEntity
  8
0
  6
Continuous
 62
     8
100
AcDbBlockReference
  2
*B57
 10
0.0
 20
0.0
 30
0.0
  0
INSERT
  5
5FC
100
AcDbEntity
  8
0
  6
Continuous
 62
     8
100
AcDbBlockReference
  2
*B58
 10
0.0
 20
0.0
 30
0.0
  0
INSERT
  5
60E
100
AcDbEntity
  8
0
  6
Continuous
 62
     8
100
AcDbBlockReference
  2
*B59
 10
0.0
 20
0.0
 30
0.0
  0
INSERT
  5
61D
100
AcDbEntity
  8
0
  6
Continuous
 62
     8
100
AcDbBlockReference
  2
*B60
 10
0.0
 20
0.0
 30
0.0
  0
INSERT
  5
628
100
AcDbEntity
  8
0
  6
Continuous
 62
     8
100
AcDbBlockReference
  2
*B61
 10
0.0
 20
0.0
 30
0.0
  0
INSERT
  5
62D
100
AcDbEntity
  8
0
  6
Continuous
 62
     8
100
AcDbBlockReference
  2
*B62
 10
0.0
 20
0.0
 30
0.0
  0
INSERT
  5
632
100
AcDbEntity
  8
0
  6
Continuous
 62
     8
100
AcDbBlockReference
  2
*B63
 10
0.0
 20
0.0
 30
0.0
  0
INSERT
  5
637
100
AcDbEntity
  8
0
  6
Continuous
 62
     8
100
AcDbBlockReference
  2
*B64
 10
0.0
 20
0.0
 30
0.0
  0
INSERT
  5
63D
100
AcDbEntity
  8
0
  6
Continuous
 62
     6
100
AcDbBlockReference
  2
*B65
 10
0.0
 20
0.0
 30
0.0
  0
INSERT
  5
643
100
AcDbEntity
  8
0
  6
Continuous
 62
     6
100
AcDbBlockReference
  2
*B66
 10
0.0
 20
0.0
 30
0.0
  0
INSERT
  5
649
100
AcDbEntity
  8
0
  6
Continuous
 62
     6
100
AcDbBlockReference
  2
*B67
 10
0.0
 20
0.0
 30
0.0
  0
INSERT
  5
64F
100
AcDbEntity
  8
0
  6
Continuous
 62
     6
100
AcDbBlockReference
  2
*B68
 10
0.0
 20
0.0
 30
0.0
  0
INSERT
  5
655
100
AcDbEntity
  8
0
  6
Continuous
 62
     6
100
AcDbBlockReference
  2
*B69
 10
0.0
 20
0.0
 30
0.0
  0
INSERT
  5
65B
100
AcDbEntity
  8
0
  6
Continuous
 62
     6
100
AcDbBlockReference
  2
*B70
 10
0.0
 20
0.0
 30
0.0
  0
INSERT
  5
661
100
AcDbEntity
  8
0
  6
Continuous
 62
     6
100
AcDbBlockReference
  2
*B71
 10
0.0
 20
0.0
 30
0.0
  0
INSERT
  5
667
100
AcDbEntity
  8
0
  6
Continuous
 62
     6
100
AcDbBlockReference
  2
*B72
 10
0.0
 20
0.0
 30
0.0
  0
INSERT
  5
66D
100
AcDbEntity
  8
0
  6
Continuous
 62
     6
100
AcDbBlockReference
  2
*B73
 10
0.0
 20
0.0
 30
0.0
  0
INSERT
  5
673
100
AcDbEntity
  8
0
  6
Continuous
 62
     6
100
AcDbBlockReference
  2
*B74
 10
0.0
 20
0.0
 30
0.0
  0
INSERT
  5
679
100
AcDbEntity
  8
0
  6
Continuous
 62
     6
100
AcDbBlockReference
  2
*B75
 10
0.0
 20
0.0
 30
0.0
  0
INSERT
  5
67F
100
AcDbEntity
  8
0
  6
Continuous
 62
     6
100
AcDbBlockReference
  2
*B76
 10
0.0
 20
0.0
 30
0.0
  0
INSERT
  5
685
100
AcDbEntity
  8
0
  6
Continuous
 62
     6
100
AcDbBlockReference
  2
*B77
 10
0.0
 20
0.0
 30
0.0
  0
INSERT
  5
68B
100
AcDbEntity
  8
0
  6
Continuous
 62
     6
100
AcDbBlockReference
  2
*B78
 10
0.0
 20
0.0
 30
0.0
  0
INSERT
  5
690
100
AcDbEntity
  8
TEXT
  6
Continuous
 62
     0
100
AcDbBlockReference
  2
*B79
 10
0.0
 20
0.0
 30
0.0
  0
INSERT
  5
695
100
AcDbEntity
  8
TEXT
  6
Continuous
 62
     0
100
AcDbBlockReference
  2
*B80
 10
0.0
 20
0.0
 30
0.0
  0
INSERT
  5
69A
100
AcDbEntity
  8
TEXT
  6
Continuous
 62
     0
100
AcDbBlockReference
  2
*B81
 10
0.0
 20
0.0
 30
0.0
  0
INSERT
  5
69F
100
AcDbEntity
  8
TEXT
  6
Continuous
 62
     0
100
AcDbBlockReference
  2
*B82
 10
0.0
 20
0.0
 30
0.0
  0
INSERT
  5
6A4
100
AcDbEntity
  8
TEXT
  6
Continuous
 62
     0
100
AcDbBlockReference
  2
*B83
 10
0.0
 20
0.0
 30
0.0
  0
INSERT
  5
6A9
100
AcDbEntity
  8
TEXT
  6
Continuous
 62
     0
100
AcDbBlockReference
  2
*B84
 10
0.0
 20
0.0
 30
0.0
  0
INSERT
  5
6AE
100
AcDbEntity
  8
TEXT
  6
Continuous
 62
     0
100
AcDbBlockReference
  2
*B85
 10
0.0
 20
0.0
 30
0.0
  0
INSERT
  5
6B3
100
AcDbEntity
  8
TEXT
  6
Continuous
 62
     0
100
AcDbBlockReference
  2
*B86
 10
0.0
 20
0.0
 30
0.0
  0
INSERT
  5
6B8
100
AcDbEntity
  8
TEXT
  6
Continuous
 62
     0
100
AcDbBlockReference
  2
*B87
 10
0.0
 20
0.0
 30
0.0
  0
INSERT
  5
6BD
100
AcDbEntity
  8
TEXT
  6
Continuous
 62
     0
100
AcDbBlockReference
  2
*B88
 10
0.0
 20
0.0
 30
0.0
  0
INSERT
  5
6C2
100
AcDbEntity
  8
TEXT
  6
Continuous
 62
     0
100
AcDbBlockReference
  2
*B89
 10
0.0
 20
0.0
 30
0.0
  0
INSERT
  5
6C7
100
AcDbEntity
  8
TEXT
  6
Continuous
 62
     0
100
AcDbBlockReference
  2
*B90
 10
0.0
 20
0.0
 30
0.0
  0
INSERT
  5
6CC
100
AcDbEntity
  8
TEXT
  6
Continuous
 62
     0
100
AcDbBlockReference
  2
*B91
 10
0.0
 20
0.0
 30
0.0
  0
INSERT
  5
6D1
100
AcDbEntity
  8
TEXT
  6
Continuous
 62
     0
100
AcDbBlockReference
  2
*B92
 10
0.0
 20
0.0
 30
0.0
  0
INSERT
  5
6D6
100
AcDbEntity
  8
TEXT
  6
Continuous
 62
     0
100
AcDbBlockReference
  2
*B93
 10
0.0
 20
0.0
 30
0.0
  0
INSERT
  5
6DB
100
AcDbEntity
  8
TEXT
  6
Continuous
 62
     0
100
AcDbBlockReference
  2
*B94
 10
0.0
 20
0.0
 30
0.0
  0
INSERT
  5
6E0
100
AcDbEntity
  8
TEXT
  6
Continuous
 62
     0
100
AcDbBlockReference
  2
*B95
 10
0.0
 20
0.0
 30
0.0
  0
INSERT
  5
6E5
100
AcDbEntity
  8
TEXT
  6
Continuous
 62
     0
100
AcDbBlockReference
  2
*B96
 10
0.0
 20
0.0
 30
0.0
  0
INSERT
  5
6EA
100
AcDbEntity
  8
TEXT
  6
Continuous
 62
     0
100
AcDbBlockReference
  2
*B97
 10
0.0
 20
0.0
 30
0.0
  0
INSERT
  5
6EF
100
AcDbEntity
  8
TEXT
  6
Continuous
 62
     0
100
AcDbBlockReference
  2
*B98
 10
0.0
 20
0.0
 30
0.0
  0
INSERT
  5
6F4
100
AcDbEntity
  8
TEXT
  6
Continuous
 62
     0
100
AcDbBlockReference
  2
*B99
 10
0.0
 20
0.0
 30
0.0
  0
INSERT
  5
6F9
100
AcDbEntity
  8
TEXT
  6
Continuous
 62
     0
100
AcDbBlockReference
  2
*B100
 10
0.0
 20
0.0
 30
0.0
  0
INSERT
  5
6FE
100
AcDbEntity
  8
TEXT
  6
Continuous
 62
     0
100
AcDbBlockReference
  2
*B101
 10
0.0
 20
0.0
 30
0.0
  0
INSERT
  5
703
100
AcDbEntity
  8
TEXT
  6
Continuous
 62
     0
100
AcDbBlockReference
  2
*B102
 10
0.0
 20
0.0
 30
0.0
  0
INSERT
  5
708
100
AcDbEntity
  8
TEXT
  6
Continuous
 62
     0
100
AcDbBlockReference
  2
*B103
 10
0.0
 20
0.0
 30
0.0
  0
INSERT
  5
70D
100
AcDbEntity
  8
TEXT
  6
Continuous
 62
     0
100
AcDbBlockReference
  2
*B104
 10
0.0
 20
0.0
 30
0.0
  0
INSERT
  5
712
100
AcDbEntity
  8
TEXT
  6
Continuous
 62
     0
100
AcDbBlockReference
  2
*B105
 10
0.0
 20
0.0
 30
0.0
  0
INSERT
  5
717
100
AcDbEntity
  8
TEXT
  6
Continuous
 62
     0
100
AcDbBlockReference
  2
*B106
 10
0.0
 20
0.0
 30
0.0
  0
ENDSEC
  0
SECTION
  2
OBJECTS
  0
DICTIONARY
  5
19
100
AcDbDictionary
280
     0
281
     1
  3
ACAD_GROUP
350
1A
  3
ACAD_MLINESTYLE
350
1B
  3
ACAD_LAYOUT
350
1E
  3
ACAD_PLOTSETTINGS
350
22
  3
ACAD_PLOTSTYLENAME
350
1F
  3
ACAD_WIPEOUT_VARS
350
23
  0
DICTIONARY
  5
1A
102
{ACAD_REACTORS
330
19
102
}
100
AcDbDictionary
280
     0
281
     1
  0
DICTIONARY
  5
1B
102
{ACAD_REACTORS
330
19
102
}
100
AcDbDictionary
280
     0
281
     1
  3
Standard
350
1C
  0
MLINESTYLE
  5
1C
102
{ACAD_REACTORS
330
1B
102
}
100
AcDbMlineStyle
  2
Standard
 70
     0
  3

 62
     0
 51
90.0
 52
90.0
 71
     2
 49
0.5
 62
   256
  6
BYLAYER
 49
-0.5
 62
   256
  6
BYLAYER
  0
ACDBDICTIONARYWDFLT
  5
1F
102
{ACAD_REACTORS
330
19
102
}
100
AcDbDictionary
281
     1
  3
Normal
350
1D
100
AcDbDictionaryWithDefault
340
1D
  0
ACDBPLACEHOLDER
  5
1D
102
{ACAD_REACTORS
330
1F
102
}
  0
LAYOUT
  5
20
102
{ACAD_REACTORS
330
1E
102
}
100
AcDbPlotSettings
  1

  2

  4

  6

 40
0.0
 41
0.0
 42
0.0
 43
0.0
 44
0.0
 45
0.0
 46
0.0
 47
0.0
 48
0.0
 49
0.0
140
0.0
141
0.0
142
1.0
143
1.0
 70
     0
 72
     0
 73
     0
 74
     0
  7

 75
     0
147
1.0
148
0.0
149
0.0
100
AcDbLayout
  1
Model
 70
     0
 71
     0
 10
0.0
 20
0.0
 11
0.0
 21
0.0
 12
0.0
 22
0.0
 32
0.0
 14
0.0
 24
0.0
 34
0.0
 15
0.0
 25
0.0
 35
0.0
146
0.0
 13
0.0
 23
0.0
 33
0.0
 16
0.0
 26
0.0
 36
0.0
 17
0.0
 27
0.0
 37
0.0
 76
     0
330
A
331
0
345
0
346
0
  0
LAYOUT
  5
21
102
{ACAD_REACTORS
330
1E
102
}
100
AcDbPlotSettings
  1

  2

  4

  6

 40
0.0
 41
0.0
 42
0.0
 43
0.0
 44
0.0
 45
0.0
 46
0.0
 47
0.0
 48
0.0
 49
0.0
140
0.0
141
0.0
142
1.0
143
1.0
 70
     0
 72
     0
 73
     0
 74
     0
  7

 75
     0
147
1.0
148
0.0
149
0.0
100
AcDbLayout
  1
Layout1
 70
     0
 71
     0
 10
0.0
 20
0.0
 11
0.0
 21
0.0
 12
0.0
 22
0.0
 32
0.0
 14
0.0
 24
0.0
 34
0.0
 15
0.0
 25
0.0
 35
0.0
146
0.0
 13
0.0
 23
0.0
 33
0.0
 16
0.0
 26
0.0
 36
0.0
 17
0.0
 27
0.0
 37
0.0
 76
     0
330
B
331
0
345
0
346
0
  0
DICTIONARY
  5
1E
102
{ACAD_REACTORS
330
19
102
}
100
AcDbDictionary
280
     0
281
     1
  3
Layout1
350
21
  3
Model
350
20
  0
DICTIONARY
  5
22
102
{ACAD_REACTORS
330
19
102
}
100
AcDbDictionary
280
     0
281
     1
  0
WIPEOUTVARIABLES
  5
23
100
AcDbWipeoutVariables
 70
     1
  0
ENDSEC
  0
EOF
