  0
SECTION
  2
HEADER
  9
$ACADVER
  1
AC1015
  9
$ACADMAINTVER
 70
     6
  9
$DWGCODEPAGE
  3
DOS850
  9
$INSBASE
 10
0.0
 20
0.0
 30
0.0
  9
$EXTMIN
 10
0.0
 20
0.0
 30
0.0
  9
$EXTMAX
 10
297.0
 20
210.0
 30
0.0
  9
$LIMMIN
 10
0.0
 20
0.0
  9
$LIMMAX
 10
297.0
 20
210.0
  9
$ORTHOMODE
 70
     0
  9
$REGENMODE
 70
     1
  9
$FILLMODE
 70
     1
  9
$QTEXTMODE
 70
     0
  9
$MIRRTEXT
 70
     1
  9
$LTSCALE
 40
25.4
  9
$ATTMODE
 70
     1
  9
$TEXTSIZE
 40
3.5
  9
$TRACEWID
 40
0.05
  9
$TEXTSTYLE
  7
Standard
  9
$CLAYER
  8
0
  9
$CELTYPE
  6
Continuous
  9
$CECOLOR
 62
   256
  9
$CELTSCALE
 40
1.0
  9
$DISPSILH
 70
     0
  9
$DIMSCALE
 40
1.0
  9
$DIMASZ
 40
5.0
  9
$DIMEXO
 40
3.0
  9
$DIMDLI
 40
0.38
  9
$DIMRND
 40
0.0
  9
$DIMDLE
 40
0.0
  9
$DIMEXE
 40
2.0
  9
$DIMTP
 40
0.0
  9
$DIMTM
 40
0.0
  9
$DIMTXT
 40
3.5
  9
$DIMCEN
 40
4.0
  9
$DIMTSZ
 40
0.0
  9
$DIMTOL
 70
     0
  9
$DIMLIM
 70
     0
  9
$DIMTIH
 70
     1
  9
$DIMTOH
 70
     1
  9
$DIMSE1
 70
     0
  9
$DIMSE2
 70
     0
  9
$DIMTAD
 70
     0
  9
$DIMZIN
 70
     0
  9
$DIMBLK
  1

  9
$DIMASO
 70
     1
  9
$DIMSHO
 70
     1
  9
$DIMPOST
  1

  9
$DIMAPOST
  1

  9
$DIMALT
 70
     0
  9
$DIMALTD
 70
     2
  9
$DIMALTF
 40
25.4
  9
$DIMLFAC
 40
1.0
  9
$DIMTOFL
 70
     0
  9
$DIMTVP
 40
0.0
  9
$DIMTIX
 70
     0
  9
$DIMSOXD
 70
     0
  9
$DIMSAH
 70
     0
  9
$DIMBLK1
  1

  9
$DIMBLK2
  1

  9
$DIMSTYLE
  2
Standard
  9
$DIMCLRD
 70
     0
  9
$DIMCLRE
 70
     0
  9
$DIMCLRT
 70
     0
  9
$DIMTFAC
 40
1.0
  9
$DIMGAP
 40
1.0
  9
$DIMJUST
 70
     0
  9
$DIMSD1
 70
     0
  9
$DIMSD2
 70
     0
  9
$DIMTOLJ
 70
     1
  9
$DIMTZIN
 70
     0
  9
$DIMALTZ
 70
     0
  9
$DIMALTTZ
 70
     0
  9
$DIMUPT
 70
     0
  9
$DIMDEC
 70
     4
  9
$DIMTDEC
 70
     4
  9
$DIMALTU
 70
     2
  9
$DIMALTTD
 70
     2
  9
$DIMTXSTY
  7
Standard
  9
$DIMAUNIT
 70
     0
  9
$DIMADEC
 70
     0
  9
$DIMALTRND
 40
0.0
  9
$DIMAZIN
 70
     0
  9
$DIMDSEP
 70
     0
  9
$DIMATFIT
 70
     3
  9
$DIMFRAC
 70
     0
  9
$DIMLDRBLK
  1

  9
$DIMLUNIT
 70
     2
  9
$DIMLWD
 70
     0
  9
$DIMLWE
 70
     0
  9
$DIMTMOVE
 70
     0
  9
$LUNITS
 70
     2
  9
$LUPREC
 70
     4
  9
$SKETCHINC
 40
0.1
  9
$FILLETRAD
 40
0.0
  9
$AUNITS
 70
     0
  9
$AUPREC
 70
     0
  9
$MENU
  1
acad
  9
$ELEVATION
 40
0.0
  9
$PELEVATION
 40
0.0
  9
$THICKNESS
 40
0.0
  9
$LIMCHECK
 70
     0
  9
$CHAMFERA
 40
0.0
  9
$CHAMFERB
 40
0.0
  9
$CHAMFERC
 40
0.0
  9
$CHAMFERD
 40
0.0
  9
$SKPOLY
 70
     0
  9
$TDCREATE
 40
0.000000000
  9
$TDUCREATE
 40
0.000000000
  9
$TDUPDATE
 40
0.000000000
  9
$TDUUPDATE
 40
0.000000000
  9
$TDINDWG
 40
0.0000000000
  9
$TDUSRTIMER
 40
0.0000000000
  9
$USRTIMER
 70
     1
  9
$ANGBASE
 50
0.0
  9
$ANGDIR
 70
     0
  9
$PDMODE
 70
     0
  9
$PDSIZE
 40
0.0
  9
$PLINEWID
 40
0.0
  9
$SPLFRAME
 70
     0
  9
$SPLINETYPE
 70
     6
  9
$SPLINESEGS
 70
     8
  9
$HANDSEED
  5
6E9
  9
$SURFTAB1
 70
     6
  9
$SURFTAB2
 70
     6
  9
$SURFTYPE
 70
     6
  9
$SURFU
 70
     6
  9
$SURFV
 70
     6
  9
$UCSBASE
  2

  9
$UCSNAME
  2

  9
$UCSORG
 10
0.0
 20
0.0
 30
0.0
  9
$UCSXDIR
 10
1.0
 20
0.0
 30
0.0
  9
$UCSYDIR
 10
0.0
 20
1.0
 30
0.0
  9
$UCSORTHOREF
  2

  9
$UCSORTHOVIEW
 70
     0
  9
$UCSORGTOP
 10
0.0
 20
0.0
 30
0.0
  9
$UCSORGBOTTOM
 10
0.0
 20
0.0
 30
0.0
  9
$UCSORGLEFT
 10
0.0
 20
0.0
 30
0.0
  9
$UCSORGRIGHT
 10
0.0
 20
0.0
 30
0.0
  9
$UCSORGFRONT
 10
0.0
 20
0.0
 30
0.0
  9
$UCSORGBACK
 10
0.0
 20
0.0
 30
0.0
  9
$PUCSBASE
  2

  9
$PUCSNAME
  2

  9
$PUCSORG
 10
0.0
 20
0.0
 30
0.0
  9
$PUCSXDIR
 10
1.0
 20
0.0
 30
0.0
  9
$PUCSYDIR
 10
0.0
 20
1.0
 30
0.0
  9
$PUCSORTHOREF
  2

  9
$PUCSORTHOVIEW
 70
     0
  9
$PUCSORGTOP
 10
0.0
 20
0.0
 30
0.0
  9
$PUCSORGBOTTOM
 10
0.0
 20
0.0
 30
0.0
  9
$PUCSORGLEFT
 10
0.0
 20
0.0
 30
0.0
  9
$PUCSORGRIGHT
 10
0.0
 20
0.0
 30
0.0
  9
$PUCSORGFRONT
 10
0.0
 20
0.0
 30
0.0
  9
$PUCSORGBACK
 10
0.0
 20
0.0
 30
0.0
  9
$USERI1
 70
     0
  9
$USERI2
 70
     0
  9
$USERI3
 70
     0
  9
$USERI4
 70
     0
  9
$USERI5
 70
     0
  9
$USERR1
 40
0.0
  9
$USERR2
 40
0.0
  9
$USERR3
 40
0.0
  9
$USERR4
 40
0.0
  9
$USERR5
 40
0.0
  9
$WORLDVIEW
 70
     1
  9
$SHADEDGE
 70
     3
  9
$SHADEDIF
 70
    70
  9
$TILEMODE
 70
     1
  9
$MAXACTVP
 70
    16
  9
$PINSBASE
 10
0.0
 20
0.0
 30
0.0
  9
$PLIMCHECK
 70
     0
  9
$PEXTMIN
 10
1.000000E+20
 20
1.000000E+20
 30
1.000000E+20
  9
$PEXTMAX
 10
-1.000000E+20
 20
-1.000000E+20
 30
-1.000000E+20
  9
$PLIMMIN
 10
0.0
 20
0.0
  9
$PLIMMAX
 10
297.0
 20
210.0
  9
$UNITMODE
 70
     0
  9
$VISRETAIN
 70
     0
  9
$PLINEGEN
 70
     1
  9
$PSLTSCALE
 70
     0
  9
$TREEDEPTH
 70
  3020
  9
$CMLSTYLE
  2
Standard
  9
$CMLJUST
 70
     0
  9
$CMLSCALE
 40
1.0
  9
$PROXYGRAPHICS
 70
     0
  9
$MEASUREMENT
 70
     0
  9
$CELWEIGHT
370
     0
  9
$ENDCAPS
280
     0
  9
$JOINSTYLE
280
     0
  9
$LWDISPLAY
290
     0
  9
$INSUNITS
 70
     0
  9
$HYPERLINKBASE
  1

  9
$XEDIT
290
     1
  9
$CEPSNTYPE
380
     0
  9
$PSTYLEMODE
290
     0
  9
$FINGERPRINTGUID
  2

  9
$VERSIONGUID
  2

  9
$EXTNAMES
290
     1
  9
$PSVPSCALE
 40
0.0
  0
ENDSEC
  0
SECTION
  2
CLASSES
  0
CLASS
  1
LWPOLYLINE
  2
AcDbPolyline
  3
"AutoCAD"
 90
        0
280
     0
281
     1
  0
CLASS
  1
IMAGE
  2
AcDbRasterImage
  3
ISM
 90
      127
280
     0
281
     1
  0
CLASS
  1
OLE2FRAME
  2
AcDbOle2Frame
  3
""
 90
        0
280
     0
281
     1
  0
CLASS
  1
HATCH
  2
AcDbHatch
  3
"ACAD_SEDONA"
 90
        0
280
     0
281
     1
  0
CLASS
  1
DICTIONARYVAR
  2
AcDbDictionaryVar
  3
"AutoCAD"
 90
        0
280
     0
281
     0
  0
CLASS
  1
RASTERVARIABLES
  2
AcDbRasterVariables
  3
ISM
 90
        0
280
     0
281
     0
  0
CLASS
  1
IMAGEDEF
  2
AcDbRasterImageDef
  3
ISM
 90
        0
280
     0
281
     0
  0
CLASS
  1
IMAGEDEF_REACTOR
  2
AcDbRasterImageDefReactor
  3
ISM
 90
        1
280
     0
281
     0
  0
CLASS
  1
IDBUFFER
  2
AcDbIdBuffer
  3
"Acad"
 90
        0
280
     0
281
     0
  0
CLASS
  1
SPATIAL_FILTER
  2
AcDbSpatialFilter
  3
"Acad"
 90
        0
280
     0
281
     0
  0
CLASS
  1
XRECORD
  2
AcDbXrecord
  3
"<Built In>"
 90
        0
280
     0
281
     0
  0
CLASS
  1
SORTENTSTABLE
  2
AcDbSortentsTable
  3
"AutoCAD"
 90
        0
280
     0
281
     0
  0
CLASS
  1
LAYER_INDEX
  2
AcDbLayerIndex
  3
"Acad"
 90
        0
280
     0
281
     0
  0
CLASS
  1
SPATIAL_INDEX
  2
AcDbSpatialIndex
  3
"Acad"
 90
        0
280
     0
281
     0
  0
CLASS
  1
OBJECT_PTR
  2
CAseDLPNTableRecord
  3
"ASE-LPNTableRecord"
 90
        1
280
     0
281
     0
  0
CLASS
  1
LAYOUT
  2
AcDbLayout
  3
"AutoCAD 2000"
 90
        1
280
     0
281
     0
  0
CLASS
  1
PLOTSETTINGS
  2
AcDbPlotSettings
  3
"AutoCAD 2000"
 90
        1
280
     0
281
     0
  0
CLASS
  1
ACDBDICTIONARYWDFLT
  2
AcDbDictionaryWithDefault
  3
"AutoCAD 2000"
 90
        1
280
     0
281
     0
  0
CLASS
  1
ACDBPLACEHOLDER
  2
AcDbPlaceHolder
  3
"AutoCAD 2000"
 90
        1
280
     0
281
     0
  0
CLASS
  1
VBA_PROJECT
  2
AcDbVbaProject
  3
"acadvba"
 90
        1
280
     0
281
     0
  0
CLASS
  1
WIPEOUT
  2
AcDbWipeout
  3
WipeOut|AutoCAD Express Tool|expresstools@autodesk.com
 90
      127
280
     0
281
     1
  0
CLASS
  1
WIPEOUTVARIABLES
  2
AcDbWipeoutVariables
  3
WipeOut|AutoCAD Express Tool|expresstools@autodesk.com
 90
        0
280
     0
281
     0
  0
CLASS
  1
RTEXT
  2
RText
  3
RText|AutoCAD Express Tool|expresstools@autodesk.com
 90
        0
280
     0
281
     1
  0
CLASS
  1
ARCALIGNEDTEXT
  2
AcDbArcAlignedText
  3
ATEXT|AutoCAD Express Tool|expresstools@autodesk.com
 90
        0
280
     0
281
     1
  0
ENDSEC
  0
SECTION
  2
TABLES
  0
TABLE
  2
VPORT
  5
7
100
AcDbSymbolTable
 70
     1
  0
VPORT
  5
15
100
AcDbSymbolTableRecord
100
AcDbViewportTableRecord
  2
*ACTIVE
 70
     0
 10
0.0
 20
0.0
 11
1.0
 21
1.0
 12
6.591288
 22
4.579184
 13
0.0
 23
0.0
 14
1.0
 24
1.0
 15
0.0
 25
0.0
 16
0.0
 26
0.0
 36
1.0
 17
0.0
 27
0.0
 37
0.0
 40
9.158369
 41
0.688564
 42
50.0
 43
0.0
 44
0.0
 50
0.0
 51
0.0
 71
     0
 72
   100
 73
     1
 74
     1
 75
     0
 76
     0
 77
     0
 78
     0
281
     0
 65
     0
110
0.0
120
0.0
130
0.0
111
1.0
121
0.0
131
0.0
112
0.0
122
1.0
132
0.0
345
0
346
0
 79
     0
146
0.0
  0
ENDTAB
  0
TABLE
  2
LTYPE
  5
4
100
AcDbSymbolTable
 70
     7
  0
LTYPE
  5
11
100
AcDbSymbolTableRecord
100
AcDbLinetypeTableRecord
  2
ByBlock
 70
    64
  3

 72
    65
 73
     0
 40
0.0
  0
LTYPE
  5
12
100
AcDbSymbolTableRecord
100
AcDbLinetypeTableRecord
  2
ByLayer
 70
    64
  3

 72
    65
 73
     0
 40
0.0
  0
LTYPE
  5
13
100
AcDbSymbolTableRecord
100
AcDbLinetypeTableRecord
  2
Continuous
 70
    64
  3
Solid line
 72
    65
 73
     0
 40
0.0
  0
LTYPE
  5
24
100
AcDbSymbolTableRecord
100
AcDbLinetypeTableRecord
  2
HIDDEN
 70
    64
  3
_ _ _ _ _ _ _ _ _ _ _ _ _ _ _ _ _ _ _ _ _ _ _ _
 72
    65
 73
     2
 40
0.1875
 49
0.125
 74
     0
 49
-0.0625
 74
     0
  0
LTYPE
  5
25
100
AcDbSymbolTableRecord
100
AcDbLinetypeTableRecord
  2
DOTTED
 70
    64
  3
...............................................
 72
    65
 73
     2
 40
0.125
 49
0.0
 74
     0
 49
-0.125
 74
     0
  0
LTYPE
  5
26
100
AcDbSymbolTableRecord
100
AcDbLinetypeTableRecord
  2
CENTER
 70
    64
  3
____ _ ____ _ ____ _ ____ _ ____ _ ____ _ ____ 
 72
    65
 73
     4
 40
1.125
 49
0.75
 74
     0
 49
-0.125
 74
     0
 49
0.125
 74
     0
 49
-0.125
 74
     0
  0
LTYPE
  5
27
100
AcDbSymbolTableRecord
100
AcDbLinetypeTableRecord
  2
PHANTOM
 70
    64
  3
______  __  __  ______  __  __  ______  __  __ 
 72
    65
 73
     6
 40
1.25
 49
0.625
 74
     0
 49
-0.125
 74
     0
 49
0.125
 74
     0
 49
-0.125
 74
     0
 49
0.125
 74
     0
 49
-0.125
 74
     0
  0
ENDTAB
  0
TABLE
  2
LAYER
  5
2
100
AcDbSymbolTable
 70
     2
  0
LAYER
  5
14
100
AcDbSymbolTableRecord
100
AcDbLayerTableRecord
  2
0
 70
     0
 62
     7
  6
Continuous
290
     1
370
    -3
390
1D
  0
LAYER
  5
28
100
AcDbSymbolTableRecord
100
AcDbLayerTableRecord
  2
TEXT
 70
     0
 62
     8
  6
Continuous
290
     1
370
    -3
390
1F
  0
ENDTAB
  0
TABLE
  2
STYLE
  5
3
100
AcDbSymbolTable
 70
     1
  0
STYLE
  5
17
100
AcDbSymbolTableRecord
100
AcDbTextStyleTableRecord
  2
Standard
 70
     0
 40
0.0
 41
1.0
 50
0.0
 71
     0
 42
0.0
  3
txt
  4

  0
ENDTAB
  0
TABLE
  2
VIEW
  5
5
100
AcDbSymbolTable
 70
     0
  0
ENDTAB
  0
TABLE
  2
UCS
  5
6
100
AcDbSymbolTable
 70
     0
  0
ENDTAB
  0
TABLE
  2
APPID
  5
8
100
AcDbSymbolTable
 70
     1
  0
APPID
  5
16
100
AcDbSymbolTableRecord
100
AcDbRegAppTableRecord
  2
ACAD
 70
     0
  0
ENDTAB
  0
TABLE
  2
DIMSTYLE
  5
9
100
AcDbSymbolTable
 70
     1
100
AcDbDimStyleTable
 71
     0
  0
DIMSTYLE
105
18
100
AcDbSymbolTableRecord
100
AcDbDimStyleTableRecord
  2
Standard
 70
     0
  3

  4

 40
1.0
 41
0.18
 42
0.0625
 43
0.38
 44
0.18
 45
0.0
 46
0.0
 47
0.0
 48
0.0
 71
     0
 72
     0
 73
     1
 74
     1
 75
     0
 76
     0
 77
     0
 78
     0
 79
     0
140
0.18
141
0.09
142
0.0
143
25.4
144
1.0
145
0.0
146
1.0
147
0.09
148
0.0
170
     0
171
     2
172
     0
173
     0
174
     0
175
     0
176
     0
177
     0
178
     0
179
     0
271
     4
272
     4
273
     2
274
     2
275
     0
276
     0
277
     2
278
    46
279
     0
280
     0
281
     0
282
     0
283
     1
284
     0
285
     0
286
     0
288
     0
340
17
341
0
342
0
343
0
344
0
371
    -2
372
    -2
  0
ENDTAB
  0
TABLE
  2
BLOCK_RECORD
  5
1
100
AcDbSymbolTable
 70
   112
  0
BLOCK_RECORD
  5
A
100
AcDbSymbolTableRecord
100
AcDbBlockTableRecord
  2
*MODEL_SPACE
340
20
  0
BLOCK_RECORD
  5
B
100
AcDbSymbolTableRecord
100
AcDbBlockTableRecord
  2
*PAPER_SPACE
340
21
  0
BLOCK_RECORD
  5
29
100
AcDbSymbolTableRecord
100
AcDbBlockTableRecord
  2
*B0
340
0
  0
BLOCK_RECORD
  5
31
100
AcDbSymbolTableRecord
100
AcDbBlockTableRecord
  2
*B1
340
0
  0
BLOCK_RECORD
  5
34
100
AcDbSymbolTableRecord
100
AcDbBlockTableRecord
  2
*B2
340
0
  0
BLOCK_RECORD
  5
1F3
100
AcDbSymbolTableRecord
100
AcDbBlockTableRecord
  2
*B3
340
0
  0
BLOCK_RECORD
  5
1FD
100
AcDbSymbolTableRecord
100
AcDbBlockTableRecord
  2
*B4
340
0
  0
BLOCK_RECORD
  5
3F5
100
AcDbSymbolTableRecord
100
AcDbBlockTableRecord
  2
*B5
340
0
  0
BLOCK_RECORD
  5
3FB
100
AcDbSymbolTableRecord
100
AcDbBlockTableRecord
  2
*B6
340
0
  0
BLOCK_RECORD
  5
406
100
AcDbSymbolTableRecord
100
AcDbBlockTableRecord
  2
*B7
340
0
  0
BLOCK_RECORD
  5
409
100
AcDbSymbolTableRecord
100
AcDbBlockTableRecord
  2
*B8
340
0
  0
BLOCK_RECORD
  5
40F
100
AcDbSymbolTableRecord
100
AcDbBlockTableRecord
  2
*B9
340
0
  0
BLOCK_RECORD
  5
41A
100
AcDbSymbolTableRecord
100
AcDbBlockTableRecord
  2
*B10
340
0
  0
BLOCK_RECORD
  5
41D
100
AcDbSymbolTableRecord
100
AcDbBlockTableRecord
  2
*B11
340
0
  0
BLOCK_RECORD
  5
424
100
AcDbSymbolTableRecord
100
AcDbBlockTableRecord
  2
*B12
340
0
  0
BLOCK_RECORD
  5
42B
100
AcDbSymbolTableRecord
100
AcDbBlockTableRecord
  2
*B13
340
0
  0
BLOCK_RECORD
  5
432
100
AcDbSymbolTableRecord
100
AcDbBlockTableRecord
  2
*B14
340
0
  0
BLOCK_RECORD
  5
439
100
AcDbSymbolTableRecord
100
AcDbBlockTableRecord
  2
*B15
340
0
  0
BLOCK_RECORD
  5
440
100
AcDbSymbolTableRecord
100
AcDbBlockTableRecord
  2
*B16
340
0
  0
BLOCK_RECORD
  5
447
100
AcDbSymbolTableRecord
100
AcDbBlockTableRecord
  2
*B17
340
0
  0
BLOCK_RECORD
  5
44E
100
AcDbSymbolTableRecord
100
AcDbBlockTableRecord
  2
*B18
340
0
  0
BLOCK_RECORD
  5
455
100
AcDbSymbolTableRecord
100
AcDbBlockTableRecord
  2
*B19
340
0
  0
BLOCK_RECORD
  5
45C
100
AcDbSymbolTableRecord
100
AcDbBlockTableRecord
  2
*B20
340
0
  0
BLOCK_RECORD
  5
463
100
AcDbSymbolTableRecord
100
AcDbBlockTableRecord
  2
*B21
340
0
  0
BLOCK_RECORD
  5
46A
100
AcDbSymbolTableRecord
100
AcDbBlockTableRecord
  2
*B22
340
0
  0
BLOCK_RECORD
  5
471
100
AcDbSymbolTableRecord
100
AcDbBlockTableRecord
  2
*B23
340
0
  0
BLOCK_RECORD
  5
478
100
AcDbSymbolTableRecord
100
AcDbBlockTableRecord
  2
*B24
340
0
  0
BLOCK_RECORD
  5
47F
100
AcDbSymbolTableRecord
100
AcDbBlockTableRecord
  2
*B25
340
0
  0
BLOCK_RECORD
  5
486
100
AcDbSymbolTableRecord
100
AcDbBlockTableRecord
  2
*B26
340
0
  0
BLOCK_RECORD
  5
48D
100
AcDbSymbolTableRecord
100
AcDbBlockTableRecord
  2
*B27
340
0
  0
BLOCK_RECORD
  5
494
100
AcDbSymbolTableRecord
100
AcDbBlockTableRecord
  2
*B28
340
0
  0
BLOCK_RECORD
  5
49A
100
AcDbSymbolTableRecord
100
AcDbBlockTableRecord
  2
*B29
340
0
  0
BLOCK_RECORD
  5
49F
100
AcDbSymbolTableRecord
100
AcDbBlockTableRecord
  2
*B30
340
0
  0
BLOCK_RECORD
  5
4A4
100
AcDbSymbolTableRecord
100
AcDbBlockTableRecord
  2
*B31
340
0
  0
BLOCK_RECORD
  5
4D3
100
AcDbSymbolTableRecord
100
AcDbBlockTableRecord
  2
*B32
340
0
  0
BLOCK_RECORD
  5
4D8
100
AcDbSymbolTableRecord
100
AcDbBlockTableRecord
  2
*B33
340
0
  0
BLOCK_RECORD
  5
4DF
100
AcDbSymbolTableRecord
100
AcDbBlockTableRecord
  2
*B34
340
0
  0
BLOCK_RECORD
  5
4E8
100
AcDbSymbolTableRecord
100
AcDbBlockTableRecord
  2
*B35
340
0
  0
BLOCK_RECORD
  5
4F3
100
AcDbSymbolTableRecord
100
AcDbBlockTableRecord
  2
*B36
340
0
  0
BLOCK_RECORD
  5
4FF
100
AcDbSymbolTableRecord
100
AcDbBlockTableRecord
  2
*B37
340
0
  0
BLOCK_RECORD
  5
50A
100
AcDbSymbolTableRecord
100
AcDbBlockTableRecord
  2
*B38
340
0
  0
BLOCK_RECORD
  5
515
100
AcDbSymbolTableRecord
100
AcDbBlockTableRecord
  2
*B39
340
0
  0
BLOCK_RECORD
  5
51A
100
AcDbSymbolTableRecord
100
AcDbBlockTableRecord
  2
*B40
340
0
  0
BLOCK_RECORD
  5
51F
100
AcDbSymbolTableRecord
100
AcDbBlockTableRecord
  2
*B41
340
0
  0
BLOCK_RECORD
  5
524
100
AcDbSymbolTableRecord
100
AcDbBlockTableRecord
  2
*B42
340
0
  0
BLOCK_RECORD
  5
529
100
AcDbSymbolTableRecord
100
AcDbBlockTableRecord
  2
*B43
340
0
  0
BLOCK_RECORD
  5
532
100
AcDbSymbolTableRecord
100
AcDbBlockTableRecord
  2
*B44
340
0
  0
BLOCK_RECORD
  5
538
100
AcDbSymbolTableRecord
100
AcDbBlockTableRecord
  2
*B45
340
0
  0
BLOCK_RECORD
  5
53D
100
AcDbSymbolTableRecord
100
AcDbBlockTableRecord
  2
*B46
340
0
  0
BLOCK_RECORD
  5
542
100
AcDbSymbolTableRecord
100
AcDbBlockTableRecord
  2
*B47
340
0
  0
BLOCK_RECORD
  5
547
100
AcDbSymbolTableRecord
100
AcDbBlockTableRecord
  2
*B48
340
0
  0
BLOCK_RECORD
  5
552
100
AcDbSymbolTableRecord
100
AcDbBlockTableRecord
  2
*B49
340
0
  0
BLOCK_RECORD
  5
558
100
AcDbSymbolTableRecord
100
AcDbBlockTableRecord
  2
*B50
340
0
  0
BLOCK_RECORD
  5
55F
100
AcDbSymbolTableRecord
100
AcDbBlockTableRecord
  2
*B51
340
0
  0
BLOCK_RECORD
  5
564
100
AcDbSymbolTableRecord
100
AcDbBlockTableRecord
  2
*B52
340
0
  0
BLOCK_RECORD
  5
56A
100
AcDbSymbolTableRecord
100
AcDbBlockTableRecord
  2
*B53
340
0
  0
BLOCK_RECORD
  5
573
100
AcDbSymbolTableRecord
100
AcDbBlockTableRecord
  2
*B54
340
0
  0
BLOCK_RECORD
  5
579
100
AcDbSymbolTableRecord
100
AcDbBlockTableRecord
  2
*B55
340
0
  0
BLOCK_RECORD
  5
57E
100
AcDbSymbolTableRecord
100
AcDbBlockTableRecord
  2
*B56
340
0
  0
BLOCK_RECORD
  5
58B
100
AcDbSymbolTableRecord
100
AcDbBlockTableRecord
  2
*B57
340
0
  0
BLOCK_RECORD
  5
590
100
AcDbSymbolTableRecord
100
AcDbBlockTableRecord
  2
*B58
340
0
  0
BLOCK_RECORD
  5
595
100
AcDbSymbolTableRecord
100
AcDbBlockTableRecord
  2
*B59
340
0
  0
BLOCK_RECORD
  5
59B
100
AcDbSymbolTableRecord
100
AcDbBlockTableRecord
  2
*B60
340
0
  0
BLOCK_RECORD
  5
5A0
100
AcDbSymbolTableRecord
100
AcDbBlockTableRecord
  2
*B61
340
0
  0
BLOCK_RECORD
  5
5B0
100
AcDbSymbolTableRecord
100
AcDbBlockTableRecord
  2
*B62
340
0
  0
BLOCK_RECORD
  5
5B7
100
AcDbSymbolTableRecord
100
AcDbBlockTableRecord
  2
*B63
340
0
  0
BLOCK_RECORD
  5
5BC
100
AcDbSymbolTableRecord
100
AcDbBlockTableRecord
  2
*B64
340
0
  0
BLOCK_RECORD
  5
5C1
100
AcDbSymbolTableRecord
100
AcDbBlockTableRecord
  2
*B65
340
0
  0
BLOCK_RECORD
  5
5D1
100
AcDbSymbolTableRecord
100
AcDbBlockTableRecord
  2
*B66
340
0
  0
BLOCK_RECORD
  5
5F9
100
AcDbSymbolTableRecord
100
AcDbBlockTableRecord
  2
*B67
340
0
  0
BLOCK_RECORD
  5
5FF
100
AcDbSymbolTableRecord
100
AcDbBlockTableRecord
  2
*B68
340
0
  0
BLOCK_RECORD
  5
604
100
AcDbSymbolTableRecord
100
AcDbBlockTableRecord
  2
*B69
340
0
  0
BLOCK_RECORD
  5
60A
100
AcDbSymbolTableRecord
100
AcDbBlockTableRecord
  2
*B70
340
0
  0
BLOCK_RECORD
  5
610
100
AcDbSymbolTableRecord
100
AcDbBlockTableRecord
  2
*B71
340
0
  0
BLOCK_RECORD
  5
616
100
AcDbSymbolTableRecord
100
AcDbBlockTableRecord
  2
*B72
340
0
  0
BLOCK_RECORD
  5
61C
100
AcDbSymbolTableRecord
100
AcDbBlockTableRecord
  2
*B73
340
0
  0
BLOCK_RECORD
  5
622
100
AcDbSymbolTableRecord
100
AcDbBlockTableRecord
  2
*B74
340
0
  0
BLOCK_RECORD
  5
628
100
AcDbSymbolTableRecord
100
AcDbBlockTableRecord
  2
*B75
340
0
  0
BLOCK_RECORD
  5
62E
100
AcDbSymbolTableRecord
100
AcDbBlockTableRecord
  2
*B76
340
0
  0
BLOCK_RECORD
  5
634
100
AcDbSymbolTableRecord
100
AcDbBlockTableRecord
  2
*B77
340
0
  0
BLOCK_RECORD
  5
63A
100
AcDbSymbolTableRecord
100
AcDbBlockTableRecord
  2
*B78
340
0
  0
BLOCK_RECORD
  5
640
100
AcDbSymbolTableRecord
100
AcDbBlockTableRecord
  2
*B79
340
0
  0
BLOCK_RECORD
  5
646
100
AcDbSymbolTableRecord
100
AcDbBlockTableRecord
  2
*B80
340
0
  0
BLOCK_RECORD
  5
64C
100
AcDbSymbolTableRecord
100
AcDbBlockTableRecord
  2
*B81
340
0
  0
BLOCK_RECORD
  5
652
100
AcDbSymbolTableRecord
100
AcDbBlockTableRecord
  2
*B82
340
0
  0
BLOCK_RECORD
  5
658
100
AcDbSymbolTableRecord
100
AcDbBlockTableRecord
  2
*B83
340
0
  0
BLOCK_RECORD
  5
65D
100
AcDbSymbolTableRecord
100
AcDbBlockTableRecord
  2
*B84
340
0
  0
BLOCK_RECORD
  5
662
100
AcDbSymbolTableRecord
100
AcDbBlockTableRecord
  2
*B85
340
0
  0
BLOCK_RECORD
  5
667
100
AcDbSymbolTableRecord
100
AcDbBlockTableRecord
  2
*B86
340
0
  0
BLOCK_RECORD
  5
66C
100
AcDbSymbolTableRecord
100
AcDbBlockTableRecord
  2
*B87
340
0
  0
BLOCK_RECORD
  5
671
100
AcDbSymbolTableRecord
100
AcDbBlockTableRecord
  2
*B88
340
0
  0
BLOCK_RECORD
  5
676
100
AcDbSymbolTableRecord
100
AcDbBlockTableRecord
  2
*B89
340
0
  0
BLOCK_RECORD
  5
67B
100
AcDbSymbolTableRecord
100
AcDbBlockTableRecord
  2
*B90
340
0
  0
BLOCK_RECORD
  5
680
100
AcDbSymbolTableRecord
100
AcDbBlockTableRecord
  2
*B91
340
0
  0
BLOCK_RECORD
  5
685
100
AcDbSymbolTableRecord
100
AcDbBlockTableRecord
  2
*B92
340
0
  0
BLOCK_RECORD
  5
68A
100
AcDbSymbolTableRecord
100
AcDbBlockTableRecord
  2
*B93
340
0
  0
BLOCK_RECORD
  5
68F
100
AcDbSymbolTableRecord
100
AcDbBlockTableRecord
  2
*B94
340
0
  0
BLOCK_RECORD
  5
694
100
AcDbSymbolTableRecord
100
AcDbBlockTableRecord
  2
*B95
340
0
  0
BLOCK_RECORD
  5
699
100
AcDbSymbolTableRecord
100
AcDbBlockTableRecord
  2
*B96
340
0
  0
BLOCK_RECORD
  5
69E
100
AcDbSymbolTableRecord
100
AcDbBlockTableRecord
  2
*B97
340
0
  0
BLOCK_RECORD
  5
6A3
100
AcDbSymbolTableRecord
100
AcDbBlockTableRecord
  2
*B98
340
0
  0
BLOCK_RECORD
  5
6A8
100
AcDbSymbolTableRecord
100
AcDbBlockTableRecord
  2
*B99
340
0
  0
BLOCK_RECORD
  5
6AD
100
AcDbSymbolTableRecord
100
AcDbBlockTableRecord
  2
*B100
340
0
  0
BLOCK_RECORD
  5
6B2
100
AcDbSymbolTableRecord
100
AcDbBlockTableRecord
  2
*B101
340
0
  0
BLOCK_RECORD
  5
6B7
100
AcDbSymbolTableRecord
100
AcDbBlockTableRecord
  2
*B102
340
0
  0
BLOCK_RECORD
  5
6BC
100
AcDbSymbolTableRecord
100
AcDbBlockTableRecord
  2
*B103
340
0
  0
BLOCK_RECORD
  5
6C1
100
AcDbSymbolTableRecord
100
AcDbBlockTableRecord
  2
*B104
340
0
  0
BLOCK_RECORD
  5
6C6
100
AcDbSymbolTableRecord
100
AcDbBlockTableRecord
  2
*B105
340
0
  0
BLOCK_RECORD
  5
6CB
100
AcDbSymbolTableRecord
100
AcDbBlockTableRecord
  2
*B106
340
0
  0
BLOCK_RECORD
  5
6D0
100
AcDbSymbolTableRecord
100
AcDbBlockTableRecord
  2
*B107
340
0
  0
BLOCK_RECORD
  5
6D5
100
AcDbSymbolTableRecord
100
AcDbBlockTableRecord
  2
*B108
340
0
  0
BLOCK_RECORD
  5
6DA
100
AcDbSymbolTableRecord
100
AcDbBlockTableRecord
  2
*B109
340
0
  0
BLOCK_RECORD
  5
6DF
100
AcDbSymbolTableRecord
100
AcDbBlockTableRecord
  2
*B110
340
0
  0
BLOCK_RECORD
  5
6E4
100
AcDbSymbolTableRecord
100
AcDbBlockTableRecord
  2
*B111
340
0
  0
ENDTAB
  0
ENDSEC
  0
SECTION
  2
BLOCKS
  0
BLOCK
  5
D
100
AcDbEntity
  8
0
100
AcDbBlockBegin
  2
*MODEL_SPACE
 70
     0
 10
0.0
 20
0.0
 30
0.0
  3
*MODEL_SPACE
  1

  0
ENDBLK
  5
E
100
AcDbEntity
  8
0
100
AcDbBlockEnd
  0
BLOCK
  5
F
100
AcDbEntity
 67
     1
  8
0
100
AcDbBlockBegin
  2
*PAPER_SPACE
 70
     0
 10
0.0
 20
0.0
 30
0.0
  3
*PAPER_SPACE
  1

  0
ENDBLK
  5
10
100
AcDbEntity
 67
     1
  8
0
100
AcDbBlockEnd
  0
BLOCK
  5
2A
100
AcDbEntity
  8
0
100
AcDbBlockBegin
  2
*B0
 70
     0
 10
0.0
 20
0.0
 30
0.0
  3
*B0
  1

  0
LINE
  5
2B
100
AcDbEntity
  8
0
  6
Continuous
 62
   172
100
AcDbLine
 10
143.0
 20
38.55
 30
0.0
 11
143.0
 21
31.25
 31
0.0
  0
LINE
  5
2C
100
AcDbEntity
  8
0
  6
Continuous
 62
   172
100
AcDbLine
 10
146.9
 20
38.55
 30
0.0
 11
146.9
 21
31.25
 31
0.0
  0
LINE
  5
2D
100
AcDbEntity
  8
0
  6
Continuous
 62
   172
100
AcDbLine
 10
167.0
 20
38.55
 30
0.0
 11
167.0
 21
31.25
 31
0.0
  0
LINE
  5
2E
100
AcDbEntity
  8
0
  6
Continuous
 62
   172
100
AcDbLine
 10
170.9
 20
38.55
 30
0.0
 11
170.9
 21
31.25
 31
0.0
  0
ENDBLK
  5
2F
100
AcDbEntity
  8
0
100
AcDbBlockEnd
  0
BLOCK
  5
32
100
AcDbEntity
  8
0
100
AcDbBlockBegin
  2
*B1
 70
     0
 10
0.0
 20
0.0
 30
0.0
  3
*B1
  1

  0
ENDBLK
  5
33
100
AcDbEntity
  8
0
100
AcDbBlockEnd
  0
BLOCK
  5
35
100
AcDbEntity
  8
0
100
AcDbBlockBegin
  2
*B2
 70
     0
 10
0.0
 20
0.0
 30
0.0
  3
*B2
  1

  0
ARC
  5
36
100
AcDbEntity
  8
0
  6
Continuous
 62
   174
100
AcDbCircle
 10
222.944976
 20
49.56448
 30
0.0
 40
3.4
100
AcDbArc
 50
-90.0
 51
90.0
  0
ARC
  5
37
100
AcDbEntity
  8
0
  6
Continuous
 62
   174
100
AcDbCircle
 10
222.944976
 20
49.56448
 30
0.0
 40
3.4
100
AcDbArc
 50
-270.0
 51
-90.0
  0
ARC
  5
38
100
AcDbEntity
  8
0
  6
Continuous
 62
   174
100
AcDbCircle
 10
90.944976
 20
49.56448
 30
0.0
 40
3.4
100
AcDbArc
 50
-270.0
 51
-90.0
  0
ARC
  5
39
100
AcDbEntity
  8
0
  6
Continuous
 62
   174
100
AcDbCircle
 10
90.944976
 20
49.56448
 30
0.0
 40
3.4
100
AcDbArc
 50
-90.0
 51
90.0
  0
ARC
  5
3A
100
AcDbEntity
  8
0
  6
Continuous
 62
   174
100
AcDbCircle
 10
222.944976
 20
49.56448
 30
0.0
 40
3.0
100
AcDbArc
 50
-37.286546
 51
127.286546
  0
ARC
  5
3B
100
AcDbEntity
  8
0
  6
Continuous
 62
   174
100
AcDbCircle
 10
90.944976
 20
49.56448
 30
0.0
 40
3.0
100
AcDbArc
 50
-217.286546
 51
-52.713454
  0
LINE
  5
3C
100
AcDbEntity
  8
0
  6
Continuous
 62
   174
100
AcDbLine
 10
225.331823
 20
47.747075
 30
0.0
 11
221.127571
 21
51.951327
 31
0.0
  0
LINE
  5
3D
100
AcDbEntity
  8
0
  6
Continuous
 62
   174
100
AcDbLine
 10
88.558128
 20
51.381885
 30
0.0
 11
92.76238
 21
47.177633
 31
0.0
  0
ARC
  5
3E
100
AcDbEntity
  8
0
  6
Continuous
 62
   174
100
AcDbCircle
 10
222.944976
 20
49.56448
 30
0.0
 40
3.0
100
AcDbArc
 50
-221.228296
 51
-48.771704
  0
ARC
  5
3F
100
AcDbEntity
  8
0
  6
Continuous
 62
   174
100
AcDbCircle
 10
90.944976
 20
49.56448
 30
0.0
 40
3.0
100
AcDbArc
 50
-41.228296
 51
131.228296
  0
LINE
  5
40
100
AcDbEntity
  8
0
  6
Continuous
 62
   174
100
AcDbLine
 10
220.688707
 20
51.541663
 30
0.0
 11
224.922159
 21
47.308211
 31
0.0
  0
LINE
  5
41
100
AcDbEntity
  8
0
  6
Continuous
 62
   174
100
AcDbLine
 10
93.201244
 20
47.587297
 30
0.0
 11
88.967793
 21
51.820748
 31
0.0
  0
LINE
  5
42
100
AcDbEntity
  8
0
  6
Continuous
 62
   174
100
AcDbLine
 10
249.444976
 20
56.06448
 30
0.0
 11
252.444976
 21
56.06448
 31
0.0
  0
LINE
  5
43
100
AcDbEntity
  8
0
  6
Continuous
 62
   174
100
AcDbLine
 10
249.444976
 20
43.06448
 30
0.0
 11
252.444976
 21
43.06448
 31
0.0
  0
LINE
  5
44
100
AcDbEntity
  8
0
  6
Continuous
 62
   174
100
AcDbLine
 10
64.444976
 20
43.06448
 30
0.0
 11
61.444976
 21
43.06448
 31
0.0
  0
LINE
  5
45
100
AcDbEntity
  8
0
  6
Continuous
 62
   174
100
AcDbLine
 10
64.444976
 20
56.06448
 30
0.0
 11
61.444976
 21
56.06448
 31
0.0
  0
LINE
  5
46
100
AcDbEntity
  8
0
  6
Continuous
 62
   174
100
AcDbLine
 10
64.444976
 20
56.06448
 30
0.0
 11
61.444976
 21
56.06448
 31
0.0
  0
ARC
  5
47
100
AcDbEntity
  8
0
  6
Continuous
 62
   174
100
AcDbCircle
 10
178.944976
 20
49.56448
 30
0.0
 40
6.58
100
AcDbArc
 50
0.0
 51
0.887317
  0
ARC
  5
48
100
AcDbEntity
  8
0
  6
Continuous
 62
   174
100
AcDbCircle
 10
178.944976
 20
49.56448
 30
0.0
 40
6.58
100
AcDbArc
 50
-0.887317
 51
0.0
  0
LINE
  5
49
100
AcDbEntity
  8
0
  6
Continuous
 62
   174
100
AcDbLine
 10
252.444976
 20
40.56448
 30
0.0
 11
253.144976
 21
40.56448
 31
0.0
  0
LINE
  5
4A
100
AcDbEntity
  8
0
  6
Continuous
 62
   174
100
AcDbLine
 10
252.444976
 20
40.56448
 30
0.0
 11
253.144976
 21
40.56448
 31
0.0
  0
ARC
  5
4B
100
AcDbEntity
  8
0
  6
Continuous
 62
   174
100
AcDbCircle
 10
156.944976
 20
49.56448
 30
0.0
 40
5.875
100
AcDbArc
 50
180.0
 51
214.613069
  0
ARC
  5
4C
100
AcDbEntity
  8
0
  6
Continuous
 62
   174
100
AcDbCircle
 10
156.944976
 20
49.56448
 30
0.0
 40
5.875
100
AcDbArc
 50
214.613069
 51
217.636885
  0
ARC
  5
4D
100
AcDbEntity
  8
0
  6
Continuous
 62
   174
100
AcDbCircle
 10
156.944976
 20
49.56448
 30
0.0
 40
5.875
100
AcDbArc
 50
217.636885
 51
250.673999
  0
ARC
  5
4E
100
AcDbEntity
  8
0
  6
Continuous
 62
   174
100
AcDbCircle
 10
156.944976
 20
49.56448
 30
0.0
 40
5.875
100
AcDbArc
 50
250.673999
 51
252.807817
  0
ARC
  5
4F
100
AcDbEntity
  8
0
  6
Continuous
 62
   174
100
AcDbCircle
 10
156.944976
 20
49.56448
 30
0.0
 40
5.875
100
AcDbArc
 50
252.807817
 51
287.192183
  0
ARC
  5
50
100
AcDbEntity
  8
0
  6
Continuous
 62
   174
100
AcDbCircle
 10
156.944976
 20
49.56448
 30
0.0
 40
5.875
100
AcDbArc
 50
287.192183
 51
289.326001
  0
ARC
  5
51
100
AcDbEntity
  8
0
  6
Continuous
 62
   174
100
AcDbCircle
 10
178.944976
 20
49.56448
 30
0.0
 40
5.875
100
AcDbArc
 50
144.942784
 51
180.0
  0
ARC
  5
52
100
AcDbEntity
  8
0
  6
Continuous
 62
   174
100
AcDbCircle
 10
178.944976
 20
49.56448
 30
0.0
 40
5.875
100
AcDbArc
 50
289.645968
 51
322.3729
  0
ARC
  5
53
100
AcDbEntity
  8
0
  6
Continuous
 62
   174
100
AcDbCircle
 10
178.944976
 20
49.56448
 30
0.0
 40
5.875
100
AcDbArc
 50
322.3729
 51
324.942784
  0
ARC
  5
54
100
AcDbEntity
  8
0
  6
Continuous
 62
   174
100
AcDbCircle
 10
178.944976
 20
49.56448
 30
0.0
 40
5.875
100
AcDbArc
 50
324.942784
 51
360.0
  0
ARC
  5
55
100
AcDbEntity
  8
0
  6
Continuous
 62
   174
100
AcDbCircle
 10
178.944976
 20
49.56448
 30
0.0
 40
5.875
100
AcDbArc
 50
0.0
 51
35.057216
  0
ARC
  5
56
100
AcDbEntity
  8
0
  6
Continuous
 62
   174
100
AcDbCircle
 10
178.944976
 20
49.56448
 30
0.0
 40
5.875
100
AcDbArc
 50
35.057216
 51
37.6271
  0
ARC
  5
57
100
AcDbEntity
  8
0
  6
Continuous
 62
   174
100
AcDbCircle
 10
178.944976
 20
49.56448
 30
0.0
 40
5.875
100
AcDbArc
 50
37.6271
 51
70.354032
  0
ARC
  5
58
100
AcDbEntity
  8
0
  6
Continuous
 62
   174
100
AcDbCircle
 10
178.944976
 20
49.56448
 30
0.0
 40
5.875
100
AcDbArc
 50
70.354032
 51
73.964869
  0
ARC
  5
59
100
AcDbEntity
  8
0
  6
Continuous
 62
   174
100
AcDbCircle
 10
178.944976
 20
49.56448
 30
0.0
 40
5.875
100
AcDbArc
 50
73.964869
 51
106.035131
  0
ARC
  5
5A
100
AcDbEntity
  8
0
  6
Continuous
 62
   174
100
AcDbCircle
 10
178.944976
 20
49.56448
 30
0.0
 40
5.875
100
AcDbArc
 50
106.035131
 51
109.645968
  0
ARC
  5
5B
100
AcDbEntity
  8
0
  6
Continuous
 62
   174
100
AcDbCircle
 10
178.944976
 20
49.56448
 30
0.0
 40
5.875
100
AcDbArc
 50
109.645968
 51
142.3729
  0
ARC
  5
5C
100
AcDbEntity
  8
0
  6
Continuous
 62
   174
100
AcDbCircle
 10
178.944976
 20
49.56448
 30
0.0
 40
5.875
100
AcDbArc
 50
142.3729
 51
144.942784
  0
ARC
  5
5D
100
AcDbEntity
  8
0
  6
Continuous
 62
   174
100
AcDbCircle
 10
178.944976
 20
49.56448
 30
0.0
 40
6.58
100
AcDbArc
 50
-180.0
 51
-179.112683
  0
ARC
  5
5E
100
AcDbEntity
  8
0
  6
Continuous
 62
   174
100
AcDbCircle
 10
178.944976
 20
49.56448
 30
0.0
 40
6.58
100
AcDbArc
 50
-179.112683
 51
-0.887317
  0
LINE
  5
5F
100
AcDbEntity
  8
0
  6
Continuous
 62
   174
100
AcDbLine
 10
56.944976
 20
57.36448
 30
0.0
 11
57.043572
 21
57.535253
 31
0.0
  0
ARC
  5
60
100
AcDbEntity
  8
0
  6
Continuous
 62
   174
100
AcDbCircle
 10
156.944976
 20
49.56448
 30
0.0
 40
5.875
100
AcDbArc
 50
145.386931
 51
180.0
  0
ARC
  5
61
100
AcDbEntity
  8
0
  6
Continuous
 62
   174
100
AcDbCircle
 10
156.944976
 20
49.56448
 30
0.0
 40
5.875
100
AcDbArc
 50
70.673999
 51
72.807817
  0
ARC
  5
62
100
AcDbEntity
  8
0
  6
Continuous
 62
   174
100
AcDbCircle
 10
156.944976
 20
49.56448
 30
0.0
 40
5.875
100
AcDbArc
 50
72.807817
 51
107.192183
  0
ARC
  5
63
100
AcDbEntity
  8
0
  6
Continuous
 62
   174
100
AcDbCircle
 10
156.944976
 20
49.56448
 30
0.0
 40
5.875
100
AcDbArc
 50
107.192183
 51
109.326001
  0
ARC
  5
64
100
AcDbEntity
  8
0
  6
Continuous
 62
   174
100
AcDbCircle
 10
156.944976
 20
49.56448
 30
0.0
 40
5.875
100
AcDbArc
 50
109.326001
 51
142.363115
  0
ARC
  5
65
100
AcDbEntity
  8
0
  6
Continuous
 62
   174
100
AcDbCircle
 10
156.944976
 20
49.56448
 30
0.0
 40
5.875
100
AcDbArc
 50
142.363115
 51
145.386931
  0
LINE
  5
66
100
AcDbEntity
  8
0
  6
Continuous
 62
   174
100
AcDbLine
 10
249.444976
 20
57.56448
 30
0.0
 11
237.403016
 21
57.56448
 31
0.0
  0
LINE
  5
67
100
AcDbEntity
  8
0
  6
Continuous
 62
   174
100
AcDbLine
 10
64.444976
 20
57.56448
 30
0.0
 11
76.486936
 21
57.56448
 31
0.0
  0
LINE
  5
68
100
AcDbEntity
  8
0
  6
HIDDEN
 62
   174
100
AcDbLine
 10
164.713014
 20
56.26448
 30
0.0
 11
173.213013
 21
56.26448
 31
0.0
  0
LINE
  5
69
100
AcDbEntity
  8
0
  6
Continuous
 62
   174
100
AcDbLine
 10
64.444976
 20
43.06448
 30
0.0
 11
61.444976
 21
43.06448
 31
0.0
  0
LINE
  5
6A
100
AcDbEntity
  8
0
  6
Continuous
 62
   174
100
AcDbLine
 10
252.444976
 20
58.56448
 30
0.0
 11
253.144976
 21
58.56448
 31
0.0
  0
LINE
  5
6B
100
AcDbEntity
  8
0
  6
Continuous
 62
   174
100
AcDbLine
 10
61.444976
 20
58.56448
 30
0.0
 11
60.744976
 21
58.56448
 31
0.0
  0
LINE
  5
6C
100
AcDbEntity
  8
0
  6
Continuous
 62
   174
100
AcDbLine
 10
61.444976
 20
40.56448
 30
0.0
 11
60.744976
 21
40.56448
 31
0.0
  0
ARC
  5
6D
100
AcDbEntity
  8
0
  6
Continuous
 62
   174
100
AcDbCircle
 10
156.944976
 20
49.56448
 30
0.0
 40
5.875
100
AcDbArc
 50
289.326001
 51
322.363115
  0
LINE
  5
6E
100
AcDbEntity
  8
0
  6
Continuous
 62
   174
100
AcDbLine
 10
64.444976
 20
41.56448
 30
0.0
 11
76.486936
 21
41.56448
 31
0.0
  0
LINE
  5
6F
100
AcDbEntity
  8
0
  6
Continuous
 62
   174
100
AcDbLine
 10
252.444976
 20
58.56448
 30
0.0
 11
253.144976
 21
58.56448
 31
0.0
  0
LINE
  5
70
100
AcDbEntity
  8
0
  6
Continuous
 62
   174
100
AcDbLine
 10
61.444976
 20
58.56448
 30
0.0
 11
60.744976
 21
58.56448
 31
0.0
  0
ARC
  5
71
100
AcDbEntity
  8
0
  6
Continuous
 62
   174
100
AcDbCircle
 10
134.944976
 20
49.56448
 30
0.0
 40
5.875
100
AcDbArc
 50
217.192408
 51
251.301479
  0
ARC
  5
72
100
AcDbEntity
  8
0
  6
Continuous
 62
   174
100
AcDbCircle
 10
134.944976
 20
49.56448
 30
0.0
 40
5.875
100
AcDbArc
 50
-34.620132
 51
0.0
  0
ARC
  5
73
100
AcDbEntity
  8
0
  6
Continuous
 62
   174
100
AcDbCircle
 10
134.944976
 20
49.56448
 30
0.0
 40
5.875
100
AcDbArc
 50
71.301479
 51
73.101819
  0
LINE
  5
74
100
AcDbEntity
  8
0
  6
Continuous
 62
   174
100
AcDbLine
 10
249.444976
 20
57.56448
 30
0.0
 11
237.403016
 21
57.56448
 31
0.0
  0
LINE
  5
75
100
AcDbEntity
  8
0
  6
Continuous
 62
   174
100
AcDbLine
 10
64.444976
 20
57.56448
 30
0.0
 11
76.486936
 21
57.56448
 31
0.0
  0
ARC
  5
76
100
AcDbEntity
  8
0
  6
Continuous
 62
   174
100
AcDbCircle
 10
134.944976
 20
49.56448
 30
0.0
 40
6.58
100
AcDbArc
 50
-180.0
 51
-179.251715
  0
ARC
  5
77
100
AcDbEntity
  8
0
  6
Continuous
 62
   174
100
AcDbCircle
 10
134.944976
 20
49.56448
 30
0.0
 40
6.58
100
AcDbArc
 50
-0.748285
 51
0.0
  0
ARC
  5
78
100
AcDbEntity
  8
0
  6
Continuous
 62
   174
100
AcDbCircle
 10
134.944976
 20
49.56448
 30
0.0
 40
6.58
100
AcDbArc
 50
-179.251715
 51
-0.748285
  0
ARC
  5
79
100
AcDbEntity
  8
0
  6
Continuous
 62
   174
100
AcDbCircle
 10
178.944976
 20
49.56448
 30
0.0
 40
5.875
100
AcDbArc
 50
180.0
 51
215.057216
  0
ARC
  5
7A
100
AcDbEntity
  8
0
  6
Continuous
 62
   174
100
AcDbCircle
 10
178.944976
 20
49.56448
 30
0.0
 40
5.875
100
AcDbArc
 50
215.057216
 51
217.6271
  0
ARC
  5
7B
100
AcDbEntity
  8
0
  6
Continuous
 62
   174
100
AcDbCircle
 10
178.944976
 20
49.56448
 30
0.0
 40
5.875
100
AcDbArc
 50
217.6271
 51
250.354032
  0
ARC
  5
7C
100
AcDbEntity
  8
0
  6
Continuous
 62
   174
100
AcDbCircle
 10
178.944976
 20
49.56448
 30
0.0
 40
5.875
100
AcDbArc
 50
250.354032
 51
253.964869
  0
ARC
  5
7D
100
AcDbEntity
  8
0
  6
Continuous
 62
   174
100
AcDbCircle
 10
178.944976
 20
49.56448
 30
0.0
 40
5.875
100
AcDbArc
 50
253.964869
 51
286.035131
  0
ARC
  5
7E
100
AcDbEntity
  8
0
  6
Continuous
 62
   174
100
AcDbCircle
 10
134.944976
 20
49.56448
 30
0.0
 40
5.875
100
AcDbArc
 50
145.379868
 51
180.0
  0
ARC
  5
7F
100
AcDbEntity
  8
0
  6
Continuous
 62
   174
100
AcDbCircle
 10
134.944976
 20
49.56448
 30
0.0
 40
5.875
100
AcDbArc
 50
0.0
 51
34.620132
  0
ARC
  5
80
100
AcDbEntity
  8
0
  6
Continuous
 62
   174
100
AcDbCircle
 10
134.944976
 20
49.56448
 30
0.0
 40
5.875
100
AcDbArc
 50
34.620132
 51
37.192408
  0
ARC
  5
81
100
AcDbEntity
  8
0
  6
Continuous
 62
   174
100
AcDbCircle
 10
134.944976
 20
49.56448
 30
0.0
 40
5.875
100
AcDbArc
 50
37.192408
 51
71.301479
  0
ARC
  5
82
100
AcDbEntity
  8
0
  6
Continuous
 62
   174
100
AcDbCircle
 10
134.944976
 20
49.56448
 30
0.0
 40
5.875
100
AcDbArc
 50
73.101819
 51
106.898181
  0
ARC
  5
83
100
AcDbEntity
  8
0
  6
Continuous
 62
   174
100
AcDbCircle
 10
134.944976
 20
49.56448
 30
0.0
 40
5.875
100
AcDbArc
 50
106.898181
 51
108.698521
  0
ARC
  5
84
100
AcDbEntity
  8
0
  6
Continuous
 62
   174
100
AcDbCircle
 10
134.944976
 20
49.56448
 30
0.0
 40
5.875
100
AcDbArc
 50
108.698521
 51
142.807592
  0
ARC
  5
85
100
AcDbEntity
  8
0
  6
Continuous
 62
   174
100
AcDbCircle
 10
134.944976
 20
49.56448
 30
0.0
 40
5.875
100
AcDbArc
 50
142.807592
 51
145.379868
  0
LINE
  5
86
100
AcDbEntity
  8
0
  6
Continuous
 62
   174
100
AcDbLine
 10
249.444976
 20
41.56448
 30
0.0
 11
237.403016
 21
41.56448
 31
0.0
  0
LINE
  5
87
100
AcDbEntity
  8
0
  6
Continuous
 62
   174
100
AcDbLine
 10
237.444976
 20
57.06448
 30
0.0
 11
237.444976
 21
55.809478
 31
0.0
  0
LINE
  5
88
100
AcDbEntity
  8
0
  6
Continuous
 62
   174
100
AcDbLine
 10
249.444976
 20
43.06448
 30
0.0
 11
252.444976
 21
43.06448
 31
0.0
  0
LINE
  5
89
100
AcDbEntity
  8
0
  6
Continuous
 62
   174
100
AcDbLine
 10
256.944976
 20
41.76448
 30
0.0
 11
256.846379
 21
41.593706
 31
0.0
  0
ARC
  5
8A
100
AcDbEntity
  8
0
  6
Continuous
 62
   174
100
AcDbCircle
 10
134.944976
 20
49.56448
 30
0.0
 40
5.875
100
AcDbArc
 50
180.0
 51
214.620132
  0
ARC
  5
8B
100
AcDbEntity
  8
0
  6
Continuous
 62
   174
100
AcDbCircle
 10
134.944976
 20
49.56448
 30
0.0
 40
5.875
100
AcDbArc
 50
214.620132
 51
217.192408
  0
ARC
  5
8C
100
AcDbEntity
  8
0
  6
Continuous
 62
   174
100
AcDbCircle
 10
134.944976
 20
49.56448
 30
0.0
 40
5.875
100
AcDbArc
 50
253.101819
 51
286.898181
  0
ARC
  5
8D
100
AcDbEntity
  8
0
  6
Continuous
 62
   174
100
AcDbCircle
 10
134.944976
 20
49.56448
 30
0.0
 40
5.875
100
AcDbArc
 50
286.898181
 51
288.698521
  0
LINE
  5
8E
100
AcDbEntity
  8
0
  6
Continuous
 62
   174
100
AcDbLine
 10
76.444976
 20
42.06448
 30
0.0
 11
76.444976
 21
43.319482
 31
0.0
  0
LINE
  5
8F
100
AcDbEntity
  8
0
  6
Continuous
 62
   174
100
AcDbLine
 10
249.444976
 20
56.06448
 30
0.0
 11
252.444976
 21
56.06448
 31
0.0
  0
LINE
  5
90
100
AcDbEntity
  8
0
  6
Continuous
 62
   174
100
AcDbLine
 10
61.444976
 20
40.56448
 30
0.0
 11
60.744976
 21
40.56448
 31
0.0
  0
ARC
  5
91
100
AcDbEntity
  8
0
  6
Continuous
 62
   174
100
AcDbCircle
 10
134.944976
 20
49.56448
 30
0.0
 40
5.875
100
AcDbArc
 50
251.301479
 51
253.101819
  0
ARC
  5
92
100
AcDbEntity
  8
0
  6
Continuous
 62
   174
100
AcDbCircle
 10
134.944976
 20
49.56448
 30
0.0
 40
5.875
100
AcDbArc
 50
288.698521
 51
322.807592
  0
ARC
  5
93
100
AcDbEntity
  8
0
  6
Continuous
 62
   174
100
AcDbCircle
 10
134.944976
 20
49.56448
 30
0.0
 40
5.875
100
AcDbArc
 50
322.807592
 51
325.379868
  0
ARC
  5
94
100
AcDbEntity
  8
0
  6
Continuous
 62
   174
100
AcDbCircle
 10
156.944976
 20
49.56448
 30
0.0
 40
6.58
100
AcDbArc
 50
-180.0
 51
-179.188157
  0
ARC
  5
95
100
AcDbEntity
  8
0
  6
Continuous
 62
   174
100
AcDbCircle
 10
156.944976
 20
49.56448
 30
0.0
 40
6.58
100
AcDbArc
 50
-359.188157
 51
-241.194706
  0
ARC
  5
96
100
AcDbEntity
  8
0
  6
Continuous
 62
   174
100
AcDbCircle
 10
156.944976
 20
49.56448
 30
0.0
 40
6.58
100
AcDbArc
 50
0.0
 51
0.811843
  0
ARC
  5
97
100
AcDbEntity
  8
0
  6
Continuous
 62
   174
100
AcDbCircle
 10
156.944976
 20
49.56448
 30
0.0
 40
6.58
100
AcDbArc
 50
-0.811843
 51
0.0
  0
ARC
  5
98
100
AcDbEntity
  8
0
  6
Continuous
 62
   174
100
AcDbCircle
 10
156.944976
 20
49.56448
 30
0.0
 40
6.58
100
AcDbArc
 50
-179.188157
 51
-0.811843
  0
ARC
  5
99
100
AcDbEntity
  8
0
  6
Continuous
 62
   174
100
AcDbCircle
 10
134.944976
 20
49.56448
 30
0.0
 40
6.58
100
AcDbArc
 50
-359.251715
 51
-241.197359
  0
ARC
  5
9A
100
AcDbEntity
  8
0
  6
Continuous
 62
   174
100
AcDbCircle
 10
134.944976
 20
49.56448
 30
0.0
 40
6.58
100
AcDbArc
 50
0.0
 51
0.748285
  0
ARC
  5
9B
100
AcDbEntity
  8
0
  6
Continuous
 62
   174
100
AcDbCircle
 10
178.944976
 20
49.56448
 30
0.0
 40
6.58
100
AcDbArc
 50
-359.112683
 51
-241.210326
  0
ARC
  5
9C
100
AcDbEntity
  8
0
  6
Continuous
 62
   174
100
AcDbCircle
 10
156.944976
 20
49.56448
 30
0.0
 40
5.875
100
AcDbArc
 50
322.363115
 51
325.386931
  0
ARC
  5
9D
100
AcDbEntity
  8
0
  6
Continuous
 62
   174
100
AcDbCircle
 10
156.944976
 20
49.56448
 30
0.0
 40
5.875
100
AcDbArc
 50
-34.613069
 51
0.0
  0
ARC
  5
9E
100
AcDbEntity
  8
0
  6
Continuous
 62
   174
100
AcDbCircle
 10
156.944976
 20
49.56448
 30
0.0
 40
5.875
100
AcDbArc
 50
0.0
 51
34.613069
  0
ARC
  5
9F
100
AcDbEntity
  8
0
  6
Continuous
 62
   174
100
AcDbCircle
 10
156.944976
 20
49.56448
 30
0.0
 40
5.875
100
AcDbArc
 50
34.613069
 51
37.636885
  0
ARC
  5
A0
100
AcDbEntity
  8
0
  6
Continuous
 62
   174
100
AcDbCircle
 10
156.944976
 20
49.56448
 30
0.0
 40
5.875
100
AcDbArc
 50
37.636885
 51
70.673999
  0
ARC
  5
A1
100
AcDbEntity
  8
0
  6
Continuous
 62
   174
100
AcDbCircle
 10
178.944976
 20
49.56448
 30
0.0
 40
5.875
100
AcDbArc
 50
286.035131
 51
289.645968
  0
LINE
  5
A2
100
AcDbEntity
  8
0
  6
Continuous
 62
   174
100
AcDbLine
 10
249.444976
 20
41.56448
 30
0.0
 11
237.403016
 21
41.56448
 31
0.0
  0
LINE
  5
A3
100
AcDbEntity
  8
0
  6
Continuous
 62
   174
100
AcDbLine
 10
64.444976
 20
41.56448
 30
0.0
 11
76.486936
 21
41.56448
 31
0.0
  0
LINE
  5
A4
100
AcDbEntity
  8
0
  6
Continuous
 62
   174
100
AcDbLine
 10
76.444976
 20
55.809478
 30
0.0
 11
76.444976
 21
57.06448
 31
0.0
  0
LINE
  5
A5
100
AcDbEntity
  8
0
  6
Continuous
 62
   174
100
AcDbLine
 10
105.444976
 20
57.06448
 30
0.0
 11
105.444976
 21
42.06448
 31
0.0
  0
LINE
  5
A6
100
AcDbEntity
  8
0
  6
Continuous
 62
   174
100
AcDbLine
 10
105.944976
 20
38.56448
 30
0.0
 11
121.944976
 21
38.56448
 31
0.0
  0
LINE
  5
A7
100
AcDbEntity
  8
0
  6
HIDDEN
 62
   174
100
AcDbLine
 10
166.444976
 20
38.56448
 30
0.0
 11
166.444976
 21
56.26448
 31
0.0
  0
LINE
  5
A8
100
AcDbEntity
  8
0
  6
Continuous
 62
   174
100
AcDbLine
 10
252.444976
 20
42.866017
 30
0.0
 11
252.444976
 21
40.580473
 31
0.0
  0
LINE
  5
A9
100
AcDbEntity
  8
0
  6
Continuous
 62
   174
100
AcDbLine
 10
253.144976
 20
40.580473
 30
0.0
 11
253.144976
 21
41.741408
 31
0.0
  0
LINE
  5
AA
100
AcDbEntity
  8
0
  6
Continuous
 62
   174
100
AcDbLine
 10
253.144976
 20
41.741408
 30
0.0
 11
253.144976
 21
49.669756
 31
0.0
  0
LINE
  5
AB
100
AcDbEntity
  8
0
  6
HIDDEN
 62
   174
100
AcDbLine
 10
253.144976
 20
41.725674
 30
0.0
 11
253.144976
 21
49.654413
 31
0.0
  0
LINE
  5
AC
100
AcDbEntity
  8
0
  6
HIDDEN
 62
   174
100
AcDbLine
 10
68.244976
 20
57.56448
 30
0.0
 11
68.244976
 21
54.640962
 31
0.0
  0
LINE
  5
AD
100
AcDbEntity
  8
0
  6
Continuous
 62
   174
100
AcDbLine
 10
239.444976
 20
59.56448
 30
0.0
 11
238.944976
 21
59.56448
 31
0.0
  0
LINE
  5
AE
100
AcDbEntity
  8
0
  6
HIDDEN
 62
   174
100
AcDbLine
 10
75.944976
 20
41.56448
 30
0.0
 11
75.944976
 21
57.56448
 31
0.0
  0
ARC
  5
AF
100
AcDbEntity
  8
0
  6
Continuous
 62
   174
100
AcDbCircle
 10
172.194976
 20
60.26448
 30
0.0
 40
1.0
100
AcDbArc
 50
-340.907979
 51
-270.0
  0
ARC
  5
B0
100
AcDbEntity
  8
0
  6
HIDDEN
 62
   174
100
AcDbCircle
 10
165.694976
 20
60.26448
 30
0.0
 40
1.0
100
AcDbArc
 50
160.907979
 51
180.0
  0
ARC
  5
B1
100
AcDbEntity
  8
0
  6
Continuous
 62
   174
100
AcDbCircle
 10
141.694976
 20
60.26448
 30
0.0
 40
1.0
100
AcDbArc
 50
90.0
 51
160.907979
  0
LINE
  5
B2
100
AcDbEntity
  8
0
  6
HIDDEN
 62
   174
100
AcDbLine
 10
173.213013
 20
60.26448
 30
0.0
 11
164.713014
 21
60.26448
 31
0.0
  0
LINE
  5
B3
100
AcDbEntity
  8
0
  6
Continuous
 62
   174
100
AcDbLine
 10
173.213013
 20
60.26448
 30
0.0
 11
173.13845
 21
60.26448
 31
0.0
  0
LINE
  5
B4
100
AcDbEntity
  8
0
  6
Continuous
 62
   174
100
AcDbLine
 10
61.444976
 20
42.866017
 30
0.0
 11
61.444976
 21
56.293778
 31
0.0
  0
LINE
  5
B5
100
AcDbEntity
  8
0
  6
Continuous
 62
   174
100
AcDbLine
 10
253.144976
 20
49.669756
 30
0.0
 11
253.144976
 21
57.328317
 31
0.0
  0
ARC
  5
B6
100
AcDbEntity
  8
0
  6
Continuous
 62
   174
100
AcDbCircle
 10
79.444976
 20
42.06448
 30
0.0
 40
3.0
100
AcDbArc
 50
-180.0
 51
-90.0
  0
LINE
  5
B7
100
AcDbEntity
  8
0
  6
HIDDEN
 62
   174
100
AcDbLine
 10
74.444976
 20
54.656148
 30
0.0
 11
74.444976
 21
57.605539
 31
0.0
  0
LINE
  5
B8
100
AcDbEntity
  8
0
  6
HIDDEN
 62
   174
100
AcDbLine
 10
142.444976
 20
39.56448
 30
0.0
 11
142.444976
 21
40.56448
 31
0.0
  0
LINE
  5
B9
100
AcDbEntity
  8
0
  6
HIDDEN
 62
   174
100
AcDbLine
 10
68.244976
 20
44.486427
 30
0.0
 11
74.444976
 21
44.486427
 31
0.0
  0
LINE
  5
BA
100
AcDbEntity
  8
0
  6
Continuous
 62
   174
100
AcDbLine
 10
102.463097
 20
57.06448
 30
0.0
 11
105.463047
 21
57.06448
 31
0.0
  0
LINE
  5
BB
100
AcDbEntity
  8
0
  6
HIDDEN
 62
   174
100
AcDbLine
 10
147.444976
 20
39.56448
 30
0.0
 11
147.444976
 21
40.56448
 31
0.0
  0
LINE
  5
BC
100
AcDbEntity
  8
0
  6
HIDDEN
 62
   174
100
AcDbLine
 10
147.444976
 20
39.56448
 30
0.0
 11
147.444976
 21
40.56448
 31
0.0
  0
LINE
  5
BD
100
AcDbEntity
  8
0
  6
Continuous
 62
   174
100
AcDbLine
 10
60.744976
 20
57.418175
 30
0.0
 11
60.744976
 21
49.490039
 31
0.0
  0
LINE
  5
BE
100
AcDbEntity
  8
0
  6
Continuous
 62
   174
100
AcDbLine
 10
256.944976
 20
46.477768
 30
0.0
 11
256.944976
 21
57.328317
 31
0.0
  0
LINE
  5
BF
100
AcDbEntity
  8
0
  6
Continuous
 62
   174
100
AcDbLine
 10
256.940974
 20
41.725674
 30
0.0
 11
256.864499
 21
41.725674
 31
0.0
  0
LINE
  5
C0
100
AcDbEntity
  8
0
  6
Continuous
 62
   174
100
AcDbLine
 10
56.985241
 20
57.403286
 30
0.0
 11
57.061716
 21
57.403286
 31
0.0
  0
LINE
  5
C1
100
AcDbEntity
  8
0
  6
HIDDEN
 62
   174
100
AcDbLine
 10
68.244976
 20
54.640962
 30
0.0
 11
74.444976
 21
54.640962
 31
0.0
  0
LINE
  5
C2
100
AcDbEntity
  8
0
  6
Continuous
 62
   174
100
AcDbLine
 10
237.462968
 20
57.06448
 30
0.0
 11
234.463018
 21
57.06448
 31
0.0
  0
LINE
  5
C3
100
AcDbEntity
  8
0
  6
Continuous
 62
   174
100
AcDbLine
 10
211.444976
 20
39.06448
 30
0.0
 11
234.444976
 21
39.06448
 31
0.0
  0
LINE
  5
C4
100
AcDbEntity
  8
0
  6
Continuous
 62
   174
100
AcDbLine
 10
166.46302
 20
31.26448
 30
0.0
 11
171.463007
 21
31.26448
 31
0.0
  0
LINE
  5
C5
100
AcDbEntity
  8
0
  6
Continuous
 62
   174
100
AcDbLine
 10
249.444976
 20
41.580385
 30
0.0
 11
249.444976
 21
42.97372
 31
0.0
  0
LINE
  5
C6
100
AcDbEntity
  8
0
  6
Continuous
 62
   174
100
AcDbLine
 10
60.744976
 20
57.403286
 30
0.0
 11
57.637796
 21
57.403286
 31
0.0
  0
LINE
  5
C7
100
AcDbEntity
  8
0
  6
HIDDEN
 62
   174
100
AcDbLine
 10
191.944976
 20
49.579898
 30
0.0
 11
191.944976
 21
55.579585
 31
0.0
  0
LINE
  5
C8
100
AcDbEntity
  8
0
  6
HIDDEN
 62
   174
100
AcDbLine
 10
60.744976
 20
57.403286
 30
0.0
 11
60.744976
 21
49.474546
 31
0.0
  0
LINE
  5
C9
100
AcDbEntity
  8
0
  6
Continuous
 62
   174
100
AcDbLine
 10
256.944976
 20
41.780283
 30
0.0
 11
256.944976
 21
44.933608
 31
0.0
  0
LINE
  5
CA
100
AcDbEntity
  8
0
  6
Continuous
 62
   174
100
AcDbLine
 10
121.944976
 20
38.56448
 30
0.0
 11
121.944976
 21
60.56448
 31
0.0
  0
LINE
  5
CB
100
AcDbEntity
  8
0
  6
Continuous
 62
   174
100
AcDbLine
 10
239.444976
 20
39.692936
 30
0.0
 11
239.444976
 21
39.580348
 31
0.0
  0
LINE
  5
CC
100
AcDbEntity
  8
0
  6
Continuous
 62
   174
100
AcDbLine
 10
211.463119
 20
42.06448
 30
0.0
 11
208.463169
 21
42.06448
 31
0.0
  0
LINE
  5
CD
100
AcDbEntity
  8
0
  6
HIDDEN
 62
   174
100
AcDbLine
 10
140.713202
 20
56.26448
 30
0.0
 11
149.212989
 21
56.26448
 31
0.0
  0
ARC
  5
CE
100
AcDbEntity
  8
0
  6
HIDDEN
 62
   174
100
AcDbCircle
 10
148.194976
 20
60.26448
 30
0.0
 40
1.0
100
AcDbArc
 50
0.0
 51
19.092021
  0
LINE
  5
CF
100
AcDbEntity
  8
0
  6
Continuous
 62
   174
100
AcDbLine
 10
79.444976
 20
60.06448
 30
0.0
 11
102.444976
 21
60.06448
 31
0.0
  0
LINE
  5
D0
100
AcDbEntity
  8
0
  6
HIDDEN
 62
   174
100
AcDbLine
 10
147.463195
 20
56.26448
 30
0.0
 11
142.462996
 21
56.26448
 31
0.0
  0
LWPOLYLINE
  5
D1
100
AcDbEntity
  8
0
  6
HIDDEN
 62
   174
100
AcDbPolyline
 90
        4
 70
   128
 10
256.944976
 20
46.462202
 10
256.811855
 20
47.51591
 10
256.578773
 20
48.574323
 10
256.252155
 20
49.654413
  0
LINE
  5
D2
100
AcDbEntity
  8
0
  6
Continuous
 62
   174
100
AcDbLine
 10
211.444976
 20
42.06448
 30
0.0
 11
211.444976
 21
57.06448
 31
0.0
  0
LINE
  5
D3
100
AcDbEntity
  8
0
  6
Continuous
 62
   174
100
AcDbLine
 10
76.444976
 20
57.06448
 30
0.0
 11
76.444976
 21
55.809478
 31
0.0
  0
ARC
  5
D4
100
AcDbEntity
  8
0
  6
Continuous
 62
   174
100
AcDbCircle
 10
116.944976
 20
49.56448
 30
0.0
 40
3.0
100
AcDbArc
 50
-180.0
 51
0.0
  0
LINE
  5
D5
100
AcDbEntity
  8
0
  6
Continuous
 62
   174
100
AcDbLine
 10
237.444976
 20
43.319482
 30
0.0
 11
237.444976
 21
42.06448
 31
0.0
  0
LINE
  5
D6
100
AcDbEntity
  8
0
  6
Continuous
 62
   174
100
AcDbLine
 10
191.944976
 20
38.56448
 30
0.0
 11
191.944976
 21
60.56448
 31
0.0
  0
LINE
  5
D7
100
AcDbEntity
  8
0
  6
HIDDEN
 62
   174
100
AcDbLine
 10
147.444976
 20
38.56448
 30
0.0
 11
147.444976
 21
39.56448
 31
0.0
  0
LINE
  5
D8
100
AcDbEntity
  8
0
  6
HIDDEN
 62
   174
100
AcDbLine
 10
147.444976
 20
38.56448
 30
0.0
 11
147.444976
 21
39.56448
 31
0.0
  0
LINE
  5
D9
100
AcDbEntity
  8
0
  6
Continuous
 62
   174
100
AcDbLine
 10
249.444976
 20
56.186075
 30
0.0
 11
249.444976
 21
57.57941
 31
0.0
  0
LINE
  5
DA
100
AcDbEntity
  8
0
  6
Continuous
 62
   174
100
AcDbLine
 10
56.944976
 20
52.666758
 30
0.0
 11
56.944976
 21
54.211074
 31
0.0
  0
LINE
  5
DB
100
AcDbEntity
  8
0
  6
HIDDEN
 62
   174
100
AcDbLine
 10
68.244976
 20
58.180447
 30
0.0
 11
74.444976
 21
58.180447
 31
0.0
  0
LWPOLYLINE
  5
DC
100
AcDbEntity
  8
0
  6
Continuous
 62
   174
100
AcDbPolyline
 90
        6
 70
   128
 10
79.444976
 20
49.56448
 10
78.53966
 20
51.05384
 10
77.731355
 20
52.447589
 10
77.069507
 20
53.72625
 10
76.617681
 20
54.852355
 10
76.444976
 20
55.809478
  0
LWPOLYLINE
  5
DD
100
AcDbEntity
  8
0
  6
HIDDEN
 62
   174
100
AcDbPolyline
 90
        4
 70
   128
 10
237.403016
 20
57.56448
 10
237.412011
 20
57.507992
 10
237.432416
 20
57.338705
 10
237.444976
 20
57.06448
  0
LINE
  5
DE
100
AcDbEntity
  8
0
  6
Continuous
 62
   174
100
AcDbLine
 10
105.444976
 20
42.06448
 30
0.0
 11
105.444976
 21
57.06448
 31
0.0
  0
LINE
  5
DF
100
AcDbEntity
  8
0
  6
Continuous
 62
   174
100
AcDbLine
 10
172.213101
 20
61.26448
 30
0.0
 11
171.261198
 21
61.26448
 31
0.0
  0
LINE
  5
E0
100
AcDbEntity
  8
0
  6
Continuous
 62
   174
100
AcDbLine
 10
166.665042
 20
61.26448
 30
0.0
 11
165.713139
 21
61.26448
 31
0.0
  0
ARC
  5
E1
100
AcDbEntity
  8
0
  6
HIDDEN
 62
   174
100
AcDbCircle
 10
172.194976
 20
60.26448
 30
0.0
 40
1.0
100
AcDbArc
 50
0.0
 51
19.092021
  0
ARC
  5
E2
100
AcDbEntity
  8
0
  6
Continuous
 62
   174
100
AcDbCircle
 10
148.194976
 20
60.26448
 30
0.0
 40
1.0
100
AcDbArc
 50
-340.907979
 51
-270.0
  0
LINE
  5
E3
100
AcDbEntity
  8
0
  6
Continuous
 62
   174
100
AcDbLine
 10
173.13845
 20
60.26448
 30
0.0
 11
170.580357
 21
60.26448
 31
0.0
  0
LINE
  5
E4
100
AcDbEntity
  8
0
  6
Continuous
 62
   174
100
AcDbLine
 10
207.944976
 20
38.56448
 30
0.0
 11
191.944976
 21
38.56448
 31
0.0
  0
LINE
  5
E5
100
AcDbEntity
  8
0
  6
Continuous
 62
   174
100
AcDbLine
 10
105.944976
 20
38.56448
 30
0.0
 11
105.944976
 21
60.56448
 31
0.0
  0
LINE
  5
E6
100
AcDbEntity
  8
0
  6
Continuous
 62
   174
100
AcDbLine
 10
252.444976
 20
58.579323
 30
0.0
 11
252.444976
 21
56.293778
 31
0.0
  0
LINE
  5
E7
100
AcDbEntity
  8
0
  6
Continuous
 62
   174
100
AcDbLine
 10
105.944976
 20
38.56448
 30
0.0
 11
75.944976
 21
38.56448
 31
0.0
  0
LINE
  5
E8
100
AcDbEntity
  8
0
  6
HIDDEN
 62
   174
100
AcDbLine
 10
74.444976
 20
47.078736
 30
0.0
 11
74.444976
 21
52.077661
 31
0.0
  0
LINE
  5
E9
100
AcDbEntity
  8
0
  6
Continuous
 62
   174
100
AcDbLine
 10
165.694976
 20
60.56448
 30
0.0
 11
172.194976
 21
60.56448
 31
0.0
  0
LINE
  5
EA
100
AcDbEntity
  8
0
  6
Continuous
 62
   174
100
AcDbLine
 10
147.444976
 20
31.26448
 30
0.0
 11
147.444976
 21
38.56448
 31
0.0
  0
LINE
  5
EB
100
AcDbEntity
  8
0
  6
Continuous
 62
   174
100
AcDbLine
 10
121.944976
 20
60.56448
 30
0.0
 11
165.694976
 21
60.56448
 31
0.0
  0
LWPOLYLINE
  5
EC
100
AcDbEntity
  8
0
  6
Continuous
 62
   174
100
AcDbPolyline
 90
        4
 70
   128
 10
57.637796
 20
49.474546
 10
57.309895
 20
50.559515
 10
57.077141
 20
51.618514
 10
56.944976
 20
52.666758
  0
LINE
  5
ED
100
AcDbEntity
  8
0
  6
Continuous
 62
   174
100
AcDbLine
 10
76.444976
 20
43.319482
 30
0.0
 11
76.444976
 21
42.06448
 31
0.0
  0
LINE
  5
EE
100
AcDbEntity
  8
0
  6
Continuous
 62
   174
100
AcDbLine
 10
234.444976
 20
57.06448
 30
0.0
 11
234.444976
 21
49.56448
 31
0.0
  0
ARC
  5
EF
100
AcDbEntity
  8
0
  6
Continuous
 62
   174
100
AcDbCircle
 10
211.444976
 20
42.06448
 30
0.0
 40
3.0
100
AcDbArc
 50
-180.0
 51
-90.0
  0
LINE
  5
F0
100
AcDbEntity
  8
0
  6
Continuous
 62
   174
100
AcDbLine
 10
142.671603
 20
61.26448
 30
0.0
 11
141.713114
 21
61.26448
 31
0.0
  0
LINE
  5
F1
100
AcDbEntity
  8
0
  6
Continuous
 62
   174
100
AcDbLine
 10
171.444976
 20
31.26448
 30
0.0
 11
171.444976
 21
38.56448
 31
0.0
  0
LINE
  5
F2
100
AcDbEntity
  8
0
  6
HIDDEN
 62
   174
100
AcDbLine
 10
142.444976
 20
40.56448
 30
0.0
 11
142.444976
 21
56.26448
 31
0.0
  0
LINE
  5
F3
100
AcDbEntity
  8
0
  6
HIDDEN
 62
   174
100
AcDbLine
 10
142.444976
 20
40.56448
 30
0.0
 11
142.444976
 21
56.26448
 31
0.0
  0
LINE
  5
F4
100
AcDbEntity
  8
0
  6
HIDDEN
 62
   174
100
AcDbLine
 10
60.744976
 20
49.474546
 30
0.0
 11
57.637796
 21
49.474546
 31
0.0
  0
LINE
  5
F5
100
AcDbEntity
  8
0
  6
Continuous
 62
   174
100
AcDbLine
 10
56.944976
 20
52.682027
 30
0.0
 11
56.944976
 21
41.831479
 31
0.0
  0
LINE
  5
F6
100
AcDbEntity
  8
0
  6
Continuous
 62
   174
100
AcDbLine
 10
238.944976
 20
39.56448
 30
0.0
 11
237.944976
 21
39.56448
 31
0.0
  0
LINE
  5
F7
100
AcDbEntity
  8
0
  6
Continuous
 62
   174
100
AcDbLine
 10
102.444976
 20
57.06448
 30
0.0
 11
102.444976
 21
42.06448
 31
0.0
  0
ARC
  5
F8
100
AcDbEntity
  8
0
  6
HIDDEN
 62
   174
100
AcDbCircle
 10
141.694976
 20
60.26448
 30
0.0
 40
1.0
100
AcDbArc
 50
160.907979
 51
180.0
  0
LINE
  5
F9
100
AcDbEntity
  8
0
  6
Continuous
 62
   174
100
AcDbLine
 10
207.944976
 20
60.56448
 30
0.0
 11
191.944976
 21
60.56448
 31
0.0
  0
LINE
  5
FA
100
AcDbEntity
  8
0
  6
Continuous
 62
   174
100
AcDbLine
 10
75.944976
 20
38.56448
 30
0.0
 11
75.944976
 21
41.56448
 31
0.0
  0
LINE
  5
FB
100
AcDbEntity
  8
0
  6
Continuous
 62
   174
100
AcDbLine
 10
234.444976
 20
60.06448
 30
0.0
 11
211.444976
 21
60.06448
 31
0.0
  0
LINE
  5
FC
100
AcDbEntity
  8
0
  6
HIDDEN
 62
   174
100
AcDbLine
 10
68.244976
 20
44.485003
 30
0.0
 11
74.444976
 21
44.485003
 31
0.0
  0
LINE
  5
FD
100
AcDbEntity
  8
0
  6
Continuous
 62
   174
100
AcDbLine
 10
79.444976
 20
57.06448
 30
0.0
 11
102.444976
 21
57.06448
 31
0.0
  0
LINE
  5
FE
100
AcDbEntity
  8
0
  6
Continuous
 62
   174
100
AcDbLine
 10
208.463169
 20
57.06448
 30
0.0
 11
211.463119
 21
57.06448
 31
0.0
  0
LINE
  5
FF
100
AcDbEntity
  8
0
  6
HIDDEN
 62
   174
100
AcDbLine
 10
148.213077
 20
61.26448
 30
0.0
 11
147.254588
 21
61.26448
 31
0.0
  0
LINE
  5
100
100
AcDbEntity
  8
0
  6
HIDDEN
 62
   174
100
AcDbLine
 10
121.894976
 20
49.579898
 30
0.0
 11
121.894976
 21
43.58021
 31
0.0
  0
LINE
  5
101
100
AcDbEntity
  8
0
  6
HIDDEN
 62
   174
100
AcDbLine
 10
191.944976
 20
43.56448
 30
0.0
 11
191.994976
 21
43.56448
 31
0.0
  0
LINE
  5
102
100
AcDbEntity
  8
0
  6
Continuous
 62
   174
100
AcDbLine
 10
121.944976
 20
38.56448
 30
0.0
 11
191.944976
 21
38.56448
 31
0.0
  0
LINE
  5
103
100
AcDbEntity
  8
0
  6
HIDDEN
 62
   174
100
AcDbLine
 10
237.944976
 20
59.579235
 30
0.0
 11
237.944976
 21
39.580348
 31
0.0
  0
LINE
  5
104
100
AcDbEntity
  8
0
  6
HIDDEN
 62
   174
100
AcDbLine
 10
245.644976
 20
47.062361
 30
0.0
 11
239.444976
 21
47.062361
 31
0.0
  0
LWPOLYLINE
  5
105
100
AcDbEntity
  8
0
  6
Continuous
 62
   174
100
AcDbPolyline
 90
        6
 70
   128
 10
234.444976
 20
49.56448
 10
235.350292
 20
48.07512
 10
236.158597
 20
46.681371
 10
236.820445
 20
45.40271
 10
237.27227
 20
44.276605
 10
237.444976
 20
43.319482
  0
ARC
  5
106
100
AcDbEntity
  8
0
  6
Continuous
 62
   174
100
AcDbCircle
 10
116.944976
 20
49.56448
 30
0.0
 40
3.0
100
AcDbArc
 50
0.0
 51
180.0
  0
LINE
  5
107
100
AcDbEntity
  8
0
  6
Continuous
 62
   174
100
AcDbLine
 10
68.244976
 20
59.246068
 30
0.0
 11
74.444976
 21
59.246068
 31
0.0
  0
LINE
  5
108
100
AcDbEntity
  8
0
  6
Continuous
 62
   174
100
AcDbLine
 10
239.444976
 20
39.898782
 30
0.0
 11
239.444976
 21
39.692936
 31
0.0
  0
LINE
  5
109
100
AcDbEntity
  8
0
  6
Continuous
 62
   174
100
AcDbLine
 10
148.213077
 20
61.26448
 30
0.0
 11
147.261173
 21
61.26448
 31
0.0
  0
LINE
  5
10A
100
AcDbEntity
  8
0
  6
Continuous
 62
   174
100
AcDbLine
 10
170.580357
 20
60.26448
 30
0.0
 11
166.851131
 21
60.26448
 31
0.0
  0
LINE
  5
10B
100
AcDbEntity
  8
0
  6
HIDDEN
 62
   174
100
AcDbLine
 10
147.444976
 20
40.56448
 30
0.0
 11
147.444976
 21
56.26448
 31
0.0
  0
LINE
  5
10C
100
AcDbEntity
  8
0
  6
HIDDEN
 62
   174
100
AcDbLine
 10
147.444976
 20
40.56448
 30
0.0
 11
147.444976
 21
56.26448
 31
0.0
  0
LINE
  5
10D
100
AcDbEntity
  8
0
  6
HIDDEN
 62
   174
100
AcDbLine
 10
253.144976
 20
49.654413
 30
0.0
 11
253.144976
 21
57.313353
 31
0.0
  0
LINE
  5
10E
100
AcDbEntity
  8
0
  6
Continuous
 62
   174
100
AcDbLine
 10
74.444976
 20
59.56448
 30
0.0
 11
74.944976
 21
59.56448
 31
0.0
  0
LINE
  5
10F
100
AcDbEntity
  8
0
  6
Continuous
 62
   174
100
AcDbLine
 10
234.444976
 20
49.56448
 30
0.0
 11
234.444976
 21
42.06448
 31
0.0
  0
LINE
  5
110
100
AcDbEntity
  8
0
  6
HIDDEN
 62
   174
100
AcDbLine
 10
74.444976
 20
41.554256
 30
0.0
 11
74.444976
 21
44.500674
 31
0.0
  0
ARC
  5
111
100
AcDbEntity
  8
0
  6
Continuous
 62
   174
100
AcDbCircle
 10
102.444976
 20
57.06448
 30
0.0
 40
3.0
100
AcDbArc
 50
0.0
 51
90.0
  0
LINE
  5
112
100
AcDbEntity
  8
0
  6
Continuous
 62
   174
100
AcDbLine
 10
74.944976
 20
59.56448
 30
0.0
 11
75.944976
 21
59.56448
 31
0.0
  0
LINE
  5
113
100
AcDbEntity
  8
0
  6
HIDDEN
 62
   174
100
AcDbLine
 10
105.944976
 20
60.56448
 30
0.0
 11
105.944976
 21
38.56448
 31
0.0
  0
LINE
  5
114
100
AcDbEntity
  8
0
  6
Continuous
 62
   174
100
AcDbLine
 10
172.194976
 20
60.56448
 30
0.0
 11
191.944976
 21
60.56448
 31
0.0
  0
LINE
  5
115
100
AcDbEntity
  8
0
  6
Continuous
 62
   174
100
AcDbLine
 10
245.644976
 20
58.19376
 30
0.0
 11
245.644976
 21
59.261863
 31
0.0
  0
LINE
  5
116
100
AcDbEntity
  8
0
  6
HIDDEN
 62
   174
100
AcDbLine
 10
68.244976
 20
47.065729
 30
0.0
 11
74.444976
 21
47.065729
 31
0.0
  0
LINE
  5
117
100
AcDbEntity
  8
0
  6
Continuous
 62
   174
100
AcDbLine
 10
238.944976
 20
59.56448
 30
0.0
 11
237.944976
 21
59.56448
 31
0.0
  0
LINE
  5
118
100
AcDbEntity
  8
0
  6
Continuous
 62
   174
100
AcDbLine
 10
208.444976
 20
57.06448
 30
0.0
 11
208.444976
 21
42.06448
 31
0.0
  0
LINE
  5
119
100
AcDbEntity
  8
0
  6
HIDDEN
 62
   174
100
AcDbLine
 10
191.944976
 20
43.58021
 30
0.0
 11
191.944976
 21
49.579898
 31
0.0
  0
LINE
  5
11A
100
AcDbEntity
  8
0
  6
HIDDEN
 62
   174
100
AcDbLine
 10
142.444976
 20
38.56448
 30
0.0
 11
142.444976
 21
39.56448
 31
0.0
  0
LINE
  5
11B
100
AcDbEntity
  8
0
  6
HIDDEN
 62
   174
100
AcDbLine
 10
121.944976
 20
38.56448
 30
0.0
 11
121.944976
 21
60.56448
 31
0.0
  0
LINE
  5
11C
100
AcDbEntity
  8
0
  6
HIDDEN
 62
   174
100
AcDbLine
 10
60.744976
 20
49.474546
 30
0.0
 11
60.744976
 21
41.815607
 31
0.0
  0
LINE
  5
11D
100
AcDbEntity
  8
0
  6
Continuous
 62
   174
100
AcDbLine
 10
253.144976
 20
41.725674
 30
0.0
 11
256.252155
 21
41.725674
 31
0.0
  0
LINE
  5
11E
100
AcDbEntity
  8
0
  6
Continuous
 62
   174
100
AcDbLine
 10
68.244976
 20
39.882021
 30
0.0
 11
74.444976
 21
39.882021
 31
0.0
  0
LINE
  5
11F
100
AcDbEntity
  8
0
  6
Continuous
 62
   174
100
AcDbLine
 10
68.244976
 20
59.261014
 30
0.0
 11
68.244976
 21
58.192061
 31
0.0
  0
LINE
  5
120
100
AcDbEntity
  8
0
  6
HIDDEN
 62
   174
100
AcDbLine
 10
68.244976
 20
52.062362
 30
0.0
 11
68.244976
 21
47.063231
 31
0.0
  0
LINE
  5
121
100
AcDbEntity
  8
0
  6
Continuous
 62
   174
100
AcDbLine
 10
207.944976
 20
60.56448
 30
0.0
 11
237.944976
 21
60.56448
 31
0.0
  0
LINE
  5
122
100
AcDbEntity
  8
0
  6
Continuous
 62
   174
100
AcDbLine
 10
234.444976
 20
60.079298
 30
0.0
 11
234.444976
 21
57.079348
 31
0.0
  0
ARC
  5
123
100
AcDbEntity
  8
0
  6
HIDDEN
 62
   174
100
AcDbCircle
 10
148.194976
 20
60.26448
 30
0.0
 40
1.0
100
AcDbArc
 50
0.0
 51
19.092021
  0
LINE
  5
124
100
AcDbEntity
  8
0
  6
HIDDEN
 62
   174
100
AcDbLine
 10
149.212989
 20
60.26448
 30
0.0
 11
140.713202
 21
60.26448
 31
0.0
  0
LINE
  5
125
100
AcDbEntity
  8
0
  6
HIDDEN
 62
   174
100
AcDbLine
 10
191.994976
 20
49.579898
 30
0.0
 11
191.994976
 21
55.579585
 31
0.0
  0
LINE
  5
126
100
AcDbEntity
  8
0
  6
Continuous
 62
   174
100
AcDbLine
 10
102.444976
 20
39.06448
 30
0.0
 11
79.444976
 21
39.06448
 31
0.0
  0
LINE
  5
127
100
AcDbEntity
  8
0
  6
Continuous
 62
   174
100
AcDbLine
 10
68.244976
 20
58.17711
 30
0.0
 11
68.244976
 21
57.56448
 31
0.0
  0
ARC
  5
128
100
AcDbEntity
  8
0
  6
Continuous
 62
   174
100
AcDbCircle
 10
102.444976
 20
42.06448
 30
0.0
 40
3.0
100
AcDbArc
 50
-90.0
 51
0.0
  0
LINE
  5
129
100
AcDbEntity
  8
0
  6
Continuous
 62
   174
100
AcDbLine
 10
105.944976
 20
60.56448
 30
0.0
 11
121.944976
 21
60.56448
 31
0.0
  0
LINE
  5
12A
100
AcDbEntity
  8
0
  6
Continuous
 62
   174
100
AcDbLine
 10
142.444976
 20
31.26448
 30
0.0
 11
142.444976
 21
38.56448
 31
0.0
  0
ARC
  5
12B
100
AcDbEntity
  8
0
  6
Continuous
 62
   174
100
AcDbCircle
 10
234.444976
 20
42.06448
 30
0.0
 40
3.0
100
AcDbArc
 50
-90.0
 51
0.0
  0
LINE
  5
12C
100
AcDbEntity
  8
0
  6
Continuous
 62
   174
100
AcDbLine
 10
102.444976
 20
57.079348
 30
0.0
 11
102.444976
 21
60.079298
 31
0.0
  0
LINE
  5
12D
100
AcDbEntity
  8
0
  6
Continuous
 62
   174
100
AcDbLine
 10
147.261173
 20
61.26448
 30
0.0
 11
142.665017
 21
61.26448
 31
0.0
  0
LINE
  5
12E
100
AcDbEntity
  8
0
  6
Continuous
 62
   174
100
AcDbLine
 10
166.851131
 20
60.26448
 30
0.0
 11
165.966781
 21
60.26448
 31
0.0
  0
LINE
  5
12F
100
AcDbEntity
  8
0
  6
HIDDEN
 62
   174
100
AcDbLine
 10
68.244976
 20
54.656148
 30
0.0
 11
68.244976
 21
52.077661
 31
0.0
  0
LINE
  5
130
100
AcDbEntity
  8
0
  6
Continuous
 62
   174
100
AcDbLine
 10
234.463018
 20
42.06448
 30
0.0
 11
237.462968
 21
42.06448
 31
0.0
  0
LINE
  5
131
100
AcDbEntity
  8
0
  6
HIDDEN
 62
   174
100
AcDbLine
 10
239.444976
 20
44.503648
 30
0.0
 11
239.444976
 21
41.554044
 31
0.0
  0
LINE
  5
132
100
AcDbEntity
  8
0
  6
Continuous
 62
   174
100
AcDbLine
 10
234.444976
 20
42.080235
 30
0.0
 11
234.444976
 21
39.080498
 31
0.0
  0
LINE
  5
133
100
AcDbEntity
  8
0
  6
HIDDEN
 62
   174
100
AcDbLine
 10
149.194976
 20
56.26448
 30
0.0
 11
149.194976
 21
60.26448
 31
0.0
  0
LINE
  5
134
100
AcDbEntity
  8
0
  6
HIDDEN
 62
   174
100
AcDbLine
 10
149.194976
 20
56.26448
 30
0.0
 11
149.194976
 21
60.26448
 31
0.0
  0
LWPOLYLINE
  5
135
100
AcDbEntity
  8
0
  6
Continuous
 62
   174
100
AcDbPolyline
 90
        4
 70
   128
 10
256.944976
 20
57.313353
 10
256.811855
 20
57.313353
 10
256.57877
 20
57.313353
 10
256.252155
 20
57.313353
  0
LINE
  5
136
100
AcDbEntity
  8
0
  6
Continuous
 62
   174
100
AcDbLine
 10
68.244976
 20
58.17711
 30
0.0
 11
74.444976
 21
58.17711
 31
0.0
  0
LINE
  5
137
100
AcDbEntity
  8
0
  6
Continuous
 62
   174
100
AcDbLine
 10
68.244976
 20
40.950084
 30
0.0
 11
74.444976
 21
40.950084
 31
0.0
  0
LWPOLYLINE
  5
138
100
AcDbEntity
  8
0
  6
Continuous
 62
   174
100
AcDbPolyline
 90
        6
 70
   128
 10
237.444976
 20
55.809478
 10
237.272633
 20
54.853516
 10
236.820833
 20
53.727076
 10
236.157762
 20
52.446086
 10
235.349232
 20
51.05207
 10
234.444976
 20
49.56448
  0
LINE
  5
139
100
AcDbEntity
  8
0
  6
Continuous
 62
   174
100
AcDbLine
 10
234.444976
 20
42.06448
 30
0.0
 11
211.444976
 21
42.06448
 31
0.0
  0
LINE
  5
13A
100
AcDbEntity
  8
0
  6
Continuous
 62
   174
100
AcDbLine
 10
211.444976
 20
42.080235
 30
0.0
 11
211.444976
 21
39.080498
 31
0.0
  0
LWPOLYLINE
  5
13B
100
AcDbEntity
  8
0
  6
Continuous
 62
   174
100
AcDbPolyline
 90
        4
 70
   128
 10
56.944976
 20
54.211074
 10
57.078096
 20
55.264783
 10
57.311179
 20
56.323195
 10
57.637796
 20
57.403286
  0
LINE
  5
13C
100
AcDbEntity
  8
0
  6
Continuous
 62
   174
100
AcDbLine
 10
102.444976
 20
42.06448
 30
0.0
 11
79.444976
 21
42.06448
 31
0.0
  0
LINE
  5
13D
100
AcDbEntity
  8
0
  6
Continuous
 62
   174
100
AcDbLine
 10
74.444976
 20
40.966035
 30
0.0
 11
74.444976
 21
41.554256
 31
0.0
  0
LINE
  5
13E
100
AcDbEntity
  8
0
  6
Continuous
 62
   174
100
AcDbLine
 10
116.444976
 20
52.238428
 30
0.0
 11
116.444976
 21
46.890531
 31
0.0
  0
LINE
  5
13F
100
AcDbEntity
  8
0
  6
HIDDEN
 62
   174
100
AcDbLine
 10
171.444976
 20
38.56448
 30
0.0
 11
171.444976
 21
56.26448
 31
0.0
  0
LWPOLYLINE
  5
140
100
AcDbEntity
  8
0
  6
HIDDEN
 62
   174
100
AcDbPolyline
 90
        7
 70
   128
 10
256.252155
 20
49.654413
 10
256.618282
 20
50.95638
 10
256.84638
 20
52.232981
 10
256.923283
 20
53.483952
 10
256.846365
 20
54.734907
 10
256.618265
 20
56.011462
 10
256.252155
 20
57.313353
  0
LINE
  5
141
100
AcDbEntity
  8
0
  6
HIDDEN
 62
   174
100
AcDbLine
 10
245.644976
 20
47.066598
 30
0.0
 11
239.444976
 21
47.066598
 31
0.0
  0
LINE
  5
142
100
AcDbEntity
  8
0
  6
HIDDEN
 62
   174
100
AcDbLine
 10
245.644976
 20
54.643957
 30
0.0
 11
245.644976
 21
57.56448
 31
0.0
  0
LINE
  5
143
100
AcDbEntity
  8
0
  6
Continuous
 62
   174
100
AcDbLine
 10
237.944976
 20
41.56448
 30
0.0
 11
237.944976
 21
38.56448
 31
0.0
  0
LINE
  5
144
100
AcDbEntity
  8
0
  6
HIDDEN
 62
   174
100
AcDbLine
 10
140.694976
 20
56.26448
 30
0.0
 11
140.694976
 21
60.26448
 31
0.0
  0
LINE
  5
145
100
AcDbEntity
  8
0
  6
HIDDEN
 62
   174
100
AcDbLine
 10
140.694976
 20
56.26448
 30
0.0
 11
140.694976
 21
60.26448
 31
0.0
  0
LINE
  5
146
100
AcDbEntity
  8
0
  6
HIDDEN
 62
   174
100
AcDbLine
 10
149.212989
 20
60.26448
 30
0.0
 11
140.713202
 21
60.26448
 31
0.0
  0
LINE
  5
147
100
AcDbEntity
  8
0
  6
HIDDEN
 62
   174
100
AcDbLine
 10
121.944976
 20
55.56448
 30
0.0
 11
121.894976
 21
55.56448
 31
0.0
  0
LWPOLYLINE
  5
148
100
AcDbEntity
  8
0
  6
Continuous
 62
   174
100
AcDbPolyline
 90
        4
 70
   128
 10
256.944976
 20
44.917885
 10
256.811855
 20
43.864177
 10
256.578773
 20
42.805764
 10
256.252155
 20
41.725674
  0
LWPOLYLINE
  5
149
100
AcDbEntity
  8
0
  6
Continuous
 62
   174
100
AcDbPolyline
 90
        4
 70
   128
 10
256.252155
 20
49.654413
 10
256.580056
 20
48.569444
 10
256.81281
 20
47.510446
 10
256.944976
 20
46.462202
  0
ARC
  5
14A
100
AcDbEntity
  8
0
  6
HIDDEN
 62
   174
100
AcDbCircle
 10
141.694976
 20
60.26448
 30
0.0
 40
1.0
100
AcDbArc
 50
160.907979
 51
180.0
  0
LINE
  5
14B
100
AcDbEntity
  8
0
  6
HIDDEN
 62
   174
100
AcDbLine
 10
191.994976
 20
49.579898
 30
0.0
 11
191.994976
 21
43.58021
 31
0.0
  0
LINE
  5
14C
100
AcDbEntity
  8
0
  6
HIDDEN
 62
   174
100
AcDbLine
 10
171.463007
 20
56.26448
 30
0.0
 11
166.46302
 21
56.26448
 31
0.0
  0
LINE
  5
14D
100
AcDbEntity
  8
0
  6
Continuous
 62
   174
100
AcDbLine
 10
75.944976
 20
60.56448
 30
0.0
 11
105.944976
 21
60.56448
 31
0.0
  0
LINE
  5
14E
100
AcDbEntity
  8
0
  6
Continuous
 62
   174
100
AcDbLine
 10
74.444976
 20
57.605539
 30
0.0
 11
74.444976
 21
58.192061
 31
0.0
  0
ARC
  5
14F
100
AcDbEntity
  8
0
  6
Continuous
 62
   174
100
AcDbCircle
 10
196.944976
 20
49.56448
 30
0.0
 40
2.720294
100
AcDbArc
 50
-259.408609
 51
-100.591391
  0
LINE
  5
150
100
AcDbEntity
  8
0
  6
HIDDEN
 62
   174
100
AcDbLine
 10
245.644976
 20
40.948513
 30
0.0
 11
239.444976
 21
40.948513
 31
0.0
  0
LWPOLYLINE
  5
151
100
AcDbEntity
  8
0
  6
HIDDEN
 62
   174
100
AcDbPolyline
 90
        4
 70
   128
 10
76.486936
 20
41.56448
 10
76.477941
 20
41.620968
 10
76.457535
 20
41.790255
 10
76.444976
 20
42.06448
  0
ARC
  5
152
100
AcDbEntity
  8
0
  6
Continuous
 62
   174
100
AcDbCircle
 10
234.444976
 20
57.06448
 30
0.0
 40
3.0
100
AcDbArc
 50
0.0
 51
90.0
  0
LINE
  5
153
100
AcDbEntity
  8
0
  6
Continuous
 62
   174
100
AcDbLine
 10
74.444976
 20
59.466859
 30
0.0
 11
74.444976
 21
59.579235
 31
0.0
  0
LINE
  5
154
100
AcDbEntity
  8
0
  6
Continuous
 62
   174
100
AcDbLine
 10
211.444976
 20
60.079298
 30
0.0
 11
211.444976
 21
57.079348
 31
0.0
  0
LINE
  5
155
100
AcDbEntity
  8
0
  6
Continuous
 62
   174
100
AcDbLine
 10
142.665017
 20
61.26448
 30
0.0
 11
141.713114
 21
61.26448
 31
0.0
  0
LINE
  5
156
100
AcDbEntity
  8
0
  6
HIDDEN
 62
   174
100
AcDbLine
 10
164.694976
 20
56.26448
 30
0.0
 11
164.694976
 21
60.26448
 31
0.0
  0
LINE
  5
157
100
AcDbEntity
  8
0
  6
Continuous
 62
   174
100
AcDbLine
 10
165.966781
 20
60.26448
 30
0.0
 11
164.713014
 21
60.26448
 31
0.0
  0
LINE
  5
158
100
AcDbEntity
  8
0
  6
HIDDEN
 62
   174
100
AcDbLine
 10
68.244976
 20
47.078736
 30
0.0
 11
68.244976
 21
44.500674
 31
0.0
  0
LINE
  5
159
100
AcDbEntity
  8
0
  6
Continuous
 62
   174
100
AcDbLine
 10
57.637796
 20
41.815607
 30
0.0
 11
60.744976
 21
41.815607
 31
0.0
  0
LINE
  5
15A
100
AcDbEntity
  8
0
  6
Continuous
 62
   174
100
AcDbLine
 10
245.644976
 20
57.56448
 30
0.0
 11
245.644976
 21
58.178876
 31
0.0
  0
LINE
  5
15B
100
AcDbEntity
  8
0
  6
HIDDEN
 62
   174
100
AcDbLine
 10
239.444976
 20
52.08106
 30
0.0
 11
239.444976
 21
47.082134
 31
0.0
  0
LINE
  5
15C
100
AcDbEntity
  8
0
  6
Continuous
 62
   174
100
AcDbLine
 10
105.463047
 20
42.06448
 30
0.0
 11
102.463097
 21
42.06448
 31
0.0
  0
LWPOLYLINE
  5
15D
100
AcDbEntity
  8
0
  6
HIDDEN
 62
   174
100
AcDbPolyline
 90
        7
 70
   128
 10
57.637796
 20
49.474546
 10
57.271669
 20
48.17258
 10
57.043571
 20
46.895978
 10
56.966668
 20
45.645008
 10
57.043586
 20
44.394053
 10
57.271687
 20
43.117498
 10
57.637796
 20
41.815607
  0
LINE
  5
15E
100
AcDbEntity
  8
0
  6
Continuous
 62
   174
100
AcDbLine
 10
237.444976
 20
55.809478
 30
0.0
 11
237.444976
 21
57.06448
 31
0.0
  0
LINE
  5
15F
100
AcDbEntity
  8
0
  6
Continuous
 62
   174
100
AcDbLine
 10
74.444976
 20
39.56448
 30
0.0
 11
74.944976
 21
39.56448
 31
0.0
  0
LINE
  5
160
100
AcDbEntity
  8
0
  6
Continuous
 62
   174
100
AcDbLine
 10
75.944976
 20
57.56448
 30
0.0
 11
75.944976
 21
60.56448
 31
0.0
  0
LINE
  5
161
100
AcDbEntity
  8
0
  6
Continuous
 62
   174
100
AcDbLine
 10
79.444976
 20
39.06448
 30
0.0
 11
102.444976
 21
39.06448
 31
0.0
  0
LINE
  5
162
100
AcDbEntity
  8
0
  6
HIDDEN
 62
   174
100
AcDbLine
 10
191.944976
 20
55.56448
 30
0.0
 11
191.994976
 21
55.56448
 31
0.0
  0
LINE
  5
163
100
AcDbEntity
  8
0
  6
Continuous
 62
   174
100
AcDbLine
 10
56.944976
 20
57.379513
 30
0.0
 11
56.944976
 21
54.226187
 31
0.0
  0
LINE
  5
164
100
AcDbEntity
  8
0
  6
HIDDEN
 62
   174
100
AcDbLine
 10
245.644976
 20
58.178681
 30
0.0
 11
239.444976
 21
58.178681
 31
0.0
  0
LINE
  5
165
100
AcDbEntity
  8
0
  6
Continuous
 62
   174
100
AcDbLine
 10
74.444976
 20
39.580348
 30
0.0
 11
74.444976
 21
39.692936
 31
0.0
  0
LINE
  5
166
100
AcDbEntity
  8
0
  6
HIDDEN
 62
   174
100
AcDbLine
 10
172.213101
 20
61.26448
 30
0.0
 11
171.254612
 21
61.26448
 31
0.0
  0
LINE
  5
167
100
AcDbEntity
  8
0
  6
HIDDEN
 62
   174
100
AcDbLine
 10
68.244976
 20
52.066598
 30
0.0
 11
74.444976
 21
52.066598
 31
0.0
  0
LINE
  5
168
100
AcDbEntity
  8
0
  6
Continuous
 62
   174
100
AcDbLine
 10
60.744976
 20
49.474546
 30
0.0
 11
57.637796
 21
49.474546
 31
0.0
  0
ARC
  5
169
100
AcDbEntity
  8
0
  6
Continuous
 62
   174
100
AcDbCircle
 10
196.944976
 20
49.56448
 30
0.0
 40
2.720294
100
AcDbArc
 50
-79.408609
 51
79.408609
  0
LINE
  5
16A
100
AcDbEntity
  8
0
  6
Continuous
 62
   174
100
AcDbLine
 10
237.944976
 20
60.56448
 30
0.0
 11
237.944976
 21
57.56448
 31
0.0
  0
LINE
  5
16B
100
AcDbEntity
  8
0
  6
Continuous
 62
   174
100
AcDbLine
 10
60.744976
 20
49.490039
 30
0.0
 11
60.744976
 21
41.831479
 31
0.0
  0
LINE
  5
16C
100
AcDbEntity
  8
0
  6
Continuous
 62
   174
100
AcDbLine
 10
237.444976
 20
42.06448
 30
0.0
 11
237.444976
 21
43.319482
 31
0.0
  0
LINE
  5
16D
100
AcDbEntity
  8
0
  6
Continuous
 62
   174
100
AcDbLine
 10
237.944976
 20
38.56448
 30
0.0
 11
207.944976
 21
38.56448
 31
0.0
  0
LINE
  5
16E
100
AcDbEntity
  8
0
  6
HIDDEN
 62
   174
100
AcDbLine
 10
121.944976
 20
49.579898
 30
0.0
 11
121.944976
 21
43.58021
 31
0.0
  0
LWPOLYLINE
  5
16F
100
AcDbEntity
  8
0
  6
HIDDEN
 62
   174
100
AcDbPolyline
 90
        4
 70
   128
 10
57.637796
 20
57.403286
 10
57.309895
 20
56.318317
 10
57.077141
 20
55.259318
 10
56.944976
 20
54.211074
  0
LINE
  5
170
100
AcDbEntity
  8
0
  6
HIDDEN
 62
   174
100
AcDbLine
 10
245.644976
 20
52.065728
 30
0.0
 11
239.444976
 21
52.065728
 31
0.0
  0
LINE
  5
171
100
AcDbEntity
  8
0
  6
Continuous
 62
   174
100
AcDbLine
 10
102.444976
 20
60.06448
 30
0.0
 11
79.444976
 21
60.06448
 31
0.0
  0
LINE
  5
172
100
AcDbEntity
  8
0
  6
Continuous
 62
   174
100
AcDbLine
 10
171.261198
 20
61.26448
 30
0.0
 11
166.665042
 21
61.26448
 31
0.0
  0
LINE
  5
173
100
AcDbEntity
  8
0
  6
HIDDEN
 62
   174
100
AcDbLine
 10
121.894976
 20
49.579898
 30
0.0
 11
121.894976
 21
55.579585
 31
0.0
  0
LINE
  5
174
100
AcDbEntity
  8
0
  6
HIDDEN
 62
   174
100
AcDbLine
 10
121.944976
 20
43.56448
 30
0.0
 11
121.894976
 21
43.56448
 31
0.0
  0
LINE
  5
175
100
AcDbEntity
  8
0
  6
HIDDEN
 62
   174
100
AcDbLine
 10
252.444976
 20
43.080148
 30
0.0
 11
252.444976
 21
56.079435
 31
0.0
  0
LINE
  5
176
100
AcDbEntity
  8
0
  6
Continuous
 62
   174
100
AcDbLine
 10
249.444976
 20
42.97372
 30
0.0
 11
249.444976
 21
56.186075
 31
0.0
  0
LINE
  5
177
100
AcDbEntity
  8
0
  6
HIDDEN
 62
   174
100
AcDbLine
 10
74.444976
 20
47.065729
 30
0.0
 11
74.444976
 21
52.066598
 31
0.0
  0
ARC
  5
178
100
AcDbEntity
  8
0
  6
Continuous
 62
   174
100
AcDbCircle
 10
196.944976
 20
49.56448
 30
0.0
 40
3.0
100
AcDbArc
 50
0.0
 51
180.0
  0
ARC
  5
179
100
AcDbEntity
  8
0
  6
Continuous
 62
   174
100
AcDbCircle
 10
211.444976
 20
57.06448
 30
0.0
 40
3.0
100
AcDbArc
 50
-270.0
 51
-180.0
  0
LINE
  5
17A
100
AcDbEntity
  8
0
  6
Continuous
 62
   174
100
AcDbLine
 10
79.444976
 20
57.079348
 30
0.0
 11
79.444976
 21
60.079298
 31
0.0
  0
LINE
  5
17B
100
AcDbEntity
  8
0
  6
Continuous
 62
   174
100
AcDbLine
 10
253.144976
 20
57.328317
 30
0.0
 11
253.144976
 21
58.579323
 31
0.0
  0
LINE
  5
17C
100
AcDbEntity
  8
0
  6
Continuous
 62
   174
100
AcDbLine
 10
256.944976
 20
46.462202
 30
0.0
 11
256.944976
 21
44.917885
 31
0.0
  0
LINE
  5
17D
100
AcDbEntity
  8
0
  6
Continuous
 62
   174
100
AcDbLine
 10
253.144976
 20
49.654413
 30
0.0
 11
256.252155
 21
49.654413
 31
0.0
  0
LINE
  5
17E
100
AcDbEntity
  8
0
  6
Continuous
 62
   174
100
AcDbLine
 10
239.444976
 20
41.554044
 30
0.0
 11
239.444976
 21
40.967734
 31
0.0
  0
ARC
  5
17F
100
AcDbEntity
  8
0
  6
Continuous
 62
   174
100
AcDbCircle
 10
165.694976
 20
60.26448
 30
0.0
 40
1.0
100
AcDbArc
 50
90.0
 51
160.907979
  0
LINE
  5
180
100
AcDbEntity
  8
0
  6
Continuous
 62
   174
100
AcDbLine
 10
148.213077
 20
61.26448
 30
0.0
 11
147.589379
 21
61.26448
 31
0.0
  0
LINE
  5
181
100
AcDbEntity
  8
0
  6
Continuous
 62
   174
100
AcDbLine
 10
142.462996
 20
31.26448
 30
0.0
 11
147.463195
 21
31.26448
 31
0.0
  0
LWPOLYLINE
  5
182
100
AcDbEntity
  8
0
  6
Continuous
 62
   174
100
AcDbPolyline
 90
        4
 70
   128
 10
56.944976
 20
41.815607
 10
57.078096
 20
41.815607
 10
57.311181
 20
41.815607
 10
57.637796
 20
41.815607
  0
LINE
  5
183
100
AcDbEntity
  8
0
  6
HIDDEN
 62
   174
100
AcDbLine
 10
245.644976
 20
44.483431
 30
0.0
 11
239.444976
 21
44.483431
 31
0.0
  0
LINE
  5
184
100
AcDbEntity
  8
0
  6
HIDDEN
 62
   174
100
AcDbLine
 10
239.444976
 20
57.605539
 30
0.0
 11
239.444976
 21
54.659122
 31
0.0
  0
LINE
  5
185
100
AcDbEntity
  8
0
  6
Continuous
 62
   174
100
AcDbLine
 10
245.644976
 20
58.178876
 30
0.0
 11
239.444976
 21
58.178876
 31
0.0
  0
LINE
  5
186
100
AcDbEntity
  8
0
  6
HIDDEN
 62
   174
100
AcDbLine
 10
245.644976
 20
47.066598
 30
0.0
 11
245.644976
 21
52.065728
 31
0.0
  0
LINE
  5
187
100
AcDbEntity
  8
0
  6
Continuous
 62
   174
100
AcDbLine
 10
245.644976
 20
39.898782
 30
0.0
 11
245.644976
 21
40.967734
 31
0.0
  0
LWPOLYLINE
  5
188
100
AcDbEntity
  8
0
  6
HIDDEN
 62
   174
100
AcDbPolyline
 90
        4
 70
   128
 10
56.944976
 20
52.666758
 10
57.078096
 20
51.613049
 10
57.311179
 20
50.554637
 10
57.637796
 20
49.474546
  0
LWPOLYLINE
  5
189
100
AcDbEntity
  8
0
  6
HIDDEN
 62
   174
100
AcDbPolyline
 90
        4
 70
   128
 10
256.252155
 20
41.725674
 10
256.580056
 20
42.810643
 10
256.81281
 20
43.869641
 10
256.944976
 20
44.917885
  0
LWPOLYLINE
  5
18A
100
AcDbEntity
  8
0
  6
Continuous
 62
   174
100
AcDbPolyline
 90
        6
 70
   128
 10
76.444976
 20
43.319482
 10
76.617318
 20
44.275444
 10
77.069119
 20
45.401883
 10
77.732189
 20
46.682874
 10
78.540719
 20
48.07689
 10
79.444976
 20
49.56448
  0
LINE
  5
18B
100
AcDbEntity
  8
0
  6
Continuous
 62
   174
100
AcDbLine
 10
239.444976
 20
58.19376
 30
0.0
 11
239.444976
 21
57.605539
 31
0.0
  0
LINE
  5
18C
100
AcDbEntity
  8
0
  6
Continuous
 62
   174
100
AcDbLine
 10
172.213101
 20
61.26448
 30
0.0
 11
171.589404
 21
61.26448
 31
0.0
  0
LINE
  5
18D
100
AcDbEntity
  8
0
  6
HIDDEN
 62
   174
100
AcDbLine
 10
171.254612
 20
61.26448
 30
0.0
 11
166.336836
 21
61.26448
 31
0.0
  0
LINE
  5
18E
100
AcDbEntity
  8
0
  6
Continuous
 62
   174
100
AcDbLine
 10
208.444976
 20
42.06448
 30
0.0
 11
208.444976
 21
57.06448
 31
0.0
  0
LINE
  5
18F
100
AcDbEntity
  8
0
  6
HIDDEN
 62
   174
100
AcDbLine
 10
239.444976
 20
44.483431
 30
0.0
 11
239.444976
 21
40.948513
 31
0.0
  0
LWPOLYLINE
  5
190
100
AcDbEntity
  8
0
  6
Continuous
 62
   174
100
AcDbPolyline
 90
        3
 70
   128
 10
57.637796
 20
57.403286
 10
57.271693
 20
57.403286
 10
57.043594
 20
57.403286
  0
LINE
  5
191
100
AcDbEntity
  8
0
  6
Continuous
 62
   174
100
AcDbLine
 10
74.444976
 20
39.692936
 30
0.0
 11
74.444976
 21
39.897932
 31
0.0
  0
LINE
  5
192
100
AcDbEntity
  8
0
  6
Continuous
 62
   174
100
AcDbLine
 10
64.444976
 20
56.185863
 30
0.0
 11
64.444976
 21
42.97372
 31
0.0
  0
LINE
  5
193
100
AcDbEntity
  8
0
  6
HIDDEN
 62
   174
100
AcDbLine
 10
68.244976
 20
54.645529
 30
0.0
 11
74.444976
 21
54.645529
 31
0.0
  0
LINE
  5
194
100
AcDbEntity
  8
0
  6
Continuous
 62
   174
100
AcDbLine
 10
245.644976
 20
40.95185
 30
0.0
 11
239.444976
 21
40.95185
 31
0.0
  0
LINE
  5
195
100
AcDbEntity
  8
0
  6
Continuous
 62
   174
100
AcDbLine
 10
79.444976
 20
42.06448
 30
0.0
 11
79.444976
 21
49.56448
 31
0.0
  0
LINE
  5
196
100
AcDbEntity
  8
0
  6
Continuous
 62
   174
100
AcDbLine
 10
74.944976
 20
39.56448
 30
0.0
 11
75.944976
 21
39.56448
 31
0.0
  0
LINE
  5
197
100
AcDbEntity
  8
0
  6
HIDDEN
 62
   174
100
AcDbLine
 10
164.694976
 20
56.26448
 30
0.0
 11
164.694976
 21
60.26448
 31
0.0
  0
ARC
  5
198
100
AcDbEntity
  8
0
  6
Continuous
 62
   174
100
AcDbCircle
 10
79.444976
 20
57.06448
 30
0.0
 40
3.0
100
AcDbArc
 50
-270.0
 51
-180.0
  0
LINE
  5
199
100
AcDbEntity
  8
0
  6
Continuous
 62
   174
100
AcDbLine
 10
117.444976
 20
46.890531
 30
0.0
 11
117.444976
 21
52.238428
 31
0.0
  0
LINE
  5
19A
100
AcDbEntity
  8
0
  6
HIDDEN
 62
   174
100
AcDbLine
 10
237.944976
 20
57.56448
 30
0.0
 11
237.944976
 21
41.56448
 31
0.0
  0
LINE
  5
19B
100
AcDbEntity
  8
0
  6
Continuous
 62
   174
100
AcDbLine
 10
147.444976
 20
31.26448
 30
0.0
 11
147.444976
 21
38.56448
 31
0.0
  0
LINE
  5
19C
100
AcDbEntity
  8
0
  6
HIDDEN
 62
   174
100
AcDbLine
 10
64.444976
 20
43.080148
 30
0.0
 11
64.444976
 21
56.079435
 31
0.0
  0
LINE
  5
19D
100
AcDbEntity
  8
0
  6
Continuous
 62
   174
100
AcDbLine
 10
60.744976
 20
41.831479
 30
0.0
 11
60.744976
 21
40.580473
 31
0.0
  0
LINE
  5
19E
100
AcDbEntity
  8
0
  6
Continuous
 62
   174
100
AcDbLine
 10
68.244976
 20
40.966035
 30
0.0
 11
68.244976
 21
39.897932
 31
0.0
  0
LWPOLYLINE
  5
19F
100
AcDbEntity
  8
0
  6
Continuous
 62
   174
100
AcDbPolyline
 90
        7
 70
   128
 10
256.252155
 20
57.313353
 10
256.618282
 20
56.011386
 10
256.84638
 20
54.734784
 10
256.923283
 20
53.483814
 10
256.846365
 20
52.232859
 10
256.618265
 20
50.956304
 10
256.252155
 20
49.654413
  0
LINE
  5
1A0
100
AcDbEntity
  8
0
  6
HIDDEN
 62
   174
100
AcDbLine
 10
237.444976
 20
57.079348
 30
0.0
 11
237.444976
 21
42.080235
 31
0.0
  0
ARC
  5
1A1
100
AcDbEntity
  8
0
  6
Continuous
 62
   174
100
AcDbCircle
 10
196.944976
 20
49.56448
 30
0.0
 40
3.0
100
AcDbArc
 50
-180.0
 51
0.0
  0
LINE
  5
1A2
100
AcDbEntity
  8
0
  6
Continuous
 62
   174
100
AcDbLine
 10
102.444976
 20
39.080498
 30
0.0
 11
102.444976
 21
42.080235
 31
0.0
  0
LINE
  5
1A3
100
AcDbEntity
  8
0
  6
Continuous
 62
   174
100
AcDbLine
 10
61.444976
 20
40.580473
 30
0.0
 11
61.444976
 21
42.866017
 31
0.0
  0
LINE
  5
1A4
100
AcDbEntity
  8
0
  6
Continuous
 62
   174
100
AcDbLine
 10
256.252155
 20
57.313353
 30
0.0
 11
253.144976
 21
57.313353
 31
0.0
  0
LINE
  5
1A5
100
AcDbEntity
  8
0
  6
HIDDEN
 62
   174
100
AcDbLine
 10
74.444976
 20
54.645529
 30
0.0
 11
74.444976
 21
58.180447
 31
0.0
  0
LWPOLYLINE
  5
1A6
100
AcDbEntity
  8
0
  6
HIDDEN
 62
   174
100
AcDbPolyline
 90
        4
 70
   128
 10
237.444976
 20
42.06448
 10
237.432416
 20
41.790257
 10
237.412011
 20
41.62097
 10
237.403016
 20
41.56448
  0
LINE
  5
1A7
100
AcDbEntity
  8
0
  6
HIDDEN
 62
   174
100
AcDbLine
 10
68.244976
 20
44.485003
 30
0.0
 11
68.244976
 21
41.56448
 31
0.0
  0
ARC
  5
1A8
100
AcDbEntity
  8
0
  6
Continuous
 62
   174
100
AcDbCircle
 10
172.194976
 20
60.26448
 30
0.0
 40
1.0
100
AcDbArc
 50
-340.907979
 51
-270.0
  0
ARC
  5
1A9
100
AcDbEntity
  8
0
  6
Continuous
 62
   174
100
AcDbCircle
 10
141.694976
 20
60.26448
 30
0.0
 40
1.0
100
AcDbArc
 50
90.0
 51
160.907979
  0
LINE
  5
1AA
100
AcDbEntity
  8
0
  6
Continuous
 62
   174
100
AcDbLine
 10
147.589379
 20
61.26448
 30
0.0
 11
142.671603
 21
61.26448
 31
0.0
  0
LINE
  5
1AB
100
AcDbEntity
  8
0
  6
Continuous
 62
   174
100
AcDbLine
 10
64.444976
 20
57.57941
 30
0.0
 11
64.444976
 21
56.185863
 31
0.0
  0
LINE
  5
1AC
100
AcDbEntity
  8
0
  6
HIDDEN
 62
   174
100
AcDbLine
 10
245.644976
 20
44.503648
 30
0.0
 11
245.644976
 21
47.082134
 31
0.0
  0
LINE
  5
1AD
100
AcDbEntity
  8
0
  6
Continuous
 62
   174
100
AcDbLine
 10
245.644976
 20
59.246938
 30
0.0
 11
239.444976
 21
59.246938
 31
0.0
  0
LINE
  5
1AE
100
AcDbEntity
  8
0
  6
Continuous
 62
   174
100
AcDbLine
 10
79.444976
 20
39.080498
 30
0.0
 11
79.444976
 21
42.080235
 31
0.0
  0
LINE
  5
1AF
100
AcDbEntity
  8
0
  6
Continuous
 62
   174
100
AcDbLine
 10
166.444976
 20
31.26448
 30
0.0
 11
166.444976
 21
38.56448
 31
0.0
  0
LINE
  5
1B0
100
AcDbEntity
  8
0
  6
Continuous
 62
   174
100
AcDbLine
 10
64.444976
 20
42.97372
 30
0.0
 11
64.444976
 21
41.580385
 31
0.0
  0
LINE
  5
1B1
100
AcDbEntity
  8
0
  6
HIDDEN
 62
   174
100
AcDbLine
 10
239.444976
 20
52.063231
 30
0.0
 11
239.444976
 21
47.062361
 31
0.0
  0
LWPOLYLINE
  5
1B2
100
AcDbEntity
  8
0
  6
Continuous
 62
   174
100
AcDbPolyline
 90
        3
 70
   128
 10
256.252155
 20
41.725674
 10
256.618258
 20
41.725674
 10
256.846357
 20
41.725674
  0
LINE
  5
1B3
100
AcDbEntity
  8
0
  6
Continuous
 62
   174
100
AcDbLine
 10
171.589404
 20
61.26448
 30
0.0
 11
166.671627
 21
61.26448
 31
0.0
  0
LINE
  5
1B4
100
AcDbEntity
  8
0
  6
HIDDEN
 62
   174
100
AcDbLine
 10
166.336836
 20
61.26448
 30
0.0
 11
165.713139
 21
61.26448
 31
0.0
  0
LINE
  5
1B5
100
AcDbEntity
  8
0
  6
HIDDEN
 62
   174
100
AcDbLine
 10
142.444976
 20
38.56448
 30
0.0
 11
142.444976
 21
39.56448
 31
0.0
  0
LINE
  5
1B6
100
AcDbEntity
  8
0
  6
Continuous
 62
   174
100
AcDbLine
 10
207.944976
 20
60.56448
 30
0.0
 11
207.944976
 21
38.56448
 31
0.0
  0
LINE
  5
1B7
100
AcDbEntity
  8
0
  6
Continuous
 62
   174
100
AcDbLine
 10
245.644976
 20
40.95185
 30
0.0
 11
245.644976
 21
41.56448
 31
0.0
  0
LINE
  5
1B8
100
AcDbEntity
  8
0
  6
Continuous
 62
   174
100
AcDbLine
 10
142.444976
 20
31.26448
 30
0.0
 11
142.444976
 21
38.56448
 31
0.0
  0
LINE
  5
1B9
100
AcDbEntity
  8
0
  6
HIDDEN
 62
   174
100
AcDbLine
 10
245.644976
 20
52.063231
 30
0.0
 11
239.444976
 21
52.063231
 31
0.0
  0
LINE
  5
1BA
100
AcDbEntity
  8
0
  6
HIDDEN
 62
   174
100
AcDbLine
 10
245.644976
 20
54.643957
 30
0.0
 11
239.444976
 21
54.643957
 31
0.0
  0
LINE
  5
1BB
100
AcDbEntity
  8
0
  6
HIDDEN
 62
   174
100
AcDbLine
 10
173.194976
 20
56.26448
 30
0.0
 11
173.194976
 21
60.26448
 31
0.0
  0
LINE
  5
1BC
100
AcDbEntity
  8
0
  6
HIDDEN
 62
   174
100
AcDbLine
 10
191.944976
 20
60.56448
 30
0.0
 11
191.944976
 21
38.56448
 31
0.0
  0
LINE
  5
1BD
100
AcDbEntity
  8
0
  6
Continuous
 62
   174
100
AcDbLine
 10
61.444976
 20
56.293778
 30
0.0
 11
61.444976
 21
58.579323
 31
0.0
  0
LINE
  5
1BE
100
AcDbEntity
  8
0
  6
Continuous
 62
   174
100
AcDbLine
 10
60.744976
 20
58.579323
 30
0.0
 11
60.744976
 21
57.418175
 31
0.0
  0
LINE
  5
1BF
100
AcDbEntity
  8
0
  6
Continuous
 62
   174
100
AcDbLine
 10
211.444976
 20
57.06448
 30
0.0
 11
234.444976
 21
57.06448
 31
0.0
  0
LINE
  5
1C0
100
AcDbEntity
  8
0
  6
Continuous
 62
   174
100
AcDbLine
 10
239.444976
 20
59.579235
 30
0.0
 11
239.444976
 21
59.466859
 31
0.0
  0
LINE
  5
1C1
100
AcDbEntity
  8
0
  6
HIDDEN
 62
   174
100
AcDbLine
 10
61.444976
 20
56.079435
 30
0.0
 11
61.444976
 21
43.080148
 31
0.0
  0
LINE
  5
1C2
100
AcDbEntity
  8
0
  6
HIDDEN
 62
   174
100
AcDbLine
 10
76.444976
 20
42.080235
 30
0.0
 11
76.444976
 21
57.079348
 31
0.0
  0
ARC
  5
1C3
100
AcDbEntity
  8
0
  6
Continuous
 62
   174
100
AcDbCircle
 10
116.944976
 20
49.56448
 30
0.0
 40
2.720294
100
AcDbArc
 50
-259.408609
 51
-100.591391
  0
LINE
  5
1C4
100
AcDbEntity
  8
0
  6
Continuous
 62
   174
100
AcDbLine
 10
211.444976
 20
60.06448
 30
0.0
 11
234.444976
 21
60.06448
 31
0.0
  0
LINE
  5
1C5
100
AcDbEntity
  8
0
  6
Continuous
 62
   174
100
AcDbLine
 10
252.444976
 20
56.293778
 30
0.0
 11
252.444976
 21
42.866017
 31
0.0
  0
LWPOLYLINE
  5
1C6
100
AcDbEntity
  8
0
  6
Continuous
 62
   174
100
AcDbPolyline
 90
        7
 70
   128
 10
57.637796
 20
41.815607
 10
57.271669
 20
43.117573
 10
57.043571
 20
44.394175
 10
56.966668
 20
45.645146
 10
57.043586
 20
46.896101
 10
57.271687
 20
48.172656
 10
57.637796
 20
49.474546
  0
LINE
  5
1C7
100
AcDbEntity
  8
0
  6
HIDDEN
 62
   174
100
AcDbLine
 10
245.644976
 20
44.487998
 30
0.0
 11
239.444976
 21
44.487998
 31
0.0
  0
ARC
  5
1C8
100
AcDbEntity
  8
0
  6
HIDDEN
 62
   174
100
AcDbCircle
 10
172.194976
 20
60.26448
 30
0.0
 40
1.0
100
AcDbArc
 50
0.0
 51
19.092021
  0
ARC
  5
1C9
100
AcDbEntity
  8
0
  6
Continuous
 62
   174
100
AcDbCircle
 10
165.694976
 20
60.26448
 30
0.0
 40
1.0
100
AcDbArc
 50
90.0
 51
160.907979
  0
ARC
  5
1CA
100
AcDbEntity
  8
0
  6
Continuous
 62
   174
100
AcDbCircle
 10
148.194976
 20
60.26448
 30
0.0
 40
1.0
100
AcDbArc
 50
-340.907979
 51
-270.0
  0
LINE
  5
1CB
100
AcDbEntity
  8
0
  6
HIDDEN
 62
   174
100
AcDbLine
 10
173.194976
 20
56.26448
 30
0.0
 11
173.194976
 21
60.26448
 31
0.0
  0
LINE
  5
1CC
100
AcDbEntity
  8
0
  6
HIDDEN
 62
   174
100
AcDbLine
 10
245.644976
 20
52.08106
 30
0.0
 11
245.644976
 21
54.659122
 31
0.0
  0
LINE
  5
1CD
100
AcDbEntity
  8
0
  6
HIDDEN
 62
   174
100
AcDbLine
 10
239.444976
 20
58.178681
 30
0.0
 11
239.444976
 21
54.642533
 31
0.0
  0
LINE
  5
1CE
100
AcDbEntity
  8
0
  6
HIDDEN
 62
   174
100
AcDbLine
 10
68.244976
 20
40.950278
 30
0.0
 11
74.444976
 21
40.950278
 31
0.0
  0
LINE
  5
1CF
100
AcDbEntity
  8
0
  6
Continuous
 62
   174
100
AcDbLine
 10
68.244976
 20
41.56448
 30
0.0
 11
68.244976
 21
40.950084
 31
0.0
  0
LINE
  5
1D0
100
AcDbEntity
  8
0
  6
Continuous
 62
   174
100
AcDbLine
 10
196.444976
 20
52.238428
 30
0.0
 11
196.444976
 21
46.890531
 31
0.0
  0
LINE
  5
1D1
100
AcDbEntity
  8
0
  6
HIDDEN
 62
   174
100
AcDbLine
 10
166.444976
 20
38.56448
 30
0.0
 11
166.444976
 21
56.26448
 31
0.0
  0
LINE
  5
1D2
100
AcDbEntity
  8
0
  6
Continuous
 62
   174
100
AcDbLine
 10
171.444976
 20
31.26448
 30
0.0
 11
171.444976
 21
38.56448
 31
0.0
  0
LINE
  5
1D3
100
AcDbEntity
  8
0
  6
HIDDEN
 62
   174
100
AcDbLine
 10
253.144976
 20
49.654413
 30
0.0
 11
256.252155
 21
49.654413
 31
0.0
  0
LINE
  5
1D4
100
AcDbEntity
  8
0
  6
Continuous
 62
   174
100
AcDbLine
 10
245.644976
 20
39.882891
 30
0.0
 11
239.444976
 21
39.882891
 31
0.0
  0
LINE
  5
1D5
100
AcDbEntity
  8
0
  6
Continuous
 62
   174
100
AcDbLine
 10
239.444976
 20
59.466859
 30
0.0
 11
239.444976
 21
59.261863
 31
0.0
  0
LINE
  5
1D6
100
AcDbEntity
  8
0
  6
Continuous
 62
   174
100
AcDbLine
 10
234.444976
 20
39.06448
 30
0.0
 11
211.444976
 21
39.06448
 31
0.0
  0
LWPOLYLINE
  5
1D7
100
AcDbEntity
  8
0
  6
HIDDEN
 62
   174
100
AcDbPolyline
 90
        4
 70
   128
 10
76.444976
 20
57.06448
 10
76.457535
 20
57.338703
 10
76.47794
 20
57.50799
 10
76.486936
 20
57.56448
  0
LINE
  5
1D8
100
AcDbEntity
  8
0
  6
Continuous
 62
   174
100
AcDbLine
 10
239.444976
 20
39.56448
 30
0.0
 11
238.944976
 21
39.56448
 31
0.0
  0
LINE
  5
1D9
100
AcDbEntity
  8
0
  6
Continuous
 62
   174
100
AcDbLine
 10
238.944976
 20
39.56448
 30
0.0
 11
237.944976
 21
39.56448
 31
0.0
  0
LINE
  5
1DA
100
AcDbEntity
  8
0
  6
Continuous
 62
   174
100
AcDbLine
 10
74.944976
 20
59.56448
 30
0.0
 11
75.944976
 21
59.56448
 31
0.0
  0
LINE
  5
1DB
100
AcDbEntity
  8
0
  6
Continuous
 62
   174
100
AcDbLine
 10
79.444976
 20
49.56448
 30
0.0
 11
79.444976
 21
57.06448
 31
0.0
  0
ARC
  5
1DC
100
AcDbEntity
  8
0
  6
HIDDEN
 62
   174
100
AcDbCircle
 10
165.694976
 20
60.26448
 30
0.0
 40
1.0
100
AcDbArc
 50
160.907979
 51
180.0
  0
LINE
  5
1DD
100
AcDbEntity
  8
0
  6
Continuous
 62
   174
100
AcDbLine
 10
166.671627
 20
61.26448
 30
0.0
 11
165.713139
 21
61.26448
 31
0.0
  0
LINE
  5
1DE
100
AcDbEntity
  8
0
  6
HIDDEN
 62
   174
100
AcDbLine
 10
147.254588
 20
61.26448
 30
0.0
 11
142.336812
 21
61.26448
 31
0.0
  0
LINE
  5
1DF
100
AcDbEntity
  8
0
  6
Continuous
 62
   174
100
AcDbLine
 10
166.444976
 20
31.26448
 30
0.0
 11
166.444976
 21
38.56448
 31
0.0
  0
LINE
  5
1E0
100
AcDbEntity
  8
0
  6
HIDDEN
 62
   174
100
AcDbLine
 10
171.444976
 20
38.56448
 30
0.0
 11
171.444976
 21
56.26448
 31
0.0
  0
LINE
  5
1E1
100
AcDbEntity
  8
0
  6
HIDDEN
 62
   174
100
AcDbLine
 10
68.244976
 20
52.062362
 30
0.0
 11
74.444976
 21
52.062362
 31
0.0
  0
LINE
  5
1E2
100
AcDbEntity
  8
0
  6
HIDDEN
 62
   174
100
AcDbLine
 10
68.244976
 20
47.063231
 30
0.0
 11
74.444976
 21
47.063231
 31
0.0
  0
LINE
  5
1E3
100
AcDbEntity
  8
0
  6
HIDDEN
 62
   174
100
AcDbLine
 10
207.944976
 20
38.56448
 30
0.0
 11
207.944976
 21
60.56448
 31
0.0
  0
LINE
  5
1E4
100
AcDbEntity
  8
0
  6
HIDDEN
 62
   174
100
AcDbLine
 10
121.944976
 20
55.579585
 30
0.0
 11
121.944976
 21
49.579898
 31
0.0
  0
LINE
  5
1E5
100
AcDbEntity
  8
0
  6
HIDDEN
 62
   174
100
AcDbLine
 10
74.444976
 20
40.950278
 30
0.0
 11
74.444976
 21
44.486427
 31
0.0
  0
LINE
  5
1E6
100
AcDbEntity
  8
0
  6
Continuous
 62
   174
100
AcDbLine
 10
76.463035
 20
42.06448
 30
0.0
 11
79.463197
 21
42.06448
 31
0.0
  0
LINE
  5
1E7
100
AcDbEntity
  8
0
  6
HIDDEN
 62
   174
100
AcDbLine
 10
245.644976
 20
54.642533
 30
0.0
 11
239.444976
 21
54.642533
 31
0.0
  0
LINE
  5
1E8
100
AcDbEntity
  8
0
  6
HIDDEN
 62
   174
100
AcDbLine
 10
245.644976
 20
41.56448
 30
0.0
 11
245.644976
 21
44.487998
 31
0.0
  0
LINE
  5
1E9
100
AcDbEntity
  8
0
  6
Continuous
 62
   174
100
AcDbLine
 10
79.463197
 20
57.06448
 30
0.0
 11
76.463035
 21
57.06448
 31
0.0
  0
LINE
  5
1EA
100
AcDbEntity
  8
0
  6
Continuous
 62
   174
100
AcDbLine
 10
197.444976
 20
46.890531
 30
0.0
 11
197.444976
 21
52.238428
 31
0.0
  0
LINE
  5
1EB
100
AcDbEntity
  8
0
  6
HIDDEN
 62
   174
100
AcDbLine
 10
142.336812
 20
61.26448
 30
0.0
 11
141.713114
 21
61.26448
 31
0.0
  0
LINE
  5
1EC
100
AcDbEntity
  8
0
  6
HIDDEN
 62
   174
100
AcDbLine
 10
142.444976
 20
39.56448
 30
0.0
 11
142.444976
 21
40.56448
 31
0.0
  0
LINE
  5
1ED
100
AcDbEntity
  8
0
  6
HIDDEN
 62
   174
100
AcDbLine
 10
75.944976
 20
39.580348
 30
0.0
 11
75.944976
 21
59.579235
 31
0.0
  0
LINE
  5
1EE
100
AcDbEntity
  8
0
  6
HIDDEN
 62
   174
100
AcDbLine
 10
249.444976
 20
56.079435
 30
0.0
 11
249.444976
 21
43.080148
 31
0.0
  0
LINE
  5
1EF
100
AcDbEntity
  8
0
  6
Continuous
 62
   174
100
AcDbLine
 10
74.444976
 20
59.261014
 30
0.0
 11
74.444976
 21
59.466859
 31
0.0
  0
ARC
  5
1F0
100
AcDbEntity
  8
0
  6
Continuous
 62
   174
100
AcDbCircle
 10
116.944976
 20
49.56448
 30
0.0
 40
2.720294
100
AcDbArc
 50
-79.408609
 51
79.408609
  0
ENDBLK
  5
1F1
100
AcDbEntity
  8
0
100
AcDbBlockEnd
  0
BLOCK
  5
1F4
100
AcDbEntity
  8
0
100
AcDbBlockBegin
  2
*B3
 70
     0
 10
0.0
 20
0.0
 30
0.0
  3
*B3
  1

  0
LINE
  5
1F5
100
AcDbEntity
  8
0
  6
HIDDEN
 62
   172
100
AcDbLine
 10
166.5
 20
53.2
 30
0.0
 11
171.4
 21
53.2
 31
0.0
  0
LINE
  5
1F6
100
AcDbEntity
  8
0
  6
HIDDEN
 62
   172
100
AcDbLine
 10
142.5
 20
53.2
 30
0.0
 11
147.4
 21
53.2
 31
0.0
  0
LINE
  5
1F7
100
AcDbEntity
  8
0
  6
HIDDEN
 62
   172
100
AcDbLine
 10
170.9
 20
38.55
 30
0.0
 11
170.9
 21
53.2
 31
0.0
  0
LINE
  5
1F8
100
AcDbEntity
  8
0
  6
HIDDEN
 62
   172
100
AcDbLine
 10
167.0
 20
38.55
 30
0.0
 11
167.0
 21
53.2
 31
0.0
  0
LINE
  5
1F9
100
AcDbEntity
  8
0
  6
HIDDEN
 62
   172
100
AcDbLine
 10
146.9
 20
38.55
 30
0.0
 11
146.9
 21
53.2
 31
0.0
  0
LINE
  5
1FA
100
AcDbEntity
  8
0
  6
HIDDEN
 62
   172
100
AcDbLine
 10
143.0
 20
38.55
 30
0.0
 11
143.0
 21
53.2
 31
0.0
  0
ENDBLK
  5
1FB
100
AcDbEntity
  8
0
100
AcDbBlockEnd
  0
BLOCK
  5
1FE
100
AcDbEntity
  8
0
100
AcDbBlockBegin
  2
*B4
 70
     0
 10
0.0
 20
0.0
 30
0.0
  3
*B4
  1

  0
LINE
  5
1FF
100
AcDbEntity
  8
0
  6
HIDDEN
 62
   174
100
AcDbLine
 10
219.544976
 20
173.919017
 30
0.0
 11
219.544976
 21
173.969017
 31
0.0
  0
LINE
  5
200
100
AcDbEntity
  8
0
  6
HIDDEN
 62
   174
100
AcDbLine
 10
226.344976
 20
173.919017
 30
0.0
 11
226.344976
 21
173.969017
 31
0.0
  0
LINE
  5
201
100
AcDbEntity
  8
0
  6
HIDDEN
 62
   174
100
AcDbLine
 10
94.344976
 20
173.919017
 30
0.0
 11
94.344976
 21
173.969017
 31
0.0
  0
LINE
  5
202
100
AcDbEntity
  8
0
  6
HIDDEN
 62
   174
100
AcDbLine
 10
87.544976
 20
173.919017
 30
0.0
 11
87.544976
 21
173.969017
 31
0.0
  0
LINE
  5
203
100
AcDbEntity
  8
0
  6
HIDDEN
 62
   174
100
AcDbLine
 10
225.944976
 20
173.919017
 30
0.0
 11
225.944976
 21
173.969017
 31
0.0
  0
LINE
  5
204
100
AcDbEntity
  8
0
  6
HIDDEN
 62
   174
100
AcDbLine
 10
87.944976
 20
173.919017
 30
0.0
 11
87.944976
 21
173.969017
 31
0.0
  0
LINE
  5
205
100
AcDbEntity
  8
0
  6
HIDDEN
 62
   174
100
AcDbLine
 10
219.944976
 20
173.919017
 30
0.0
 11
219.944976
 21
173.969017
 31
0.0
  0
LINE
  5
206
100
AcDbEntity
  8
0
  6
HIDDEN
 62
   174
100
AcDbLine
 10
93.944976
 20
173.919017
 30
0.0
 11
93.944976
 21
173.969017
 31
0.0
  0
LINE
  5
207
100
AcDbEntity
  8
0
  6
HIDDEN
 62
   174
100
AcDbLine
 10
224.922159
 20
173.969017
 30
0.0
 11
224.922159
 21
173.919017
 31
0.0
  0
LINE
  5
208
100
AcDbEntity
  8
0
  6
HIDDEN
 62
   174
100
AcDbLine
 10
88.967793
 20
173.969017
 30
0.0
 11
88.967793
 21
173.919017
 31
0.0
  0
LINE
  5
209
100
AcDbEntity
  8
0
  6
HIDDEN
 62
   174
100
AcDbLine
 10
93.201244
 20
173.969017
 30
0.0
 11
93.201244
 21
173.919017
 31
0.0
  0
LINE
  5
20A
100
AcDbEntity
  8
0
  6
HIDDEN
 62
   174
100
AcDbLine
 10
220.688707
 20
173.969017
 30
0.0
 11
220.688707
 21
173.919017
 31
0.0
  0
LINE
  5
20B
100
AcDbEntity
  8
0
  6
HIDDEN
 62
   174
100
AcDbLine
 10
225.331823
 20
173.969017
 30
0.0
 11
225.331823
 21
173.919017
 31
0.0
  0
LINE
  5
20C
100
AcDbEntity
  8
0
  6
HIDDEN
 62
   174
100
AcDbLine
 10
221.127571
 20
173.969017
 30
0.0
 11
221.127571
 21
173.919017
 31
0.0
  0
LINE
  5
20D
100
AcDbEntity
  8
0
  6
HIDDEN
 62
   174
100
AcDbLine
 10
225.977251
 20
173.969017
 30
0.0
 11
225.907574
 21
173.969017
 31
0.0
  0
LINE
  5
20E
100
AcDbEntity
  8
0
  6
HIDDEN
 62
   174
100
AcDbLine
 10
93.963097
 20
173.969017
 30
0.0
 11
93.219376
 21
173.969017
 31
0.0
  0
LINE
  5
20F
100
AcDbEntity
  8
0
  6
HIDDEN
 62
   174
100
AcDbLine
 10
93.201244
 20
173.969017
 30
0.0
 11
92.76238
 21
173.969017
 31
0.0
  0
LINE
  5
210
100
AcDbEntity
  8
0
  6
Continuous
 62
   174
100
AcDbLine
 10
64.444976
 20
159.469017
 30
0.0
 11
61.444976
 21
159.469017
 31
0.0
  0
LINE
  5
211
100
AcDbEntity
  8
0
  6
HIDDEN
 62
   174
100
AcDbLine
 10
150.364976
 20
137.969017
 30
0.0
 11
150.364976
 21
147.969017
 31
0.0
  0
LINE
  5
212
100
AcDbEntity
  8
0
  6
HIDDEN
 62
   174
100
AcDbLine
 10
162.819976
 20
147.969017
 30
0.0
 11
162.819976
 21
136.969017
 31
0.0
  0
LINE
  5
213
100
AcDbEntity
  8
0
  6
HIDDEN
 62
   174
100
AcDbLine
 10
151.069976
 20
137.969017
 30
0.0
 11
151.069976
 21
147.969017
 31
0.0
  0
LINE
  5
214
100
AcDbEntity
  8
0
  6
HIDDEN
 62
   174
100
AcDbLine
 10
140.819976
 20
137.969017
 30
0.0
 11
140.819976
 21
147.969017
 31
0.0
  0
LINE
  5
215
100
AcDbEntity
  8
0
  6
HIDDEN
 62
   174
100
AcDbLine
 10
185.543143
 20
137.969017
 30
0.0
 11
172.383046
 21
137.969017
 31
0.0
  0
LINE
  5
216
100
AcDbEntity
  8
0
  6
HIDDEN
 62
   174
100
AcDbLine
 10
173.069976
 20
147.969017
 30
0.0
 11
173.069976
 21
136.969017
 31
0.0
  0
LINE
  5
217
100
AcDbEntity
  8
0
  6
Continuous
 62
   174
100
AcDbLine
 10
252.444976
 20
156.969017
 30
0.0
 11
253.144976
 21
156.969017
 31
0.0
  0
LINE
  5
218
100
AcDbEntity
  8
0
  6
Continuous
 62
   174
100
AcDbLine
 10
56.944976
 20
158.169017
 30
0.0
 11
57.61223
 21
157.013299
 31
0.0
  0
LINE
  5
219
100
AcDbEntity
  8
0
  6
HIDDEN
 62
   174
100
AcDbLine
 10
88.558128
 20
173.969017
 30
0.0
 11
88.558128
 21
173.919017
 31
0.0
  0
LINE
  5
21A
100
AcDbEntity
  8
0
  6
HIDDEN
 62
   174
100
AcDbLine
 10
90.963147
 20
173.969017
 30
0.0
 11
88.969482
 21
173.969017
 31
0.0
  0
LINE
  5
21B
100
AcDbEntity
  8
0
  6
HIDDEN
 62
   174
100
AcDbLine
 10
225.331823
 20
173.969017
 30
0.0
 11
224.922159
 21
173.969017
 31
0.0
  0
LINE
  5
21C
100
AcDbEntity
  8
0
  6
HIDDEN
 62
   174
100
AcDbLine
 10
224.922159
 20
173.969017
 30
0.0
 11
222.944976
 21
173.969017
 31
0.0
  0
LINE
  5
21D
100
AcDbEntity
  8
0
  6
HIDDEN
 62
   174
100
AcDbLine
 10
140.819976
 20
137.969017
 30
0.0
 11
140.819976
 21
147.969017
 31
0.0
  0
LINE
  5
21E
100
AcDbEntity
  8
0
  6
HIDDEN
 62
   174
100
AcDbLine
 10
172.364976
 20
137.969017
 30
0.0
 11
172.364976
 21
147.969017
 31
0.0
  0
LINE
  5
21F
100
AcDbEntity
  8
0
  6
Continuous
 62
   174
100
AcDbLine
 10
256.944976
 20
158.169017
 30
0.0
 11
256.277722
 21
157.013299
 31
0.0
  0
LINE
  5
220
100
AcDbEntity
  8
0
  6
HIDDEN
 62
   174
100
AcDbLine
 10
225.907574
 20
173.969017
 30
0.0
 11
225.367149
 21
173.969017
 31
0.0
  0
LINE
  5
221
100
AcDbEntity
  8
0
  6
HIDDEN
 62
   174
100
AcDbLine
 10
88.969482
 20
173.969017
 30
0.0
 11
88.018641
 21
173.969017
 31
0.0
  0
LINE
  5
222
100
AcDbEntity
  8
0
  6
HIDDEN
 62
   174
100
AcDbLine
 10
93.97733
 20
173.969017
 30
0.0
 11
93.907652
 21
173.969017
 31
0.0
  0
LINE
  5
223
100
AcDbEntity
  8
0
  6
HIDDEN
 62
   174
100
AcDbLine
 10
90.963147
 20
173.969017
 30
0.0
 11
89.136028
 21
173.969017
 31
0.0
  0
LINE
  5
224
100
AcDbEntity
  8
0
  6
HIDDEN
 62
   174
100
AcDbLine
 10
222.963493
 20
173.969017
 30
0.0
 11
222.864288
 21
173.969017
 31
0.0
  0
LINE
  5
225
100
AcDbEntity
  8
0
  6
Continuous
 62
   174
100
AcDbLine
 10
249.444976
 20
159.469017
 30
0.0
 11
252.444976
 21
159.469017
 31
0.0
  0
LINE
  5
226
100
AcDbEntity
  8
0
  6
HIDDEN
 62
   174
100
AcDbLine
 10
150.364976
 20
137.969017
 30
0.0
 11
150.364976
 21
147.969017
 31
0.0
  0
LINE
  5
227
100
AcDbEntity
  8
0
  6
HIDDEN
 62
   174
100
AcDbLine
 10
151.069976
 20
147.969017
 30
0.0
 11
151.069976
 21
136.969017
 31
0.0
  0
LINE
  5
228
100
AcDbEntity
  8
0
  6
HIDDEN
 62
   174
100
AcDbLine
 10
162.819976
 20
137.969017
 30
0.0
 11
162.819976
 21
147.969017
 31
0.0
  0
LINE
  5
229
100
AcDbEntity
  8
0
  6
HIDDEN
 62
   174
100
AcDbLine
 10
129.069976
 20
147.969017
 30
0.0
 11
129.069976
 21
136.969017
 31
0.0
  0
LINE
  5
22A
100
AcDbEntity
  8
0
  6
HIDDEN
 62
   174
100
AcDbLine
 10
185.524976
 20
137.969017
 30
0.0
 11
185.524976
 21
147.969017
 31
0.0
  0
LINE
  5
22B
100
AcDbEntity
  8
0
  6
HIDDEN
 62
   174
100
AcDbLine
 10
173.069976
 20
137.969017
 30
0.0
 11
173.069976
 21
147.969017
 31
0.0
  0
LINE
  5
22C
100
AcDbEntity
  8
0
  6
HIDDEN
 62
   174
100
AcDbLine
 10
219.948885
 20
173.969017
 30
0.0
 11
219.563111
 21
173.969017
 31
0.0
  0
LINE
  5
22D
100
AcDbEntity
  8
0
  6
HIDDEN
 62
   174
100
AcDbLine
 10
94.363104
 20
173.969017
 30
0.0
 11
93.97733
 21
173.969017
 31
0.0
  0
LINE
  5
22E
100
AcDbEntity
  8
0
  6
HIDDEN
 62
   174
100
AcDbLine
 10
89.136028
 20
173.969017
 30
0.0
 11
88.972244
 21
173.969017
 31
0.0
  0
LINE
  5
22F
100
AcDbEntity
  8
0
  6
HIDDEN
 62
   174
100
AcDbLine
 10
163.543156
 20
137.969017
 30
0.0
 11
150.383059
 21
137.969017
 31
0.0
  0
LINE
  5
230
100
AcDbEntity
  8
0
  6
HIDDEN
 62
   174
100
AcDbLine
 10
128.364976
 20
137.969017
 30
0.0
 11
128.364976
 21
147.969017
 31
0.0
  0
LINE
  5
231
100
AcDbEntity
  8
0
  6
HIDDEN
 62
   174
100
AcDbLine
 10
141.543169
 20
137.969017
 30
0.0
 11
128.383072
 21
137.969017
 31
0.0
  0
LINE
  5
232
100
AcDbEntity
  8
0
  6
HIDDEN
 62
   174
100
AcDbLine
 10
141.543169
 20
147.969017
 30
0.0
 11
128.383072
 21
147.969017
 31
0.0
  0
LINE
  5
233
100
AcDbEntity
  8
0
  6
HIDDEN
 62
   174
100
AcDbLine
 10
172.364976
 20
137.969017
 30
0.0
 11
172.364976
 21
147.969017
 31
0.0
  0
LINE
  5
234
100
AcDbEntity
  8
0
  6
HIDDEN
 62
   174
100
AcDbLine
 10
185.543143
 20
147.969017
 30
0.0
 11
172.383046
 21
147.969017
 31
0.0
  0
LINE
  5
235
100
AcDbEntity
  8
0
  6
HIDDEN
 62
   174
100
AcDbLine
 10
184.819976
 20
147.969017
 30
0.0
 11
184.819976
 21
136.969017
 31
0.0
  0
LINE
  5
236
100
AcDbEntity
  8
0
  6
HIDDEN
 62
   174
100
AcDbLine
 10
173.069976
 20
137.969017
 30
0.0
 11
173.069976
 21
147.969017
 31
0.0
  0
LINE
  5
237
100
AcDbEntity
  8
0
  6
Continuous
 62
   174
100
AcDbLine
 10
61.444976
 20
174.969017
 30
0.0
 11
60.744976
 21
174.969017
 31
0.0
  0
LINE
  5
238
100
AcDbEntity
  8
0
  6
HIDDEN
 62
   174
100
AcDbLine
 10
92.76238
 20
173.969017
 30
0.0
 11
92.76238
 21
173.919017
 31
0.0
  0
LINE
  5
239
100
AcDbEntity
  8
0
  6
HIDDEN
 62
   174
100
AcDbLine
 10
224.956733
 20
173.969017
 30
0.0
 11
222.963068
 21
173.969017
 31
0.0
  0
LINE
  5
23A
100
AcDbEntity
  8
0
  6
HIDDEN
 62
   174
100
AcDbLine
 10
225.351854
 20
173.969017
 30
0.0
 11
224.956733
 21
173.969017
 31
0.0
  0
LINE
  5
23B
100
AcDbEntity
  8
0
  6
HIDDEN
 62
   174
100
AcDbLine
 10
225.367149
 20
173.969017
 30
0.0
 11
225.351854
 21
173.969017
 31
0.0
  0
LINE
  5
23C
100
AcDbEntity
  8
0
  6
HIDDEN
 62
   174
100
AcDbLine
 10
88.018641
 20
173.969017
 30
0.0
 11
87.949177
 21
173.969017
 31
0.0
  0
LINE
  5
23D
100
AcDbEntity
  8
0
  6
HIDDEN
 62
   174
100
AcDbLine
 10
93.907652
 20
173.969017
 30
0.0
 11
93.367228
 21
173.969017
 31
0.0
  0
LINE
  5
23E
100
AcDbEntity
  8
0
  6
HIDDEN
 62
   174
100
AcDbLine
 10
225.963018
 20
173.969017
 30
0.0
 11
225.349942
 21
173.969017
 31
0.0
  0
LINE
  5
23F
100
AcDbEntity
  8
0
  6
HIDDEN
 62
   174
100
AcDbLine
 10
88.972244
 20
173.969017
 30
0.0
 11
87.963197
 21
173.969017
 31
0.0
  0
LINE
  5
240
100
AcDbEntity
  8
0
  6
HIDDEN
 62
   174
100
AcDbLine
 10
92.780494
 20
173.969017
 30
0.0
 11
90.963147
 21
173.969017
 31
0.0
  0
LINE
  5
241
100
AcDbEntity
  8
0
  6
HIDDEN
 62
   174
100
AcDbLine
 10
224.940163
 20
173.969017
 30
0.0
 11
222.963493
 21
173.969017
 31
0.0
  0
LINE
  5
242
100
AcDbEntity
  8
0
  6
HIDDEN
 62
   174
100
AcDbLine
 10
163.524976
 20
137.969017
 30
0.0
 11
163.524976
 21
147.969017
 31
0.0
  0
LINE
  5
243
100
AcDbEntity
  8
0
  6
HIDDEN
 62
   174
100
AcDbLine
 10
151.069976
 20
147.969017
 30
0.0
 11
151.069976
 21
136.969017
 31
0.0
  0
LINE
  5
244
100
AcDbEntity
  8
0
  6
HIDDEN
 62
   174
100
AcDbLine
 10
129.069976
 20
147.969017
 30
0.0
 11
129.069976
 21
136.969017
 31
0.0
  0
LINE
  5
245
100
AcDbEntity
  8
0
  6
HIDDEN
 62
   174
100
AcDbLine
 10
184.819976
 20
137.969017
 30
0.0
 11
184.819976
 21
147.969017
 31
0.0
  0
LINE
  5
246
100
AcDbEntity
  8
0
  6
HIDDEN
 62
   174
100
AcDbLine
 10
173.069976
 20
147.969017
 30
0.0
 11
173.069976
 21
136.969017
 31
0.0
  0
LINE
  5
247
100
AcDbEntity
  8
0
  6
HIDDEN
 62
   174
100
AcDbLine
 10
129.08813
 20
136.969017
 30
0.0
 11
140.838111
 21
136.969017
 31
0.0
  0
LINE
  5
248
100
AcDbEntity
  8
0
  6
HIDDEN
 62
   174
100
AcDbLine
 10
151.088117
 20
147.969017
 30
0.0
 11
162.838098
 21
147.969017
 31
0.0
  0
LINE
  5
249
100
AcDbEntity
  8
0
  6
HIDDEN
 62
   174
100
AcDbLine
 10
87.949177
 20
173.969017
 30
0.0
 11
87.56319
 21
173.969017
 31
0.0
  0
LINE
  5
24A
100
AcDbEntity
  8
0
  6
HIDDEN
 62
   174
100
AcDbLine
 10
92.663232
 20
173.969017
 30
0.0
 11
90.963147
 21
173.969017
 31
0.0
  0
LINE
  5
24B
100
AcDbEntity
  8
0
  6
HIDDEN
 62
   174
100
AcDbLine
 10
92.789628
 20
173.969017
 30
0.0
 11
92.663232
 21
173.969017
 31
0.0
  0
LINE
  5
24C
100
AcDbEntity
  8
0
  6
HIDDEN
 62
   174
100
AcDbLine
 10
93.23191
 20
173.969017
 30
0.0
 11
92.789628
 21
173.969017
 31
0.0
  0
LINE
  5
24D
100
AcDbEntity
  8
0
  6
HIDDEN
 62
   174
100
AcDbLine
 10
93.367228
 20
173.969017
 30
0.0
 11
93.23191
 21
173.969017
 31
0.0
  0
LINE
  5
24E
100
AcDbEntity
  8
0
  6
HIDDEN
 62
   174
100
AcDbLine
 10
222.944976
 20
173.969017
 30
0.0
 11
221.127571
 21
173.969017
 31
0.0
  0
LINE
  5
24F
100
AcDbEntity
  8
0
  6
HIDDEN
 62
   174
100
AcDbLine
 10
162.819976
 20
137.969017
 30
0.0
 11
162.819976
 21
147.969017
 31
0.0
  0
LINE
  5
250
100
AcDbEntity
  8
0
  6
HIDDEN
 62
   174
100
AcDbLine
 10
163.543156
 20
147.969017
 30
0.0
 11
150.383059
 21
147.969017
 31
0.0
  0
LINE
  5
251
100
AcDbEntity
  8
0
  6
HIDDEN
 62
   174
100
AcDbLine
 10
141.524976
 20
137.969017
 30
0.0
 11
141.524976
 21
147.969017
 31
0.0
  0
LINE
  5
252
100
AcDbEntity
  8
0
  6
HIDDEN
 62
   174
100
AcDbLine
 10
141.524976
 20
137.969017
 30
0.0
 11
141.524976
 21
147.969017
 31
0.0
  0
LINE
  5
253
100
AcDbEntity
  8
0
  6
HIDDEN
 62
   174
100
AcDbLine
 10
129.069976
 20
137.969017
 30
0.0
 11
129.069976
 21
147.969017
 31
0.0
  0
LINE
  5
254
100
AcDbEntity
  8
0
  6
HIDDEN
 62
   174
100
AcDbLine
 10
185.524976
 20
137.969017
 30
0.0
 11
185.524976
 21
147.969017
 31
0.0
  0
LINE
  5
255
100
AcDbEntity
  8
0
  6
HIDDEN
 62
   174
100
AcDbLine
 10
90.944976
 20
173.969017
 30
0.0
 11
88.967793
 21
173.969017
 31
0.0
  0
LINE
  5
256
100
AcDbEntity
  8
0
  6
Continuous
 62
   174
100
AcDbLine
 10
64.444976
 20
172.469017
 30
0.0
 11
61.444976
 21
172.469017
 31
0.0
  0
LINE
  5
257
100
AcDbEntity
  8
0
  6
HIDDEN
 62
   174
100
AcDbLine
 10
162.819976
 20
147.969017
 30
0.0
 11
162.819976
 21
136.969017
 31
0.0
  0
LINE
  5
258
100
AcDbEntity
  8
0
  6
HIDDEN
 62
   174
100
AcDbLine
 10
151.069976
 20
137.969017
 30
0.0
 11
151.069976
 21
147.969017
 31
0.0
  0
LINE
  5
259
100
AcDbEntity
  8
0
  6
HIDDEN
 62
   174
100
AcDbLine
 10
128.364976
 20
137.969017
 30
0.0
 11
128.364976
 21
147.969017
 31
0.0
  0
LINE
  5
25A
100
AcDbEntity
  8
0
  6
HIDDEN
 62
   174
100
AcDbLine
 10
140.819976
 20
147.969017
 30
0.0
 11
140.819976
 21
136.969017
 31
0.0
  0
LINE
  5
25B
100
AcDbEntity
  8
0
  6
HIDDEN
 62
   174
100
AcDbLine
 10
140.819976
 20
147.969017
 30
0.0
 11
140.819976
 21
136.969017
 31
0.0
  0
LINE
  5
25C
100
AcDbEntity
  8
0
  6
HIDDEN
 62
   174
100
AcDbLine
 10
129.069976
 20
137.969017
 30
0.0
 11
129.069976
 21
147.969017
 31
0.0
  0
LINE
  5
25D
100
AcDbEntity
  8
0
  6
Continuous
 62
   174
100
AcDbLine
 10
252.444976
 20
174.969017
 30
0.0
 11
253.144976
 21
174.969017
 31
0.0
  0
LINE
  5
25E
100
AcDbEntity
  8
0
  6
HIDDEN
 62
   174
100
AcDbLine
 10
226.363026
 20
173.969017
 30
0.0
 11
225.977251
 21
173.969017
 31
0.0
  0
LINE
  5
25F
100
AcDbEntity
  8
0
  6
HIDDEN
 62
   174
100
AcDbLine
 10
220.018563
 20
173.969017
 30
0.0
 11
219.948885
 21
173.969017
 31
0.0
  0
LINE
  5
260
100
AcDbEntity
  8
0
  6
HIDDEN
 62
   174
100
AcDbLine
 10
221.136587
 20
173.969017
 30
0.0
 11
220.018563
 21
173.969017
 31
0.0
  0
LINE
  5
261
100
AcDbEntity
  8
0
  6
HIDDEN
 62
   174
100
AcDbLine
 10
221.262983
 20
173.969017
 30
0.0
 11
221.136587
 21
173.969017
 31
0.0
  0
LINE
  5
262
100
AcDbEntity
  8
0
  6
HIDDEN
 62
   174
100
AcDbLine
 10
222.963068
 20
173.969017
 30
0.0
 11
221.262983
 21
173.969017
 31
0.0
  0
LINE
  5
263
100
AcDbEntity
  8
0
  6
HIDDEN
 62
   174
100
AcDbLine
 10
221.131276
 20
173.969017
 30
0.0
 11
219.963118
 21
173.969017
 31
0.0
  0
LINE
  5
264
100
AcDbEntity
  8
0
  6
HIDDEN
 62
   174
100
AcDbLine
 10
222.864288
 20
173.969017
 30
0.0
 11
221.131276
 21
173.969017
 31
0.0
  0
LINE
  5
265
100
AcDbEntity
  8
0
  6
HIDDEN
 62
   174
100
AcDbLine
 10
92.76238
 20
173.969017
 30
0.0
 11
90.944976
 21
173.969017
 31
0.0
  0
LINE
  5
266
100
AcDbEntity
  8
0
  6
Continuous
 62
   174
100
AcDbLine
 10
249.444976
 20
172.469017
 30
0.0
 11
252.444976
 21
172.469017
 31
0.0
  0
LINE
  5
267
100
AcDbEntity
  8
0
  6
HIDDEN
 62
   174
100
AcDbLine
 10
163.524976
 20
137.969017
 30
0.0
 11
163.524976
 21
147.969017
 31
0.0
  0
LINE
  5
268
100
AcDbEntity
  8
0
  6
HIDDEN
 62
   174
100
AcDbLine
 10
151.088117
 20
136.969017
 30
0.0
 11
162.838098
 21
136.969017
 31
0.0
  0
LINE
  5
269
100
AcDbEntity
  8
0
  6
HIDDEN
 62
   174
100
AcDbLine
 10
184.819976
 20
147.969017
 30
0.0
 11
184.819976
 21
136.969017
 31
0.0
  0
LINE
  5
26A
100
AcDbEntity
  8
0
  6
HIDDEN
 62
   174
100
AcDbLine
 10
184.819976
 20
137.969017
 30
0.0
 11
184.819976
 21
147.969017
 31
0.0
  0
LINE
  5
26B
100
AcDbEntity
  8
0
  6
Continuous
 62
   174
100
AcDbLine
 10
61.444976
 20
156.969017
 30
0.0
 11
60.744976
 21
156.969017
 31
0.0
  0
LINE
  5
26C
100
AcDbEntity
  8
0
  6
HIDDEN
 62
   174
100
AcDbLine
 10
173.088104
 20
136.969017
 30
0.0
 11
184.838085
 21
136.969017
 31
0.0
  0
ARC
  5
26D
100
AcDbEntity
  8
0
  6
Continuous
 62
   174
100
AcDbCircle
 10
144.944976
 20
127.969017
 30
0.0
 40
7.5
100
AcDbArc
 50
0.0
 51
180.0
  0
LINE
  5
26E
100
AcDbEntity
  8
0
  6
HIDDEN
 62
   174
100
AcDbLine
 10
76.444976
 20
157.969017
 30
0.0
 11
76.444976
 21
144.969017
 31
0.0
  0
LINE
  5
26F
100
AcDbEntity
  8
0
  6
Continuous
 62
   174
100
AcDbLine
 10
105.944976
 20
109.969017
 30
0.0
 11
105.944976
 21
116.969017
 31
0.0
  0
LINE
  5
270
100
AcDbEntity
  8
0
  6
Continuous
 62
   174
100
AcDbLine
 10
121.944976
 20
145.969017
 30
0.0
 11
121.944976
 21
147.969017
 31
0.0
  0
LINE
  5
271
100
AcDbEntity
  8
0
  6
Continuous
 62
   174
100
AcDbLine
 10
252.444976
 20
159.263522
 30
0.0
 11
252.444976
 21
156.978403
 31
0.0
  0
LWPOLYLINE
  5
272
100
AcDbEntity
  8
0
  6
HIDDEN
 62
   174
100
AcDbPolyline
 90
        4
 70
   128
 10
237.403016
 20
165.969017
 10
237.41201
 20
166.918
 10
237.432416
 20
167.856166
 10
237.444976
 20
168.752899
  0
LINE
  5
273
100
AcDbEntity
  8
0
  6
HIDDEN
 62
   174
100
AcDbLine
 10
225.331823
 20
173.969017
 30
0.0
 11
225.944976
 21
173.969017
 31
0.0
  0
LINE
  5
274
100
AcDbEntity
  8
0
  6
HIDDEN
 62
   174
100
AcDbLine
 10
79.444976
 20
144.969017
 30
0.0
 11
79.444976
 21
170.969017
 31
0.0
  0
LINE
  5
275
100
AcDbEntity
  8
0
  6
Continuous
 62
   174
100
AcDbLine
 10
239.444976
 20
122.904265
 30
0.0
 11
239.444976
 21
119.367502
 31
0.0
  0
LINE
  5
276
100
AcDbEntity
  8
0
  6
Continuous
 62
   174
100
AcDbLine
 10
61.444976
 20
172.692133
 30
0.0
 11
61.444976
 21
174.977252
 31
0.0
  0
LINE
  5
277
100
AcDbEntity
  8
0
  6
HIDDEN
 62
   174
100
AcDbLine
 10
68.244976
 20
119.356065
 30
0.0
 11
74.444976
 21
119.356065
 31
0.0
  0
LINE
  5
278
100
AcDbEntity
  8
0
  6
HIDDEN
 62
   174
100
AcDbLine
 10
194.224682
 20
145.919017
 30
0.0
 11
194.224682
 21
145.969017
 31
0.0
  0
LINE
  5
279
100
AcDbEntity
  8
0
  6
Continuous
 62
   174
100
AcDbLine
 10
249.444976
 20
157.969017
 30
0.0
 11
237.444976
 21
157.969017
 31
0.0
  0
LINE
  5
27A
100
AcDbEntity
  8
0
  6
Continuous
 62
   174
100
AcDbLine
 10
60.744976
 20
161.400365
 30
0.0
 11
60.744976
 21
156.978827
 31
0.0
  0
LINE
  5
27B
100
AcDbEntity
  8
0
  6
Continuous
 62
   174
100
AcDbLine
 10
245.644976
 20
122.904265
 30
0.0
 11
245.644976
 21
125.483389
 31
0.0
  0
LWPOLYLINE
  5
27C
100
AcDbEntity
  8
0
  6
HIDDEN
 62
   174
100
AcDbPolyline
 90
        7
 70
   128
 10
57.637796
 20
170.390908
 10
57.271693
 20
168.887637
 10
57.043594
 20
167.413647
 10
56.966663
 20
165.969254
 10
57.04355
 20
164.524808
 10
57.271642
 20
163.050656
 10
57.637796
 20
161.547126
  0
LWPOLYLINE
  5
27D
100
AcDbEntity
  8
0
  6
HIDDEN
 62
   174
100
AcDbPolyline
 90
        6
 70
   128
 10
79.444976
 20
173.969017
 10
78.53966
 20
173.829157
 10
77.731355
 20
173.431435
 10
77.069507
 20
172.801269
 10
76.617681
 20
171.972214
 10
76.444976
 20
170.969017
  0
LINE
  5
27E
100
AcDbEntity
  8
0
  6
Continuous
 62
   174
100
AcDbLine
 10
237.462968
 20
170.969017
 30
0.0
 11
234.463018
 21
170.969017
 31
0.0
  0
ARC
  5
27F
100
AcDbEntity
  8
0
  6
Continuous
 62
   174
100
AcDbCircle
 10
168.944976
 20
127.969017
 30
0.0
 40
3.5
100
AcDbArc
 50
0.0
 51
180.0
  0
ARC
  5
280
100
AcDbEntity
  8
0
  6
HIDDEN
 62
   174
100
AcDbCircle
 10
168.944976
 20
143.969017
 30
0.0
 40
3.249981
100
AcDbArc
 50
-180.0
 51
0.0
  0
ARC
  5
281
100
AcDbEntity
  8
0
  6
Continuous
 62
   174
100
AcDbCircle
 10
144.944976
 20
111.969017
 30
0.0
 40
2.5
100
AcDbArc
 50
-180.0
 51
0.0
  0
LINE
  5
282
100
AcDbEntity
  8
0
  6
HIDDEN
 62
   174
100
AcDbLine
 10
252.444976
 20
165.977828
 30
0.0
 11
252.444976
 21
172.477365
 31
0.0
  0
LINE
  5
283
100
AcDbEntity
  8
0
  6
Continuous
 62
   174
100
AcDbLine
 10
68.244976
 20
136.582896
 30
0.0
 11
74.444976
 21
136.582896
 31
0.0
  0
LINE
  5
284
100
AcDbEntity
  8
0
  6
HIDDEN
 62
   174
100
AcDbLine
 10
191.944976
 20
121.980403
 30
0.0
 11
191.944976
 21
133.979565
 31
0.0
  0
LINE
  5
285
100
AcDbEntity
  8
0
  6
Continuous
 62
   174
100
AcDbLine
 10
191.944976
 20
107.969017
 30
0.0
 11
121.944976
 21
107.969017
 31
0.0
  0
LWPOLYLINE
  5
286
100
AcDbEntity
  8
0
  6
Continuous
 62
   174
100
AcDbPolyline
 90
        4
 70
   128
 10
237.444976
 20
163.185135
 10
237.432416
 20
164.081836
 10
237.412011
 20
165.01999
 10
237.403016
 20
165.969017
  0
LINE
  5
287
100
AcDbEntity
  8
0
  6
Continuous
 62
   174
100
AcDbLine
 10
68.244976
 20
122.890087
 30
0.0
 11
68.244976
 21
119.354298
 31
0.0
  0
ARC
  5
288
100
AcDbEntity
  8
0
  6
HIDDEN
 62
   174
100
AcDbCircle
 10
168.944976
 20
143.969017
 30
0.0
 40
4.25
100
AcDbArc
 50
80.962376
 51
99.037624
  0
LINE
  5
289
100
AcDbEntity
  8
0
  6
HIDDEN
 62
   174
100
AcDbLine
 10
121.894976
 20
133.979565
 30
0.0
 11
121.894976
 21
121.980403
 31
0.0
  0
LINE
  5
28A
100
AcDbEntity
  8
0
  6
HIDDEN
 62
   174
100
AcDbLine
 10
64.444976
 20
172.477365
 30
0.0
 11
64.444976
 21
165.977828
 31
0.0
  0
LINE
  5
28B
100
AcDbEntity
  8
0
  6
HIDDEN
 62
   174
100
AcDbLine
 10
60.744976
 20
161.547126
 30
0.0
 11
60.744976
 21
156.969466
 31
0.0
  0
LINE
  5
28C
100
AcDbEntity
  8
0
  6
HIDDEN
 62
   174
100
AcDbLine
 10
239.444976
 20
122.890087
 30
0.0
 11
239.444976
 21
119.354298
 31
0.0
  0
LINE
  5
28D
100
AcDbEntity
  8
0
  6
HIDDEN
 62
   174
100
AcDbLine
 10
105.463047
 20
170.969017
 30
0.0
 11
102.463097
 21
170.969017
 31
0.0
  0
LINE
  5
28E
100
AcDbEntity
  8
0
  6
Continuous
 62
   174
100
AcDbLine
 10
121.944976
 20
147.969017
 30
0.0
 11
191.944976
 21
147.969017
 31
0.0
  0
LWPOLYLINE
  5
28F
100
AcDbEntity
  8
0
  6
HIDDEN
 62
   174
100
AcDbPolyline
 90
        4
 70
   128
 10
76.444976
 20
163.185135
 10
76.457535
 20
164.081836
 10
76.47794
 20
165.01999
 10
76.486936
 20
165.969017
  0
LINE
  5
290
100
AcDbEntity
  8
0
  6
HIDDEN
 62
   174
100
AcDbLine
 10
225.944976
 20
173.969017
 30
0.0
 11
226.344976
 21
173.969017
 31
0.0
  0
LINE
  5
291
100
AcDbEntity
  8
0
  6
HIDDEN
 62
   174
100
AcDbLine
 10
196.444976
 20
145.969017
 30
0.0
 11
196.444976
 21
145.919017
 31
0.0
  0
LINE
  5
292
100
AcDbEntity
  8
0
  6
Continuous
 62
   174
100
AcDbLine
 10
105.944976
 20
144.969017
 30
0.0
 11
105.944976
 21
116.969017
 31
0.0
  0
LINE
  5
293
100
AcDbEntity
  8
0
  6
HIDDEN
 62
   174
100
AcDbLine
 10
102.444976
 20
170.977602
 30
0.0
 11
102.444976
 21
173.97734
 31
0.0
  0
LINE
  5
294
100
AcDbEntity
  8
0
  6
Continuous
 62
   174
100
AcDbLine
 10
64.444976
 20
172.584005
 30
0.0
 11
64.444976
 21
165.977828
 31
0.0
  0
LINE
  5
295
100
AcDbEntity
  8
0
  6
Continuous
 62
   174
100
AcDbLine
 10
253.144976
 20
165.977828
 30
0.0
 11
253.144976
 21
170.399578
 31
0.0
  0
LINE
  5
296
100
AcDbEntity
  8
0
  6
HIDDEN
 62
   174
100
AcDbLine
 10
60.744976
 20
161.547126
 30
0.0
 11
57.637796
 21
161.547126
 31
0.0
  0
LINE
  5
297
100
AcDbEntity
  8
0
  6
Continuous
 62
   174
100
AcDbLine
 10
256.944976
 20
158.178213
 30
0.0
 11
256.944976
 21
158.821666
 31
0.0
  0
LWPOLYLINE
  5
298
100
AcDbEntity
  8
0
  6
HIDDEN
 62
   174
100
AcDbPolyline
 90
        4
 70
   128
 10
237.403016
 20
165.969017
 10
237.412011
 20
165.02001
 10
237.432416
 20
164.081844
 10
237.444976
 20
163.185135
  0
LINE
  5
299
100
AcDbEntity
  8
0
  6
Continuous
 62
   174
100
AcDbLine
 10
102.444976
 20
170.969017
 30
0.0
 11
102.444976
 21
144.969017
 31
0.0
  0
LINE
  5
29A
100
AcDbEntity
  8
0
  6
HIDDEN
 62
   174
100
AcDbLine
 10
211.444976
 20
170.969017
 30
0.0
 11
211.444976
 21
144.969017
 31
0.0
  0
LINE
  5
29B
100
AcDbEntity
  8
0
  6
Continuous
 62
   174
100
AcDbLine
 10
57.637796
 20
156.969466
 30
0.0
 11
57.610323
 21
157.018303
 31
0.0
  0
LINE
  5
29C
100
AcDbEntity
  8
0
  6
HIDDEN
 62
   174
100
AcDbLine
 10
60.744976
 20
174.968567
 30
0.0
 11
60.744976
 21
170.390908
 31
0.0
  0
LINE
  5
29D
100
AcDbEntity
  8
0
  6
HIDDEN
 62
   174
100
AcDbLine
 10
79.463197
 20
170.969017
 30
0.0
 11
76.463035
 21
170.969017
 31
0.0
  0
LINE
  5
29E
100
AcDbEntity
  8
0
  6
Continuous
 62
   174
100
AcDbLine
 10
211.444976
 20
173.97734
 30
0.0
 11
211.444976
 21
170.977602
 31
0.0
  0
LINE
  5
29F
100
AcDbEntity
  8
0
  6
HIDDEN
 62
   174
100
AcDbLine
 10
191.994976
 20
133.979565
 30
0.0
 11
191.994976
 21
121.980403
 31
0.0
  0
LINE
  5
2A0
100
AcDbEntity
  8
0
  6
Continuous
 62
   174
100
AcDbLine
 10
105.944976
 20
116.969017
 30
0.0
 11
105.944976
 21
144.969017
 31
0.0
  0
LINE
  5
2A1
100
AcDbEntity
  8
0
  6
Continuous
 62
   174
100
AcDbLine
 10
60.744976
 20
174.976828
 30
0.0
 11
60.744976
 21
170.55529
 31
0.0
  0
LINE
  5
2A2
100
AcDbEntity
  8
0
  6
HIDDEN
 62
   174
100
AcDbLine
 10
245.644976
 20
122.890087
 30
0.0
 11
239.444976
 21
122.890087
 31
0.0
  0
LINE
  5
2A3
100
AcDbEntity
  8
0
  6
Continuous
 62
   174
100
AcDbLine
 10
245.644976
 20
122.893083
 30
0.0
 11
239.444976
 21
122.893083
 31
0.0
  0
ARC
  5
2A4
100
AcDbEntity
  8
0
  6
HIDDEN
 62
   174
100
AcDbCircle
 10
168.944976
 20
143.969017
 30
0.0
 40
4.25
100
AcDbArc
 50
180.0
 51
360.0
  0
ARC
  5
2A5
100
AcDbEntity
  8
0
  6
HIDDEN
 62
   174
100
AcDbCircle
 10
144.944976
 20
111.969017
 30
0.0
 40
3.249981
100
AcDbArc
 50
0.0
 51
180.0
  0
LINE
  5
2A6
100
AcDbEntity
  8
0
  6
Continuous
 62
   174
100
AcDbLine
 10
252.444976
 20
165.977828
 30
0.0
 11
252.444976
 21
159.263522
 31
0.0
  0
LINE
  5
2A7
100
AcDbEntity
  8
0
  6
Continuous
 62
   174
100
AcDbLine
 10
61.444976
 20
165.977828
 30
0.0
 11
61.444976
 21
172.692133
 31
0.0
  0
LINE
  5
2A8
100
AcDbEntity
  8
0
  6
Continuous
 62
   174
100
AcDbLine
 10
60.744976
 20
170.55529
 30
0.0
 11
60.744976
 21
165.977828
 31
0.0
  0
LINE
  5
2A9
100
AcDbEntity
  8
0
  6
HIDDEN
 62
   174
100
AcDbLine
 10
199.486899
 20
145.969017
 30
0.0
 11
197.465193
 21
145.969017
 31
0.0
  0
ARC
  5
2AA
100
AcDbEntity
  8
0
  6
HIDDEN
 62
   174
100
AcDbCircle
 10
102.444976
 20
170.969017
 30
0.0
 40
3.0
100
AcDbArc
 50
0.0
 51
18.0
  0
ARC
  5
2AB
100
AcDbEntity
  8
0
  6
HIDDEN
 62
   174
100
AcDbCircle
 10
144.944976
 20
111.969017
 30
0.0
 40
4.25
100
AcDbArc
 50
260.962376
 51
279.037624
  0
LINE
  5
2AC
100
AcDbEntity
  8
0
  6
Continuous
 62
   174
100
AcDbLine
 10
191.944976
 20
145.969017
 30
0.0
 11
191.944976
 21
109.969017
 31
0.0
  0
ARC
  5
2AD
100
AcDbEntity
  8
0
  6
Continuous
 62
   174
100
AcDbCircle
 10
144.944976
 20
127.969017
 30
0.0
 40
10.0
100
AcDbArc
 50
0.0
 51
180.0
  0
LWPOLYLINE
  5
2AE
100
AcDbEntity
  8
0
  6
Continuous
 62
   174
100
AcDbPolyline
 90
        4
 70
   128
 10
256.944976
 20
158.81249
 10
256.811855
 20
158.204131
 10
256.578773
 20
157.593057
 10
256.280876
 20
157.018767
  0
LINE
  5
2AF
100
AcDbEntity
  8
0
  6
Continuous
 62
   174
100
AcDbLine
 10
57.094487
 20
173.691483
 30
0.0
 11
57.611142
 21
174.921184
 31
0.0
  0
LINE
  5
2B0
100
AcDbEntity
  8
0
  6
HIDDEN
 62
   174
100
AcDbLine
 10
226.344976
 20
173.969017
 30
0.0
 11
234.444976
 21
173.969017
 31
0.0
  0
LINE
  5
2B1
100
AcDbEntity
  8
0
  6
HIDDEN
 62
   174
100
AcDbLine
 10
76.444976
 20
168.752899
 30
0.0
 11
76.444976
 21
170.969017
 31
0.0
  0
LINE
  5
2B2
100
AcDbEntity
  8
0
  6
HIDDEN
 62
   174
100
AcDbLine
 10
197.444976
 20
145.969017
 30
0.0
 11
197.444976
 21
145.919017
 31
0.0
  0
LINE
  5
2B3
100
AcDbEntity
  8
0
  6
Continuous
 62
   174
100
AcDbLine
 10
207.944976
 20
116.969017
 30
0.0
 11
237.944976
 21
116.969017
 31
0.0
  0
LINE
  5
2B4
100
AcDbEntity
  8
0
  6
Continuous
 62
   174
100
AcDbLine
 10
121.944976
 20
109.969017
 30
0.0
 11
105.944976
 21
109.969017
 31
0.0
  0
LINE
  5
2B5
100
AcDbEntity
  8
0
  6
Continuous
 62
   174
100
AcDbLine
 10
249.444976
 20
172.58443
 30
0.0
 11
249.444976
 21
173.97734
 31
0.0
  0
LINE
  5
2B6
100
AcDbEntity
  8
0
  6
Continuous
 62
   174
100
AcDbLine
 10
245.644976
 20
118.29855
 30
0.0
 11
245.644976
 21
119.367502
 31
0.0
  0
LINE
  5
2B7
100
AcDbEntity
  8
0
  6
HIDDEN
 62
   174
100
AcDbLine
 10
76.444976
 20
170.977602
 30
0.0
 11
76.444976
 21
168.761523
 31
0.0
  0
LINE
  5
2B8
100
AcDbEntity
  8
0
  6
Continuous
 62
   174
100
AcDbLine
 10
105.944976
 20
144.969017
 30
0.0
 11
75.944976
 21
144.969017
 31
0.0
  0
LINE
  5
2B9
100
AcDbEntity
  8
0
  6
HIDDEN
 62
   174
100
AcDbLine
 10
234.444976
 20
144.969017
 30
0.0
 11
211.444976
 21
144.969017
 31
0.0
  0
LINE
  5
2BA
100
AcDbEntity
  8
0
  6
HIDDEN
 62
   174
100
AcDbLine
 10
79.444976
 20
170.977602
 30
0.0
 11
79.444976
 21
173.97734
 31
0.0
  0
ARC
  5
2BB
100
AcDbEntity
  8
0
  6
Continuous
 62
   174
100
AcDbCircle
 10
144.944976
 20
127.969017
 30
0.0
 40
7.5
100
AcDbArc
 50
-180.0
 51
0.0
  0
LINE
  5
2BC
100
AcDbEntity
  8
0
  6
HIDDEN
 62
   174
100
AcDbLine
 10
61.444976
 20
172.477365
 30
0.0
 11
61.444976
 21
165.977828
 31
0.0
  0
LINE
  5
2BD
100
AcDbEntity
  8
0
  6
Continuous
 62
   174
100
AcDbLine
 10
64.444976
 20
173.97734
 30
0.0
 11
64.444976
 21
172.584005
 31
0.0
  0
LINE
  5
2BE
100
AcDbEntity
  8
0
  6
HIDDEN
 62
   174
100
AcDbLine
 10
57.608989
 20
157.018916
 30
0.0
 11
57.637796
 21
156.969466
 31
0.0
  0
LINE
  5
2BF
100
AcDbEntity
  8
0
  6
Continuous
 62
   174
100
AcDbLine
 10
68.244976
 20
133.047617
 30
0.0
 11
74.444976
 21
133.047617
 31
0.0
  0
LINE
  5
2C0
100
AcDbEntity
  8
0
  6
Continuous
 62
   174
100
AcDbLine
 10
239.444976
 20
118.29855
 30
0.0
 11
239.444976
 21
117.980541
 31
0.0
  0
LINE
  5
2C1
100
AcDbEntity
  8
0
  6
Continuous
 62
   174
100
AcDbLine
 10
239.444976
 20
136.595228
 30
0.0
 11
239.444976
 21
133.061226
 31
0.0
  0
ARC
  5
2C2
100
AcDbEntity
  8
0
  6
Continuous
 62
   174
100
AcDbCircle
 10
168.944976
 20
127.969017
 30
0.0
 40
10.0
100
AcDbArc
 50
-180.0
 51
0.0
  0
LINE
  5
2C3
100
AcDbEntity
  8
0
  6
HIDDEN
 62
   174
100
AcDbLine
 10
121.944976
 20
133.979565
 30
0.0
 11
121.944976
 21
121.980403
 31
0.0
  0
LINE
  5
2C4
100
AcDbEntity
  8
0
  6
Continuous
 62
   174
100
AcDbLine
 10
249.444976
 20
159.37165
 30
0.0
 11
249.444976
 21
165.977828
 31
0.0
  0
LINE
  5
2C5
100
AcDbEntity
  8
0
  6
HIDDEN
 62
   174
100
AcDbLine
 10
253.144976
 20
161.391357
 30
0.0
 11
253.144976
 21
170.546677
 31
0.0
  0
LWPOLYLINE
  5
2C6
100
AcDbEntity
  8
0
  6
Continuous
 62
   174
100
AcDbPolyline
 90
        4
 70
   128
 10
57.637796
 20
161.391357
 10
57.309895
 20
162.644172
 10
57.077142
 20
163.866993
 10
56.944976
 20
165.077405
  0
LINE
  5
2C7
100
AcDbEntity
  8
0
  6
Continuous
 62
   174
100
AcDbLine
 10
74.444976
 20
137.969017
 30
0.0
 11
75.944976
 21
137.969017
 31
0.0
  0
ARC
  5
2C8
100
AcDbEntity
  8
0
  6
HIDDEN
 62
   174
100
AcDbCircle
 10
79.444976
 20
170.969017
 30
0.0
 40
3.0
100
AcDbArc
 50
90.0
 51
180.0
  0
LINE
  5
2C9
100
AcDbEntity
  8
0
  6
Continuous
 62
   174
100
AcDbLine
 10
237.444976
 20
168.752899
 30
0.0
 11
237.444976
 21
170.969017
 31
0.0
  0
LINE
  5
2CA
100
AcDbEntity
  8
0
  6
Continuous
 62
   174
100
AcDbLine
 10
74.444976
 20
117.980541
 30
0.0
 11
74.444976
 21
118.2977
 31
0.0
  0
LINE
  5
2CB
100
AcDbEntity
  8
0
  6
Continuous
 62
   174
100
AcDbLine
 10
105.944976
 20
144.969017
 30
0.0
 11
105.944976
 21
145.969017
 31
0.0
  0
LINE
  5
2CC
100
AcDbEntity
  8
0
  6
HIDDEN
 62
   174
100
AcDbLine
 10
239.444976
 20
136.582896
 30
0.0
 11
239.444976
 21
133.047617
 31
0.0
  0
LWPOLYLINE
  5
2CD
100
AcDbEntity
  8
0
  6
HIDDEN
 62
   174
100
AcDbPolyline
 90
        4
 70
   128
 10
56.944976
 20
158.81249
 10
57.078096
 20
158.204131
 10
57.311179
 20
157.593057
 10
57.609075
 20
157.018767
  0
LINE
  5
2CE
100
AcDbEntity
  8
0
  6
HIDDEN
 62
   174
100
AcDbLine
 10
199.66527
 20
145.919017
 30
0.0
 11
199.66527
 21
145.969017
 31
0.0
  0
LINE
  5
2CF
100
AcDbEntity
  8
0
  6
Continuous
 62
   174
100
AcDbLine
 10
211.444976
 20
170.969017
 30
0.0
 11
234.444976
 21
170.969017
 31
0.0
  0
LINE
  5
2D0
100
AcDbEntity
  8
0
  6
HIDDEN
 62
   174
100
AcDbLine
 10
129.08813
 20
147.969017
 30
0.0
 11
140.838111
 21
147.969017
 31
0.0
  0
ARC
  5
2D1
100
AcDbEntity
  8
0
  6
Continuous
 62
   174
100
AcDbCircle
 10
168.944976
 20
127.969017
 30
0.0
 40
3.5
100
AcDbArc
 50
-180.0
 51
0.0
  0
ARC
  5
2D2
100
AcDbEntity
  8
0
  6
Continuous
 62
   174
100
AcDbCircle
 10
168.944976
 20
143.969017
 30
0.0
 40
2.5
100
AcDbArc
 50
0.0
 51
180.0
  0
ARC
  5
2D3
100
AcDbEntity
  8
0
  6
Continuous
 62
   174
100
AcDbCircle
 10
144.944976
 20
111.969017
 30
0.0
 40
2.5
100
AcDbArc
 50
0.0
 51
180.0
  0
LINE
  5
2D4
100
AcDbEntity
  8
0
  6
HIDDEN
 62
   174
100
AcDbLine
 10
196.463156
 20
145.919017
 30
0.0
 11
194.242828
 21
145.919017
 31
0.0
  0
LINE
  5
2D5
100
AcDbEntity
  8
0
  6
Continuous
 62
   174
100
AcDbLine
 10
74.444976
 20
125.480203
 30
0.0
 11
74.444976
 21
129.476029
 31
0.0
  0
ARC
  5
2D6
100
AcDbEntity
  8
0
  6
Continuous
 62
   174
100
AcDbCircle
 10
102.444976
 20
170.969017
 30
0.0
 40
3.0
100
AcDbArc
 50
-342.0
 51
-324.0
  0
LINE
  5
2D7
100
AcDbEntity
  8
0
  6
Continuous
 62
   174
100
AcDbLine
 10
253.144976
 20
156.978403
 30
0.0
 11
253.144976
 21
161.55629
 31
0.0
  0
LINE
  5
2D8
100
AcDbEntity
  8
0
  6
Continuous
 62
   174
100
AcDbLine
 10
79.444976
 20
170.969017
 30
0.0
 11
79.444976
 21
144.969017
 31
0.0
  0
ARC
  5
2D9
100
AcDbEntity
  8
0
  6
HIDDEN
 62
   174
100
AcDbCircle
 10
168.944976
 20
143.969017
 30
0.0
 40
4.25
100
AcDbArc
 50
0.0
 51
180.0
  0
ARC
  5
2DA
100
AcDbEntity
  8
0
  6
HIDDEN
 62
   174
100
AcDbCircle
 10
144.944976
 20
111.969017
 30
0.0
 40
4.25
100
AcDbArc
 50
180.0
 51
260.962376
  0
LINE
  5
2DB
100
AcDbEntity
  8
0
  6
Continuous
 62
   174
100
AcDbLine
 10
57.610355
 20
174.919774
 30
0.0
 11
57.637796
 21
174.968567
 31
0.0
  0
LINE
  5
2DC
100
AcDbEntity
  8
0
  6
HIDDEN
 62
   174
100
AcDbLine
 10
197.465193
 20
145.969017
 30
0.0
 11
197.389993
 21
145.969017
 31
0.0
  0
LINE
  5
2DD
100
AcDbEntity
  8
0
  6
HIDDEN
 62
   174
100
AcDbLine
 10
199.683397
 20
145.969017
 30
0.0
 11
197.463069
 21
145.969017
 31
0.0
  0
LINE
  5
2DE
100
AcDbEntity
  8
0
  6
HIDDEN
 62
   174
100
AcDbLine
 10
121.944976
 20
121.969017
 30
0.0
 11
121.894976
 21
121.969017
 31
0.0
  0
LINE
  5
2DF
100
AcDbEntity
  8
0
  6
Continuous
 62
   174
100
AcDbLine
 10
256.944976
 20
159.704102
 30
0.0
 11
256.944976
 21
158.81249
 31
0.0
  0
LWPOLYLINE
  5
2E0
100
AcDbEntity
  8
0
  6
Continuous
 62
   174
100
AcDbPolyline
 90
        4
 70
   128
 10
237.444976
 20
168.752899
 10
237.432416
 20
167.856164
 10
237.41201
 20
166.91801
 10
237.403016
 20
165.969017
  0
LINE
  5
2E1
100
AcDbEntity
  8
0
  6
Continuous
 62
   174
100
AcDbLine
 10
245.644976
 20
119.356065
 30
0.0
 11
245.644976
 21
122.893083
 31
0.0
  0
LINE
  5
2E2
100
AcDbEntity
  8
0
  6
HIDDEN
 62
   174
100
AcDbLine
 10
199.944976
 20
145.919017
 30
0.0
 11
199.944976
 21
145.969017
 31
0.0
  0
LINE
  5
2E3
100
AcDbEntity
  8
0
  6
HIDDEN
 62
   174
100
AcDbLine
 10
119.486888
 20
145.969017
 30
0.0
 11
117.465183
 21
145.969017
 31
0.0
  0
LINE
  5
2E4
100
AcDbEntity
  8
0
  6
HIDDEN
 62
   174
100
AcDbLine
 10
102.444976
 20
170.969017
 30
0.0
 11
79.444976
 21
170.969017
 31
0.0
  0
LINE
  5
2E5
100
AcDbEntity
  8
0
  6
Continuous
 62
   174
100
AcDbLine
 10
252.444976
 20
172.691708
 30
0.0
 11
252.444976
 21
165.977828
 31
0.0
  0
LINE
  5
2E6
100
AcDbEntity
  8
0
  6
HIDDEN
 62
   174
100
AcDbLine
 10
74.444976
 20
125.472384
 30
0.0
 11
74.444976
 21
130.472383
 31
0.0
  0
LINE
  5
2E7
100
AcDbEntity
  8
0
  6
HIDDEN
 62
   174
100
AcDbLine
 10
245.644976
 20
130.469017
 30
0.0
 11
239.444976
 21
130.469017
 31
0.0
  0
LINE
  5
2E8
100
AcDbEntity
  8
0
  6
Continuous
 62
   174
100
AcDbLine
 10
76.444976
 20
170.969017
 30
0.0
 11
76.444976
 21
168.752899
 31
0.0
  0
LINE
  5
2E9
100
AcDbEntity
  8
0
  6
HIDDEN
 62
   174
100
AcDbLine
 10
219.563111
 20
173.919017
 30
0.0
 11
222.963068
 21
173.919017
 31
0.0
  0
LINE
  5
2EA
100
AcDbEntity
  8
0
  6
Continuous
 62
   174
100
AcDbLine
 10
64.444976
 20
173.969017
 30
0.0
 11
79.444976
 21
173.969017
 31
0.0
  0
LINE
  5
2EB
100
AcDbEntity
  8
0
  6
Continuous
 62
   174
100
AcDbLine
 10
105.944976
 20
145.969017
 30
0.0
 11
121.944976
 21
145.969017
 31
0.0
  0
LINE
  5
2EC
100
AcDbEntity
  8
0
  6
Continuous
 62
   174
100
AcDbLine
 10
207.944976
 20
145.969017
 30
0.0
 11
191.944976
 21
145.969017
 31
0.0
  0
ARC
  5
2ED
100
AcDbEntity
  8
0
  6
Continuous
 62
   174
100
AcDbCircle
 10
156.944976
 20
111.969017
 30
0.0
 40
2.75
100
AcDbArc
 50
-180.0
 51
0.0
  0
LINE
  5
2EE
100
AcDbEntity
  8
0
  6
Continuous
 62
   174
100
AcDbLine
 10
57.611118
 20
157.016892
 30
0.0
 11
57.094316
 21
158.247187
 31
0.0
  0
LWPOLYLINE
  5
2EF
100
AcDbEntity
  8
0
  6
Continuous
 62
   174
100
AcDbPolyline
 90
        4
 70
   128
 10
76.486936
 20
165.969017
 10
76.477941
 20
165.02001
 10
76.457535
 20
164.081844
 10
76.444976
 20
163.185135
  0
LINE
  5
2F0
100
AcDbEntity
  8
0
  6
HIDDEN
 62
   174
100
AcDbLine
 10
114.215202
 20
145.969017
 30
0.0
 11
113.963046
 21
145.969017
 31
0.0
  0
LINE
  5
2F1
100
AcDbEntity
  8
0
  6
Continuous
 62
   174
100
AcDbLine
 10
79.444976
 20
170.977602
 30
0.0
 11
79.444976
 21
173.97734
 31
0.0
  0
LINE
  5
2F2
100
AcDbEntity
  8
0
  6
Continuous
 62
   174
100
AcDbLine
 10
249.444976
 20
157.978315
 30
0.0
 11
249.444976
 21
159.37165
 31
0.0
  0
LINE
  5
2F3
100
AcDbEntity
  8
0
  6
HIDDEN
 62
   174
100
AcDbLine
 10
253.144976
 20
156.978403
 30
0.0
 11
253.144976
 21
156.978827
 31
0.0
  0
LINE
  5
2F4
100
AcDbEntity
  8
0
  6
Continuous
 62
   174
100
AcDbLine
 10
239.444976
 20
117.969017
 30
0.0
 11
237.944976
 21
117.969017
 31
0.0
  0
LINE
  5
2F5
100
AcDbEntity
  8
0
  6
HIDDEN
 62
   174
100
AcDbLine
 10
116.536222
 20
145.969017
 30
0.0
 11
116.461022
 21
145.969017
 31
0.0
  0
LINE
  5
2F6
100
AcDbEntity
  8
0
  6
Continuous
 62
   174
100
AcDbLine
 10
211.463119
 20
170.969017
 30
0.0
 11
208.463169
 21
170.969017
 31
0.0
  0
ARC
  5
2F7
100
AcDbEntity
  8
0
  6
Continuous
 62
   174
100
AcDbCircle
 10
211.444976
 20
170.969017
 30
0.0
 40
3.0
100
AcDbArc
 50
90.0
 51
180.0
  0
ARC
  5
2F8
100
AcDbEntity
  8
0
  6
Continuous
 62
   174
100
AcDbCircle
 10
168.944976
 20
127.969017
 30
0.0
 40
7.5
100
AcDbArc
 50
0.0
 51
180.0
  0
LINE
  5
2F9
100
AcDbEntity
  8
0
  6
Continuous
 62
   174
100
AcDbLine
 10
68.244976
 20
119.365803
 30
0.0
 11
68.244976
 21
118.2977
 31
0.0
  0
LINE
  5
2FA
100
AcDbEntity
  8
0
  6
Continuous
 62
   174
100
AcDbLine
 10
68.244976
 20
137.651153
 30
0.0
 11
74.444976
 21
137.651153
 31
0.0
  0
LINE
  5
2FB
100
AcDbEntity
  8
0
  6
HIDDEN
 62
   174
100
AcDbLine
 10
87.945301
 20
173.969017
 30
0.0
 11
88.967793
 21
173.969017
 31
0.0
  0
LINE
  5
2FC
100
AcDbEntity
  8
0
  6
HIDDEN
 62
   174
100
AcDbLine
 10
193.944976
 20
145.919017
 30
0.0
 11
193.944976
 21
145.969017
 31
0.0
  0
LINE
  5
2FD
100
AcDbEntity
  8
0
  6
Continuous
 62
   174
100
AcDbLine
 10
239.444976
 20
137.979428
 30
0.0
 11
239.444976
 21
137.662481
 31
0.0
  0
LINE
  5
2FE
100
AcDbEntity
  8
0
  6
Continuous
 62
   174
100
AcDbLine
 10
75.944976
 20
116.969017
 30
0.0
 11
105.944976
 21
116.969017
 31
0.0
  0
LINE
  5
2FF
100
AcDbEntity
  8
0
  6
Continuous
 62
   174
100
AcDbLine
 10
211.444976
 20
144.969017
 30
0.0
 11
211.444976
 21
170.969017
 31
0.0
  0
LINE
  5
300
100
AcDbEntity
  8
0
  6
Continuous
 62
   174
100
AcDbLine
 10
208.444976
 20
170.969017
 30
0.0
 11
208.444976
 21
144.969017
 31
0.0
  0
ARC
  5
301
100
AcDbEntity
  8
0
  6
HIDDEN
 62
   174
100
AcDbCircle
 10
168.944976
 20
143.969017
 30
0.0
 40
4.25
100
AcDbArc
 50
0.0
 51
80.962376
  0
LINE
  5
302
100
AcDbEntity
  8
0
  6
Continuous
 62
   174
100
AcDbLine
 10
68.244976
 20
130.469017
 30
0.0
 11
74.444976
 21
130.469017
 31
0.0
  0
LINE
  5
303
100
AcDbEntity
  8
0
  6
Continuous
 62
   174
100
AcDbLine
 10
239.444976
 20
137.969017
 30
0.0
 11
237.944976
 21
137.969017
 31
0.0
  0
LINE
  5
304
100
AcDbEntity
  8
0
  6
Continuous
 62
   174
100
AcDbLine
 10
234.444976
 20
173.969017
 30
0.0
 11
211.444976
 21
173.969017
 31
0.0
  0
LINE
  5
305
100
AcDbEntity
  8
0
  6
Continuous
 62
   174
100
AcDbLine
 10
74.444976
 20
129.476029
 30
0.0
 11
74.444976
 21
130.479765
 31
0.0
  0
LINE
  5
306
100
AcDbEntity
  8
0
  6
Continuous
 62
   174
100
AcDbLine
 10
60.744976
 20
161.391357
 30
0.0
 11
57.637796
 21
161.391357
 31
0.0
  0
LINE
  5
307
100
AcDbEntity
  8
0
  6
Continuous
 62
   174
100
AcDbLine
 10
56.944976
 20
173.777442
 30
0.0
 11
56.944976
 21
166.8694
 31
0.0
  0
LINE
  5
308
100
AcDbEntity
  8
0
  6
HIDDEN
 62
   174
100
AcDbLine
 10
119.944976
 20
145.919017
 30
0.0
 11
119.944976
 21
145.969017
 31
0.0
  0
LINE
  5
309
100
AcDbEntity
  8
0
  6
HIDDEN
 62
   174
100
AcDbLine
 10
88.576273
 20
173.919017
 30
0.0
 11
87.963197
 21
173.919017
 31
0.0
  0
ARC
  5
30A
100
AcDbEntity
  8
0
  6
Continuous
 62
   174
100
AcDbCircle
 10
144.944976
 20
127.969017
 30
0.0
 40
3.5
100
AcDbArc
 50
0.0
 51
180.0
  0
LINE
  5
30B
100
AcDbEntity
  8
0
  6
HIDDEN
 62
   174
100
AcDbLine
 10
191.944976
 20
133.969017
 30
0.0
 11
191.994976
 21
133.969017
 31
0.0
  0
LINE
  5
30C
100
AcDbEntity
  8
0
  6
Continuous
 62
   174
100
AcDbLine
 10
207.944976
 20
109.969017
 30
0.0
 11
207.944976
 21
116.969017
 31
0.0
  0
LINE
  5
30D
100
AcDbEntity
  8
0
  6
HIDDEN
 62
   174
100
AcDbLine
 10
61.444976
 20
165.977828
 30
0.0
 11
61.444976
 21
159.47829
 31
0.0
  0
LINE
  5
30E
100
AcDbEntity
  8
0
  6
Continuous
 62
   174
100
AcDbLine
 10
245.644976
 20
136.595228
 30
0.0
 11
245.644976
 21
137.662481
 31
0.0
  0
LWPOLYLINE
  5
30F
100
AcDbEntity
  8
0
  6
Continuous
 62
   174
100
AcDbPolyline
 90
        7
 70
   128
 10
256.252155
 20
170.390908
 10
256.618258
 20
168.887637
 10
256.846357
 20
167.413647
 10
256.923288
 20
165.969254
 10
256.846401
 20
164.524808
 10
256.618309
 20
163.050656
 10
256.252155
 20
161.547126
  0
LINE
  5
310
100
AcDbEntity
  8
0
  6
Continuous
 62
   174
100
AcDbLine
 10
245.644976
 20
118.287106
 30
0.0
 11
239.444976
 21
118.287106
 31
0.0
  0
LINE
  5
311
100
AcDbEntity
  8
0
  6
HIDDEN
 62
   174
100
AcDbLine
 10
237.444976
 20
170.969017
 30
0.0
 11
237.444976
 21
168.752899
 31
0.0
  0
LINE
  5
312
100
AcDbEntity
  8
0
  6
Continuous
 62
   174
100
AcDbLine
 10
56.944976
 20
173.769017
 30
0.0
 11
57.612252
 21
174.924773
 31
0.0
  0
ARC
  5
313
100
AcDbEntity
  8
0
  6
Continuous
 62
   174
100
AcDbCircle
 10
168.944976
 20
143.969017
 30
0.0
 40
2.5
100
AcDbArc
 50
-180.0
 51
0.0
  0
LINE
  5
314
100
AcDbEntity
  8
0
  6
Continuous
 62
   174
100
AcDbLine
 10
249.444976
 20
165.977828
 30
0.0
 11
249.444976
 21
172.58443
 31
0.0
  0
LINE
  5
315
100
AcDbEntity
  8
0
  6
HIDDEN
 62
   174
100
AcDbLine
 10
68.244976
 20
136.584661
 30
0.0
 11
74.444976
 21
136.584661
 31
0.0
  0
LINE
  5
316
100
AcDbEntity
  8
0
  6
HIDDEN
 62
   174
100
AcDbLine
 10
117.465183
 20
145.969017
 30
0.0
 11
117.389982
 21
145.969017
 31
0.0
  0
ARC
  5
317
100
AcDbEntity
  8
0
  6
Continuous
 62
   174
100
AcDbCircle
 10
102.444976
 20
170.969017
 30
0.0
 40
3.0
100
AcDbArc
 50
-324.0
 51
-306.0
  0
ARC
  5
318
100
AcDbEntity
  8
0
  6
HIDDEN
 62
   174
100
AcDbCircle
 10
102.444976
 20
170.969017
 30
0.0
 40
3.0
100
AcDbArc
 50
-288.0
 51
-270.0
  0
LINE
  5
319
100
AcDbEntity
  8
0
  6
Continuous
 62
   174
100
AcDbLine
 10
60.744976
 20
156.969466
 30
0.0
 11
57.637796
 21
156.969466
 31
0.0
  0
LWPOLYLINE
  5
31A
100
AcDbEntity
  8
0
  6
Continuous
 62
   174
100
AcDbPolyline
 90
        6
 70
   128
 10
57.094316
 20
158.247187
 10
57.043571
 20
158.458203
 10
56.966668
 20
159.180451
 10
57.043586
 20
159.902691
 10
57.271687
 20
160.63971
 10
57.637796
 20
161.391357
  0
LINE
  5
31B
100
AcDbEntity
  8
0
  6
HIDDEN
 62
   174
100
AcDbLine
 10
237.444976
 20
163.194132
 30
0.0
 11
237.444976
 21
157.978315
 31
0.0
  0
LINE
  5
31C
100
AcDbEntity
  8
0
  6
Continuous
 62
   174
100
AcDbLine
 10
79.463197
 20
170.969017
 30
0.0
 11
76.463035
 21
170.969017
 31
0.0
  0
LINE
  5
31D
100
AcDbEntity
  8
0
  6
HIDDEN
 62
   174
100
AcDbLine
 10
79.444976
 20
173.969017
 30
0.0
 11
87.544976
 21
173.969017
 31
0.0
  0
LINE
  5
31E
100
AcDbEntity
  8
0
  6
HIDDEN
 62
   174
100
AcDbLine
 10
199.683397
 20
145.919017
 30
0.0
 11
197.463069
 21
145.919017
 31
0.0
  0
LINE
  5
31F
100
AcDbEntity
  8
0
  6
HIDDEN
 62
   174
100
AcDbLine
 10
92.76238
 20
173.919017
 30
0.0
 11
88.558128
 21
173.919017
 31
0.0
  0
LINE
  5
320
100
AcDbEntity
  8
0
  6
Continuous
 62
   174
100
AcDbLine
 10
79.444976
 20
170.969017
 30
0.0
 11
102.444976
 21
170.969017
 31
0.0
  0
LINE
  5
321
100
AcDbEntity
  8
0
  6
HIDDEN
 62
   174
100
AcDbLine
 10
173.088104
 20
147.969017
 30
0.0
 11
184.838085
 21
147.969017
 31
0.0
  0
LINE
  5
322
100
AcDbEntity
  8
0
  6
Continuous
 62
   174
100
AcDbLine
 10
68.244976
 20
133.058252
 30
0.0
 11
68.244976
 21
130.479765
 31
0.0
  0
LWPOLYLINE
  5
323
100
AcDbEntity
  8
0
  6
HIDDEN
 62
   174
100
AcDbPolyline
 90
        4
 70
   128
 10
56.944976
 20
172.233932
 10
57.078096
 20
171.625573
 10
57.311179
 20
171.014498
 10
57.637796
 20
170.390908
  0
LINE
  5
324
100
AcDbEntity
  8
0
  6
Continuous
 62
   174
100
AcDbLine
 10
253.144976
 20
174.968567
 30
0.0
 11
256.252155
 21
174.968567
 31
0.0
  0
LWPOLYLINE
  5
325
100
AcDbEntity
  8
0
  6
HIDDEN
 62
   174
100
AcDbPolyline
 90
        4
 70
   128
 10
57.609035
 20
174.919197
 10
57.309895
 20
174.34216
 10
57.077141
 20
173.730747
 10
56.944976
 20
173.125543
  0
LINE
  5
326
100
AcDbEntity
  8
0
  6
HIDDEN
 62
   174
100
AcDbLine
 10
88.967793
 20
173.969017
 30
0.0
 11
90.944976
 21
173.969017
 31
0.0
  0
LINE
  5
327
100
AcDbEntity
  8
0
  6
Continuous
 62
   174
100
AcDbLine
 10
74.444976
 20
119.365803
 30
0.0
 11
74.444976
 21
122.901291
 31
0.0
  0
LINE
  5
328
100
AcDbEntity
  8
0
  6
HIDDEN
 62
   174
100
AcDbLine
 10
199.963169
 20
145.969017
 30
0.0
 11
199.711013
 21
145.969017
 31
0.0
  0
LINE
  5
329
100
AcDbEntity
  8
0
  6
Continuous
 62
   174
100
AcDbLine
 10
105.444976
 20
170.969017
 30
0.0
 11
105.444976
 21
144.969017
 31
0.0
  0
LINE
  5
32A
100
AcDbEntity
  8
0
  6
Continuous
 62
   174
100
AcDbLine
 10
256.944976
 20
159.713239
 30
0.0
 11
256.944976
 21
172.242416
 31
0.0
  0
LINE
  5
32B
100
AcDbEntity
  8
0
  6
HIDDEN
 62
   174
100
AcDbLine
 10
245.644976
 20
119.354298
 30
0.0
 11
239.444976
 21
119.354298
 31
0.0
  0
LINE
  5
32C
100
AcDbEntity
  8
0
  6
HIDDEN
 62
   174
100
AcDbLine
 10
119.683387
 20
145.919017
 30
0.0
 11
117.463059
 21
145.919017
 31
0.0
  0
LINE
  5
32D
100
AcDbEntity
  8
0
  6
HIDDEN
 62
   174
100
AcDbLine
 10
116.461022
 20
145.969017
 30
0.0
 11
114.439317
 21
145.969017
 31
0.0
  0
LINE
  5
32E
100
AcDbEntity
  8
0
  6
HIDDEN
 62
   174
100
AcDbLine
 10
119.683387
 20
145.969017
 30
0.0
 11
117.463059
 21
145.969017
 31
0.0
  0
LINE
  5
32F
100
AcDbEntity
  8
0
  6
Continuous
 62
   174
100
AcDbLine
 10
249.444976
 20
173.969017
 30
0.0
 11
234.444976
 21
173.969017
 31
0.0
  0
LINE
  5
330
100
AcDbEntity
  8
0
  6
HIDDEN
 62
   174
100
AcDbLine
 10
191.944976
 20
121.969017
 30
0.0
 11
191.994976
 21
121.969017
 31
0.0
  0
LINE
  5
331
100
AcDbEntity
  8
0
  6
Continuous
 62
   174
100
AcDbLine
 10
121.944976
 20
145.969017
 30
0.0
 11
121.944976
 21
109.969017
 31
0.0
  0
LINE
  5
332
100
AcDbEntity
  8
0
  6
HIDDEN
 62
   174
100
AcDbLine
 10
245.644976
 20
125.469017
 30
0.0
 11
239.444976
 21
125.469017
 31
0.0
  0
LINE
  5
333
100
AcDbEntity
  8
0
  6
Continuous
 62
   174
100
AcDbLine
 10
245.644976
 20
137.652022
 30
0.0
 11
239.444976
 21
137.652022
 31
0.0
  0
LWPOLYLINE
  5
334
100
AcDbEntity
  8
0
  6
Continuous
 62
   174
100
AcDbPolyline
 90
        4
 70
   128
 10
76.486936
 20
165.969017
 10
76.477941
 20
166.918
 10
76.457536
 20
167.856166
 10
76.444976
 20
168.752899
  0
LINE
  5
335
100
AcDbEntity
  8
0
  6
Continuous
 62
   174
100
AcDbLine
 10
76.444976
 20
163.185135
 30
0.0
 11
76.444976
 21
144.969017
 31
0.0
  0
LINE
  5
336
100
AcDbEntity
  8
0
  6
HIDDEN
 62
   174
100
AcDbLine
 10
237.444976
 20
163.185135
 30
0.0
 11
237.444976
 21
157.969017
 31
0.0
  0
LINE
  5
337
100
AcDbEntity
  8
0
  6
HIDDEN
 62
   174
100
AcDbLine
 10
211.444976
 20
173.969017
 30
0.0
 11
219.544976
 21
173.969017
 31
0.0
  0
LINE
  5
338
100
AcDbEntity
  8
0
  6
HIDDEN
 62
   174
100
AcDbLine
 10
249.444976
 20
165.977828
 30
0.0
 11
249.444976
 21
159.47829
 31
0.0
  0
LINE
  5
339
100
AcDbEntity
  8
0
  6
Continuous
 62
   174
100
AcDbLine
 10
252.444976
 20
174.977252
 30
0.0
 11
252.444976
 21
172.691708
 31
0.0
  0
LINE
  5
33A
100
AcDbEntity
  8
0
  6
HIDDEN
 62
   174
100
AcDbLine
 10
60.744976
 20
161.547126
 30
0.0
 11
60.744976
 21
170.390908
 31
0.0
  0
ARC
  5
33B
100
AcDbEntity
  8
0
  6
HIDDEN
 62
   174
100
AcDbCircle
 10
168.944976
 20
143.969017
 30
0.0
 40
4.25
100
AcDbArc
 50
-180.0
 51
0.0
  0
LINE
  5
33C
100
AcDbEntity
  8
0
  6
Continuous
 62
   174
100
AcDbLine
 10
245.644976
 20
119.356065
 30
0.0
 11
239.444976
 21
119.356065
 31
0.0
  0
LINE
  5
33D
100
AcDbEntity
  8
0
  6
HIDDEN
 62
   174
100
AcDbLine
 10
211.463119
 20
144.969017
 30
0.0
 11
208.463169
 21
144.969017
 31
0.0
  0
LINE
  5
33E
100
AcDbEntity
  8
0
  6
HIDDEN
 62
   174
100
AcDbLine
 10
119.963159
 20
145.969017
 30
0.0
 11
119.711003
 21
145.969017
 31
0.0
  0
ARC
  5
33F
100
AcDbEntity
  8
0
  6
HIDDEN
 62
   174
100
AcDbCircle
 10
168.944976
 20
143.969017
 30
0.0
 40
3.249981
100
AcDbArc
 50
0.0
 51
180.0
  0
LINE
  5
340
100
AcDbEntity
  8
0
  6
HIDDEN
 62
   174
100
AcDbLine
 10
121.944976
 20
121.969017
 30
0.0
 11
121.894976
 21
121.969017
 31
0.0
  0
LINE
  5
341
100
AcDbEntity
  8
0
  6
HIDDEN
 62
   174
100
AcDbLine
 10
75.944976
 20
127.979878
 30
0.0
 11
75.944976
 21
137.979428
 31
0.0
  0
LINE
  5
342
100
AcDbEntity
  8
0
  6
HIDDEN
 62
   174
100
AcDbLine
 10
253.144976
 20
161.391357
 30
0.0
 11
256.252155
 21
161.391357
 31
0.0
  0
LWPOLYLINE
  5
343
100
AcDbEntity
  8
0
  6
HIDDEN
 62
   174
100
AcDbPolyline
 90
        4
 70
   128
 10
256.944976
 20
166.860628
 10
256.811855
 20
168.077343
 10
256.57877
 20
169.299507
 10
256.252155
 20
170.546677
  0
LINE
  5
344
100
AcDbEntity
  8
0
  6
Continuous
 62
   174
100
AcDbLine
 10
245.644976
 20
136.584661
 30
0.0
 11
239.444976
 21
136.584661
 31
0.0
  0
ARC
  5
345
100
AcDbEntity
  8
0
  6
HIDDEN
 62
   174
100
AcDbCircle
 10
234.444976
 20
170.969017
 30
0.0
 40
3.0
100
AcDbArc
 50
54.0
 51
72.0
  0
LINE
  5
346
100
AcDbEntity
  8
0
  6
Continuous
 62
   174
100
AcDbLine
 10
234.444976
 20
144.969017
 30
0.0
 11
234.444976
 21
170.969017
 31
0.0
  0
LINE
  5
347
100
AcDbEntity
  8
0
  6
Continuous
 62
   174
100
AcDbLine
 10
75.944976
 20
116.969017
 30
0.0
 11
75.944976
 21
144.969017
 31
0.0
  0
LINE
  5
348
100
AcDbEntity
  8
0
  6
HIDDEN
 62
   174
100
AcDbLine
 10
93.944976
 20
173.969017
 30
0.0
 11
94.344976
 21
173.969017
 31
0.0
  0
LINE
  5
349
100
AcDbEntity
  8
0
  6
HIDDEN
 62
   174
100
AcDbLine
 10
90.944976
 20
173.969017
 30
0.0
 11
92.76238
 21
173.969017
 31
0.0
  0
LINE
  5
34A
100
AcDbEntity
  8
0
  6
HIDDEN
 62
   174
100
AcDbLine
 10
117.389982
 20
145.969017
 30
0.0
 11
116.536222
 21
145.969017
 31
0.0
  0
LINE
  5
34B
100
AcDbEntity
  8
0
  6
Continuous
 62
   174
100
AcDbLine
 10
207.944976
 20
116.969017
 30
0.0
 11
207.944976
 21
144.969017
 31
0.0
  0
LINE
  5
34C
100
AcDbEntity
  8
0
  6
HIDDEN
 62
   174
100
AcDbLine
 10
105.444976
 20
170.969017
 30
0.0
 11
105.444976
 21
144.969017
 31
0.0
  0
LINE
  5
34D
100
AcDbEntity
  8
0
  6
Continuous
 62
   174
100
AcDbLine
 10
105.444976
 20
144.969017
 30
0.0
 11
105.444976
 21
170.969017
 31
0.0
  0
LINE
  5
34E
100
AcDbEntity
  8
0
  6
Continuous
 62
   174
100
AcDbLine
 10
207.944976
 20
116.969017
 30
0.0
 11
207.944976
 21
144.969017
 31
0.0
  0
LINE
  5
34F
100
AcDbEntity
  8
0
  6
Continuous
 62
   174
100
AcDbLine
 10
56.944976
 20
165.086255
 30
0.0
 11
56.944976
 21
158.178213
 31
0.0
  0
LINE
  5
350
100
AcDbEntity
  8
0
  6
Continuous
 62
   174
100
AcDbLine
 10
245.644976
 20
130.472383
 30
0.0
 11
239.444976
 21
130.472383
 31
0.0
  0
LINE
  5
351
100
AcDbEntity
  8
0
  6
HIDDEN
 62
   174
100
AcDbLine
 10
102.444976
 20
144.969017
 30
0.0
 11
79.444976
 21
144.969017
 31
0.0
  0
LINE
  5
352
100
AcDbEntity
  8
0
  6
HIDDEN
 62
   174
100
AcDbLine
 10
194.439327
 20
145.969017
 30
0.0
 11
194.215212
 21
145.969017
 31
0.0
  0
LINE
  5
353
100
AcDbEntity
  8
0
  6
HIDDEN
 62
   174
100
AcDbLine
 10
222.963068
 20
173.919017
 30
0.0
 11
226.363026
 21
173.919017
 31
0.0
  0
LINE
  5
354
100
AcDbEntity
  8
0
  6
HIDDEN
 62
   174
100
AcDbLine
 10
191.944976
 20
133.969017
 30
0.0
 11
191.994976
 21
133.969017
 31
0.0
  0
LINE
  5
355
100
AcDbEntity
  8
0
  6
HIDDEN
 62
   174
100
AcDbLine
 10
252.444976
 20
159.47829
 30
0.0
 11
252.444976
 21
165.977828
 31
0.0
  0
LINE
  5
356
100
AcDbEntity
  8
0
  6
HIDDEN
 62
   174
100
AcDbLine
 10
239.444976
 20
130.469017
 30
0.0
 11
239.444976
 21
125.469017
 31
0.0
  0
LWPOLYLINE
  5
357
100
AcDbEntity
  8
0
  6
HIDDEN
 62
   174
100
AcDbPolyline
 90
        4
 70
   128
 10
57.637796
 20
161.547126
 10
57.309895
 20
160.920719
 10
57.077141
 20
160.309306
 10
56.944976
 20
159.704102
  0
LINE
  5
358
100
AcDbEntity
  8
0
  6
Continuous
 62
   174
100
AcDbLine
 10
256.944976
 20
173.133989
 30
0.0
 11
256.944976
 21
173.777442
 31
0.0
  0
ARC
  5
359
100
AcDbEntity
  8
0
  6
Continuous
 62
   174
100
AcDbCircle
 10
234.444976
 20
170.969017
 30
0.0
 40
3.0
100
AcDbArc
 50
0.0
 51
90.0
  0
LINE
  5
35A
100
AcDbEntity
  8
0
  6
HIDDEN
 62
   174
100
AcDbLine
 10
119.66527
 20
145.919017
 30
0.0
 11
119.66527
 21
145.969017
 31
0.0
  0
LINE
  5
35B
100
AcDbEntity
  8
0
  6
Continuous
 62
   174
100
AcDbLine
 10
237.944976
 20
144.969017
 30
0.0
 11
237.944976
 21
116.969017
 31
0.0
  0
LINE
  5
35C
100
AcDbEntity
  8
0
  6
HIDDEN
 62
   174
100
AcDbLine
 10
220.706839
 20
173.919017
 30
0.0
 11
219.963118
 21
173.919017
 31
0.0
  0
LINE
  5
35D
100
AcDbEntity
  8
0
  6
HIDDEN
 62
   174
100
AcDbLine
 10
76.444976
 20
163.185135
 30
0.0
 11
76.444976
 21
157.969017
 31
0.0
  0
LINE
  5
35E
100
AcDbEntity
  8
0
  6
HIDDEN
 62
   174
100
AcDbLine
 10
121.944976
 20
133.969017
 30
0.0
 11
121.894976
 21
133.969017
 31
0.0
  0
LINE
  5
35F
100
AcDbEntity
  8
0
  6
HIDDEN
 62
   174
100
AcDbLine
 10
237.944976
 20
137.979428
 30
0.0
 11
237.944976
 21
127.979878
 31
0.0
  0
LINE
  5
360
100
AcDbEntity
  8
0
  6
Continuous
 62
   174
100
AcDbLine
 10
64.444976
 20
165.977828
 30
0.0
 11
64.444976
 21
159.371225
 31
0.0
  0
LWPOLYLINE
  5
361
100
AcDbEntity
  8
0
  6
Continuous
 62
   174
100
AcDbPolyline
 90
        4
 70
   128
 10
56.944976
 20
166.860628
 10
57.078096
 20
168.077343
 10
57.311181
 20
169.299507
 10
57.637796
 20
170.546677
  0
LINE
  5
362
100
AcDbEntity
  8
0
  6
Continuous
 62
   174
100
AcDbLine
 10
68.244976
 20
125.480203
 30
0.0
 11
68.244976
 21
122.901291
 31
0.0
  0
LINE
  5
363
100
AcDbEntity
  8
0
  6
HIDDEN
 62
   174
100
AcDbLine
 10
57.637796
 20
174.968567
 30
0.0
 11
57.608944
 21
174.919044
 31
0.0
  0
LINE
  5
364
100
AcDbEntity
  8
0
  6
HIDDEN
 62
   174
100
AcDbLine
 10
68.244976
 20
133.050612
 30
0.0
 11
74.444976
 21
133.050612
 31
0.0
  0
LINE
  5
365
100
AcDbEntity
  8
0
  6
Continuous
 62
   174
100
AcDbLine
 10
239.444976
 20
130.483164
 30
0.0
 11
239.444976
 21
129.475817
 31
0.0
  0
LINE
  5
366
100
AcDbEntity
  8
0
  6
HIDDEN
 62
   174
100
AcDbLine
 10
116.463146
 20
145.969017
 30
0.0
 11
114.242818
 21
145.969017
 31
0.0
  0
LINE
  5
367
100
AcDbEntity
  8
0
  6
Continuous
 62
   174
100
AcDbLine
 10
56.944976
 20
165.077405
 30
0.0
 11
56.944976
 21
166.860628
 31
0.0
  0
LINE
  5
368
100
AcDbEntity
  8
0
  6
Continuous
 62
   174
100
AcDbLine
 10
253.144976
 20
161.547126
 30
0.0
 11
256.252155
 21
161.547126
 31
0.0
  0
LINE
  5
369
100
AcDbEntity
  8
0
  6
HIDDEN
 62
   174
100
AcDbLine
 10
245.644976
 20
136.582896
 30
0.0
 11
239.444976
 21
136.582896
 31
0.0
  0
LINE
  5
36A
100
AcDbEntity
  8
0
  6
HIDDEN
 62
   174
100
AcDbLine
 10
234.463018
 20
144.969017
 30
0.0
 11
237.462968
 21
144.969017
 31
0.0
  0
LINE
  5
36B
100
AcDbEntity
  8
0
  6
HIDDEN
 62
   174
100
AcDbLine
 10
87.544976
 20
173.969017
 30
0.0
 11
87.945301
 21
173.969017
 31
0.0
  0
LINE
  5
36C
100
AcDbEntity
  8
0
  6
HIDDEN
 62
   174
100
AcDbLine
 10
116.463146
 20
145.919017
 30
0.0
 11
114.242818
 21
145.919017
 31
0.0
  0
LINE
  5
36D
100
AcDbEntity
  8
0
  6
HIDDEN
 62
   174
100
AcDbLine
 10
114.439317
 20
145.969017
 30
0.0
 11
114.215202
 21
145.969017
 31
0.0
  0
LINE
  5
36E
100
AcDbEntity
  8
0
  6
HIDDEN
 62
   174
100
AcDbLine
 10
249.444976
 20
165.977828
 30
0.0
 11
249.444976
 21
172.477365
 31
0.0
  0
LINE
  5
36F
100
AcDbEntity
  8
0
  6
Continuous
 62
   174
100
AcDbLine
 10
64.444976
 20
159.371225
 30
0.0
 11
64.444976
 21
157.978315
 31
0.0
  0
LINE
  5
370
100
AcDbEntity
  8
0
  6
Continuous
 62
   174
100
AcDbLine
 10
245.644976
 20
130.483164
 30
0.0
 11
245.644976
 21
133.061226
 31
0.0
  0
LINE
  5
371
100
AcDbEntity
  8
0
  6
Continuous
 62
   174
100
AcDbLine
 10
245.644976
 20
125.472384
 30
0.0
 11
245.644976
 21
130.472383
 31
0.0
  0
LINE
  5
372
100
AcDbEntity
  8
0
  6
HIDDEN
 62
   174
100
AcDbLine
 10
94.344976
 20
173.969017
 30
0.0
 11
102.444976
 21
173.969017
 31
0.0
  0
LINE
  5
373
100
AcDbEntity
  8
0
  6
HIDDEN
 62
   174
100
AcDbLine
 10
92.76238
 20
173.969017
 30
0.0
 11
93.201244
 21
173.969017
 31
0.0
  0
LINE
  5
374
100
AcDbEntity
  8
0
  6
HIDDEN
 62
   174
100
AcDbLine
 10
197.389993
 20
145.969017
 30
0.0
 11
196.536233
 21
145.969017
 31
0.0
  0
LINE
  5
375
100
AcDbEntity
  8
0
  6
HIDDEN
 62
   174
100
AcDbLine
 10
224.922159
 20
173.919017
 30
0.0
 11
220.688707
 21
173.919017
 31
0.0
  0
LINE
  5
376
100
AcDbEntity
  8
0
  6
HIDDEN
 62
   174
100
AcDbLine
 10
191.944976
 20
121.969017
 30
0.0
 11
191.994976
 21
121.969017
 31
0.0
  0
LINE
  5
377
100
AcDbEntity
  8
0
  6
Continuous
 62
   174
100
AcDbLine
 10
68.244976
 20
137.661631
 30
0.0
 11
68.244976
 21
136.593316
 31
0.0
  0
LINE
  5
378
100
AcDbEntity
  8
0
  6
Continuous
 62
   174
100
AcDbLine
 10
256.280962
 20
157.018916
 30
0.0
 11
256.252155
 21
156.969466
 31
0.0
  0
LINE
  5
379
100
AcDbEntity
  8
0
  6
HIDDEN
 62
   174
100
AcDbLine
 10
237.444976
 20
157.969017
 30
0.0
 11
237.444976
 21
144.969017
 31
0.0
  0
ARC
  5
37A
100
AcDbEntity
  8
0
  6
HIDDEN
 62
   174
100
AcDbCircle
 10
234.444976
 20
170.969017
 30
0.0
 40
3.0
100
AcDbArc
 50
36.0
 51
54.0
  0
LINE
  5
37B
100
AcDbEntity
  8
0
  6
Continuous
 62
   174
100
AcDbLine
 10
74.444976
 20
133.058252
 30
0.0
 11
74.444976
 21
136.593316
 31
0.0
  0
LINE
  5
37C
100
AcDbEntity
  8
0
  6
HIDDEN
 62
   174
100
AcDbLine
 10
119.711003
 20
145.969017
 30
0.0
 11
119.486888
 21
145.969017
 31
0.0
  0
ARC
  5
37D
100
AcDbEntity
  8
0
  6
HIDDEN
 62
   174
100
AcDbCircle
 10
144.944976
 20
111.969017
 30
0.0
 40
4.25
100
AcDbArc
 50
0.0
 51
180.0
  0
LINE
  5
37E
100
AcDbEntity
  8
0
  6
Continuous
 62
   174
100
AcDbLine
 10
207.944976
 20
144.969017
 30
0.0
 11
207.944976
 21
145.969017
 31
0.0
  0
LWPOLYLINE
  5
37F
100
AcDbEntity
  8
0
  6
HIDDEN
 62
   174
100
AcDbPolyline
 90
        4
 70
   128
 10
76.444976
 20
168.752899
 10
76.457536
 20
167.856164
 10
76.477941
 20
166.91801
 10
76.486936
 20
165.969017
  0
LINE
  5
380
100
AcDbEntity
  8
0
  6
HIDDEN
 62
   174
100
AcDbLine
 10
234.444976
 20
170.969017
 30
0.0
 11
234.444976
 21
144.969017
 31
0.0
  0
LINE
  5
381
100
AcDbEntity
  8
0
  6
HIDDEN
 62
   174
100
AcDbLine
 10
199.711013
 20
145.969017
 30
0.0
 11
199.486899
 21
145.969017
 31
0.0
  0
LINE
  5
382
100
AcDbEntity
  8
0
  6
HIDDEN
 62
   174
100
AcDbLine
 10
87.56319
 20
173.919017
 30
0.0
 11
90.963147
 21
173.919017
 31
0.0
  0
ARC
  5
383
100
AcDbEntity
  8
0
  6
HIDDEN
 62
   174
100
AcDbCircle
 10
144.944976
 20
111.969017
 30
0.0
 40
4.25
100
AcDbArc
 50
0.0
 51
180.0
  0
LWPOLYLINE
  5
384
100
AcDbEntity
  8
0
  6
Continuous
 62
   174
100
AcDbPolyline
 90
        4
 70
   128
 10
256.944976
 20
172.233932
 10
256.811855
 20
171.625573
 10
256.578773
 20
171.014498
 10
256.252155
 20
170.390908
  0
LINE
  5
385
100
AcDbEntity
  8
0
  6
HIDDEN
 62
   174
100
AcDbLine
 10
193.963057
 20
145.919017
 30
0.0
 11
199.963169
 21
145.919017
 31
0.0
  0
ARC
  5
386
100
AcDbEntity
  8
0
  6
HIDDEN
 62
   174
100
AcDbCircle
 10
144.944976
 20
111.969017
 30
0.0
 40
3.249981
100
AcDbArc
 50
-180.0
 51
0.0
  0
LINE
  5
387
100
AcDbEntity
  8
0
  6
Continuous
 62
   174
100
AcDbLine
 10
121.944976
 20
107.969017
 30
0.0
 11
121.944976
 21
109.969017
 31
0.0
  0
LINE
  5
388
100
AcDbEntity
  8
0
  6
HIDDEN
 62
   174
100
AcDbLine
 10
253.144976
 20
174.976828
 30
0.0
 11
253.144976
 21
174.977252
 31
0.0
  0
LINE
  5
389
100
AcDbEntity
  8
0
  6
Continuous
 62
   174
100
AcDbLine
 10
253.144976
 20
170.399578
 30
0.0
 11
253.144976
 21
174.977252
 31
0.0
  0
LINE
  5
38A
100
AcDbEntity
  8
0
  6
HIDDEN
 62
   174
100
AcDbLine
 10
253.144976
 20
156.969466
 30
0.0
 11
253.144976
 21
161.391357
 31
0.0
  0
LINE
  5
38B
100
AcDbEntity
  8
0
  6
HIDDEN
 62
   174
100
AcDbLine
 10
253.144976
 20
170.546677
 30
0.0
 11
253.144976
 21
174.968567
 31
0.0
  0
LINE
  5
38C
100
AcDbEntity
  8
0
  6
HIDDEN
 62
   174
100
AcDbLine
 10
237.462968
 20
170.969017
 30
0.0
 11
234.463018
 21
170.969017
 31
0.0
  0
ARC
  5
38D
100
AcDbEntity
  8
0
  6
Continuous
 62
   174
100
AcDbCircle
 10
79.444976
 20
170.969017
 30
0.0
 40
3.0
100
AcDbArc
 50
-270.0
 51
-180.0
  0
LINE
  5
38E
100
AcDbEntity
  8
0
  6
Continuous
 62
   174
100
AcDbLine
 10
191.944976
 20
147.969017
 30
0.0
 11
191.944976
 21
145.969017
 31
0.0
  0
LINE
  5
38F
100
AcDbEntity
  8
0
  6
HIDDEN
 62
   174
100
AcDbLine
 10
237.944976
 20
127.979878
 30
0.0
 11
237.944976
 21
117.980541
 31
0.0
  0
LINE
  5
390
100
AcDbEntity
  8
0
  6
Continuous
 62
   174
100
AcDbLine
 10
61.444976
 20
159.263947
 30
0.0
 11
61.444976
 21
165.977828
 31
0.0
  0
LINE
  5
391
100
AcDbEntity
  8
0
  6
Continuous
 62
   174
100
AcDbLine
 10
68.244976
 20
119.354298
 30
0.0
 11
74.444976
 21
119.354298
 31
0.0
  0
LINE
  5
392
100
AcDbEntity
  8
0
  6
Continuous
 62
   174
100
AcDbLine
 10
237.944976
 20
144.969017
 30
0.0
 11
207.944976
 21
144.969017
 31
0.0
  0
LINE
  5
393
100
AcDbEntity
  8
0
  6
HIDDEN
 62
   174
100
AcDbLine
 10
194.215212
 20
145.969017
 30
0.0
 11
193.963057
 21
145.969017
 31
0.0
  0
LINE
  5
394
100
AcDbEntity
  8
0
  6
Continuous
 62
   174
100
AcDbLine
 10
105.463047
 20
170.969017
 30
0.0
 11
102.463097
 21
170.969017
 31
0.0
  0
LINE
  5
395
100
AcDbEntity
  8
0
  6
HIDDEN
 62
   174
100
AcDbLine
 10
211.463119
 20
170.969017
 30
0.0
 11
208.463169
 21
170.969017
 31
0.0
  0
LINE
  5
396
100
AcDbEntity
  8
0
  6
HIDDEN
 62
   174
100
AcDbLine
 10
68.244976
 20
125.472384
 30
0.0
 11
74.444976
 21
125.472384
 31
0.0
  0
LINE
  5
397
100
AcDbEntity
  8
0
  6
HIDDEN
 62
   174
100
AcDbLine
 10
93.201244
 20
173.969017
 30
0.0
 11
93.944976
 21
173.969017
 31
0.0
  0
LINE
  5
398
100
AcDbEntity
  8
0
  6
HIDDEN
 62
   174
100
AcDbLine
 10
256.252155
 20
170.546677
 30
0.0
 11
253.144976
 21
170.546677
 31
0.0
  0
LWPOLYLINE
  5
399
100
AcDbEntity
  8
0
  6
HIDDEN
 62
   174
100
AcDbPolyline
 90
        7
 70
   128
 10
256.252155
 20
156.969466
 10
256.618282
 20
157.721157
 10
256.84638
 20
158.458203
 10
256.923283
 20
159.180451
 10
256.846365
 20
159.902691
 10
256.618265
 20
160.63971
 10
256.252155
 20
161.391357
  0
LINE
  5
39A
100
AcDbEntity
  8
0
  6
HIDDEN
 62
   174
100
AcDbLine
 10
245.644976
 20
133.047617
 30
0.0
 11
239.444976
 21
133.047617
 31
0.0
  0
ARC
  5
39B
100
AcDbEntity
  8
0
  6
Continuous
 62
   174
100
AcDbCircle
 10
211.444976
 20
170.969017
 30
0.0
 40
3.0
100
AcDbArc
 50
-270.0
 51
-180.0
  0
LINE
  5
39C
100
AcDbEntity
  8
0
  6
HIDDEN
 62
   174
100
AcDbLine
 10
234.444976
 20
173.97734
 30
0.0
 11
234.444976
 21
170.977602
 31
0.0
  0
LINE
  5
39D
100
AcDbEntity
  8
0
  6
Continuous
 62
   174
100
AcDbLine
 10
191.944976
 20
109.969017
 30
0.0
 11
207.944976
 21
109.969017
 31
0.0
  0
LINE
  5
39E
100
AcDbEntity
  8
0
  6
HIDDEN
 62
   174
100
AcDbLine
 10
64.444976
 20
159.47829
 30
0.0
 11
64.444976
 21
165.977828
 31
0.0
  0
LINE
  5
39F
100
AcDbEntity
  8
0
  6
HIDDEN
 62
   174
100
AcDbLine
 10
74.444976
 20
133.050612
 30
0.0
 11
74.444976
 21
136.584661
 31
0.0
  0
LINE
  5
3A0
100
AcDbEntity
  8
0
  6
Continuous
 62
   174
100
AcDbLine
 10
68.244976
 20
136.582896
 30
0.0
 11
68.244976
 21
133.047617
 31
0.0
  0
LINE
  5
3A1
100
AcDbEntity
  8
0
  6
HIDDEN
 62
   174
100
AcDbLine
 10
113.963046
 20
145.919017
 30
0.0
 11
119.963159
 21
145.919017
 31
0.0
  0
LINE
  5
3A2
100
AcDbEntity
  8
0
  6
HIDDEN
 62
   174
100
AcDbLine
 10
219.544976
 20
173.969017
 30
0.0
 11
219.945033
 21
173.969017
 31
0.0
  0
LINE
  5
3A3
100
AcDbEntity
  8
0
  6
HIDDEN
 62
   174
100
AcDbLine
 10
116.444976
 20
145.969017
 30
0.0
 11
116.444976
 21
145.919017
 31
0.0
  0
LINE
  5
3A4
100
AcDbEntity
  8
0
  6
HIDDEN
 62
   174
100
AcDbLine
 10
196.536233
 20
145.969017
 30
0.0
 11
196.461032
 21
145.969017
 31
0.0
  0
LINE
  5
3A5
100
AcDbEntity
  8
0
  6
Continuous
 62
   174
100
AcDbLine
 10
256.944976
 20
173.769017
 30
0.0
 11
256.277699
 21
174.924773
 31
0.0
  0
LINE
  5
3A6
100
AcDbEntity
  8
0
  6
Continuous
 62
   174
100
AcDbLine
 10
253.144976
 20
170.390908
 30
0.0
 11
256.252155
 21
170.390908
 31
0.0
  0
LINE
  5
3A7
100
AcDbEntity
  8
0
  6
Continuous
 62
   174
100
AcDbLine
 10
256.252155
 20
174.968567
 30
0.0
 11
256.281007
 21
174.919044
 31
0.0
  0
LINE
  5
3A8
100
AcDbEntity
  8
0
  6
Continuous
 62
   174
100
AcDbLine
 10
74.444976
 20
117.969017
 30
0.0
 11
75.944976
 21
117.969017
 31
0.0
  0
ARC
  5
3A9
100
AcDbEntity
  8
0
  6
Continuous
 62
   174
100
AcDbCircle
 10
168.944976
 20
127.969017
 30
0.0
 40
10.0
100
AcDbArc
 50
0.0
 51
180.0
  0
LINE
  5
3AA
100
AcDbEntity
  8
0
  6
HIDDEN
 62
   174
100
AcDbLine
 10
90.963147
 20
173.919017
 30
0.0
 11
94.363104
 21
173.919017
 31
0.0
  0
LINE
  5
3AB
100
AcDbEntity
  8
0
  6
HIDDEN
 62
   174
100
AcDbLine
 10
225.963018
 20
173.919017
 30
0.0
 11
221.145721
 21
173.919017
 31
0.0
  0
ARC
  5
3AC
100
AcDbEntity
  8
0
  6
HIDDEN
 62
   174
100
AcDbCircle
 10
144.944976
 20
111.969017
 30
0.0
 40
4.25
100
AcDbArc
 50
-80.962376
 51
0.0
  0
ARC
  5
3AD
100
AcDbEntity
  8
0
  6
HIDDEN
 62
   174
100
AcDbCircle
 10
234.444976
 20
170.969017
 30
0.0
 40
3.0
100
AcDbArc
 50
18.0
 51
36.0
  0
LINE
  5
3AE
100
AcDbEntity
  8
0
  6
HIDDEN
 62
   174
100
AcDbLine
 10
119.944976
 20
145.919017
 30
0.0
 11
119.944976
 21
145.969017
 31
0.0
  0
LINE
  5
3AF
100
AcDbEntity
  8
0
  6
HIDDEN
 62
   174
100
AcDbLine
 10
114.224682
 20
145.919017
 30
0.0
 11
114.224682
 21
145.969017
 31
0.0
  0
LINE
  5
3B0
100
AcDbEntity
  8
0
  6
HIDDEN
 62
   174
100
AcDbLine
 10
196.463156
 20
145.969017
 30
0.0
 11
194.242828
 21
145.969017
 31
0.0
  0
LINE
  5
3B1
100
AcDbEntity
  8
0
  6
HIDDEN
 62
   174
100
AcDbLine
 10
93.963097
 20
173.919017
 30
0.0
 11
88.986052
 21
173.919017
 31
0.0
  0
LINE
  5
3B2
100
AcDbEntity
  8
0
  6
HIDDEN
 62
   174
100
AcDbLine
 10
208.444976
 20
170.969017
 30
0.0
 11
208.444976
 21
144.969017
 31
0.0
  0
LWPOLYLINE
  5
3B3
100
AcDbEntity
  8
0
  6
HIDDEN
 62
   174
100
AcDbPolyline
 90
        4
 70
   128
 10
256.252155
 20
161.391357
 10
256.580056
 20
162.644172
 10
256.812809
 20
163.866993
 10
256.944976
 20
165.077405
  0
LWPOLYLINE
  5
3B4
100
AcDbEntity
  8
0
  6
Continuous
 62
   174
100
AcDbPolyline
 90
        4
 70
   128
 10
256.252155
 20
161.547126
 10
256.580056
 20
160.920719
 10
256.81281
 20
160.309306
 10
256.944976
 20
159.704102
  0
LINE
  5
3B5
100
AcDbEntity
  8
0
  6
Continuous
 62
   174
100
AcDbLine
 10
68.244976
 20
118.286236
 30
0.0
 11
74.444976
 21
118.286236
 31
0.0
  0
LINE
  5
3B6
100
AcDbEntity
  8
0
  6
HIDDEN
 62
   174
100
AcDbLine
 10
68.244976
 20
130.472383
 30
0.0
 11
74.444976
 21
130.472383
 31
0.0
  0
LINE
  5
3B7
100
AcDbEntity
  8
0
  6
Continuous
 62
   174
100
AcDbLine
 10
245.644976
 20
133.050612
 30
0.0
 11
245.644976
 21
136.584661
 31
0.0
  0
LINE
  5
3B8
100
AcDbEntity
  8
0
  6
HIDDEN
 62
   174
100
AcDbLine
 10
222.944976
 20
173.969017
 30
0.0
 11
224.922159
 21
173.969017
 31
0.0
  0
LINE
  5
3B9
100
AcDbEntity
  8
0
  6
Continuous
 62
   174
100
AcDbLine
 10
237.444976
 20
144.969017
 30
0.0
 11
237.444976
 21
163.185135
 31
0.0
  0
LINE
  5
3BA
100
AcDbEntity
  8
0
  6
HIDDEN
 62
   174
100
AcDbLine
 10
199.944976
 20
145.919017
 30
0.0
 11
199.944976
 21
145.969017
 31
0.0
  0
LINE
  5
3BB
100
AcDbEntity
  8
0
  6
HIDDEN
 62
   174
100
AcDbLine
 10
75.944976
 20
117.980541
 30
0.0
 11
75.944976
 21
127.979878
 31
0.0
  0
LWPOLYLINE
  5
3BC
100
AcDbEntity
  8
0
  6
HIDDEN
 62
   174
100
AcDbPolyline
 90
        6
 70
   128
 10
237.444976
 20
170.969017
 10
237.272633
 20
171.971191
 10
236.820833
 20
172.800766
 10
236.157762
 20
173.432015
 10
235.349232
 20
173.829492
 10
234.444976
 20
173.969017
  0
LINE
  5
3BD
100
AcDbEntity
  8
0
  6
Continuous
 62
   174
100
AcDbLine
 10
239.444976
 20
129.475817
 30
0.0
 11
239.444976
 21
125.483389
 31
0.0
  0
LINE
  5
3BE
100
AcDbEntity
  8
0
  6
HIDDEN
 62
   174
100
AcDbLine
 10
234.444976
 20
170.969017
 30
0.0
 11
211.444976
 21
170.969017
 31
0.0
  0
ARC
  5
3BF
100
AcDbEntity
  8
0
  6
Continuous
 62
   174
100
AcDbCircle
 10
168.944976
 20
127.969017
 30
0.0
 40
7.5
100
AcDbArc
 50
-180.0
 51
0.0
  0
ARC
  5
3C0
100
AcDbEntity
  8
0
  6
Continuous
 62
   174
100
AcDbCircle
 10
144.944976
 20
127.969017
 30
0.0
 40
3.5
100
AcDbArc
 50
-180.0
 51
0.0
  0
LINE
  5
3C1
100
AcDbEntity
  8
0
  6
Continuous
 62
   174
100
AcDbLine
 10
237.444976
 20
163.185135
 30
0.0
 11
237.444976
 21
144.969017
 31
0.0
  0
LINE
  5
3C2
100
AcDbEntity
  8
0
  6
Continuous
 62
   174
100
AcDbLine
 10
191.944976
 20
145.969017
 30
0.0
 11
191.944976
 21
109.969017
 31
0.0
  0
LINE
  5
3C3
100
AcDbEntity
  8
0
  6
Continuous
 62
   174
100
AcDbLine
 10
61.444976
 20
156.978403
 30
0.0
 11
61.444976
 21
159.263947
 31
0.0
  0
LINE
  5
3C4
100
AcDbEntity
  8
0
  6
Continuous
 62
   174
100
AcDbLine
 10
253.144976
 20
156.969466
 30
0.0
 11
256.252155
 21
156.969466
 31
0.0
  0
LINE
  5
3C5
100
AcDbEntity
  8
0
  6
HIDDEN
 62
   174
100
AcDbLine
 10
74.444976
 20
119.356065
 30
0.0
 11
74.444976
 21
122.893083
 31
0.0
  0
LINE
  5
3C6
100
AcDbEntity
  8
0
  6
HIDDEN
 62
   174
100
AcDbLine
 10
68.244976
 20
122.893083
 30
0.0
 11
74.444976
 21
122.893083
 31
0.0
  0
LINE
  5
3C7
100
AcDbEntity
  8
0
  6
Continuous
 62
   174
100
AcDbLine
 10
74.444976
 20
137.661631
 30
0.0
 11
74.444976
 21
137.979428
 31
0.0
  0
ARC
  5
3C8
100
AcDbEntity
  8
0
  6
Continuous
 62
   174
100
AcDbCircle
 10
102.444976
 20
170.969017
 30
0.0
 40
3.0
100
AcDbArc
 50
-306.0
 51
-288.0
  0
LINE
  5
3C9
100
AcDbEntity
  8
0
  6
Continuous
 62
   174
100
AcDbLine
 10
102.444976
 20
170.977602
 30
0.0
 11
102.444976
 21
173.97734
 31
0.0
  0
LINE
  5
3CA
100
AcDbEntity
  8
0
  6
HIDDEN
 62
   174
100
AcDbLine
 10
211.444976
 20
173.97734
 30
0.0
 11
211.444976
 21
170.977602
 31
0.0
  0
LINE
  5
3CB
100
AcDbEntity
  8
0
  6
HIDDEN
 62
   174
100
AcDbLine
 10
237.444976
 20
168.761523
 30
0.0
 11
237.444976
 21
170.977602
 31
0.0
  0
LINE
  5
3CC
100
AcDbEntity
  8
0
  6
HIDDEN
 62
   174
100
AcDbLine
 10
105.463047
 20
144.969017
 30
0.0
 11
102.463097
 21
144.969017
 31
0.0
  0
ARC
  5
3CD
100
AcDbEntity
  8
0
  6
HIDDEN
 62
   174
100
AcDbCircle
 10
168.944976
 20
143.969017
 30
0.0
 40
4.25
100
AcDbArc
 50
99.037624
 51
180.0
  0
LINE
  5
3CE
100
AcDbEntity
  8
0
  6
Continuous
 62
   174
100
AcDbLine
 10
121.944976
 20
109.969017
 30
0.0
 11
121.944976
 21
145.969017
 31
0.0
  0
LINE
  5
3CF
100
AcDbEntity
  8
0
  6
Continuous
 62
   174
100
AcDbLine
 10
253.144976
 20
161.55629
 30
0.0
 11
253.144976
 21
165.977828
 31
0.0
  0
LINE
  5
3D0
100
AcDbEntity
  8
0
  6
Continuous
 62
   174
100
AcDbLine
 10
60.744976
 20
165.977828
 30
0.0
 11
60.744976
 21
161.400365
 31
0.0
  0
ARC
  5
3D1
100
AcDbEntity
  8
0
  6
Continuous
 62
   174
100
AcDbCircle
 10
156.944976
 20
111.969017
 30
0.0
 40
2.75
100
AcDbArc
 50
0.0
 51
180.0
  0
LWPOLYLINE
  5
3D2
100
AcDbEntity
  8
0
  6
HIDDEN
 62
   174
100
AcDbPolyline
 90
        7
 70
   128
 10
256.252155
 20
170.546677
 10
256.618282
 20
171.298367
 10
256.84638
 20
172.035414
 10
256.923283
 20
172.757662
 10
256.846365
 20
173.479901
 10
256.618265
 20
174.216921
 10
256.252155
 20
174.968567
  0
LINE
  5
3D3
100
AcDbEntity
  8
0
  6
Continuous
 62
   174
100
AcDbLine
 10
245.644976
 20
133.050612
 30
0.0
 11
239.444976
 21
133.050612
 31
0.0
  0
LINE
  5
3D4
100
AcDbEntity
  8
0
  6
Continuous
 62
   174
100
AcDbLine
 10
68.244976
 20
130.469017
 30
0.0
 11
68.244976
 21
125.469017
 31
0.0
  0
LINE
  5
3D5
100
AcDbEntity
  8
0
  6
HIDDEN
 62
   174
100
AcDbLine
 10
219.945033
 20
173.969017
 30
0.0
 11
221.127571
 21
173.969017
 31
0.0
  0
ARC
  5
3D6
100
AcDbEntity
  8
0
  6
HIDDEN
 62
   174
100
AcDbCircle
 10
144.944976
 20
111.969017
 30
0.0
 40
4.25
100
AcDbArc
 50
180.0
 51
360.0
  0
LINE
  5
3D7
100
AcDbEntity
  8
0
  6
HIDDEN
 62
   174
100
AcDbLine
 10
121.944976
 20
133.969017
 30
0.0
 11
121.894976
 21
133.969017
 31
0.0
  0
LINE
  5
3D8
100
AcDbEntity
  8
0
  6
Continuous
 62
   174
100
AcDbLine
 10
57.637796
 20
170.546677
 30
0.0
 11
60.744976
 21
170.546677
 31
0.0
  0
LINE
  5
3D9
100
AcDbEntity
  8
0
  6
HIDDEN
 62
   174
100
AcDbLine
 10
224.922159
 20
173.969017
 30
0.0
 11
225.331823
 21
173.969017
 31
0.0
  0
LINE
  5
3DA
100
AcDbEntity
  8
0
  6
HIDDEN
 62
   174
100
AcDbLine
 10
76.463035
 20
144.969017
 30
0.0
 11
79.463197
 21
144.969017
 31
0.0
  0
LINE
  5
3DB
100
AcDbEntity
  8
0
  6
HIDDEN
 62
   174
100
AcDbLine
 10
113.944976
 20
145.919017
 30
0.0
 11
113.944976
 21
145.969017
 31
0.0
  0
LINE
  5
3DC
100
AcDbEntity
  8
0
  6
HIDDEN
 62
   174
100
AcDbLine
 10
196.461032
 20
145.969017
 30
0.0
 11
194.439327
 21
145.969017
 31
0.0
  0
LINE
  5
3DD
100
AcDbEntity
  8
0
  6
Continuous
 62
   174
100
AcDbLine
 10
234.444976
 20
173.97734
 30
0.0
 11
234.444976
 21
170.977602
 31
0.0
  0
LWPOLYLINE
  5
3DE
100
AcDbEntity
  8
0
  6
Continuous
 62
   174
100
AcDbPolyline
 90
        6
 70
   128
 10
57.637796
 20
170.546677
 10
57.271669
 20
171.298367
 10
57.043571
 20
172.035414
 10
56.966668
 20
172.757662
 10
57.043586
 20
173.479901
 10
57.094487
 20
173.691483
  0
LINE
  5
3DF
100
AcDbEntity
  8
0
  6
HIDDEN
 62
   174
100
AcDbLine
 10
117.444976
 20
145.969017
 30
0.0
 11
117.444976
 21
145.919017
 31
0.0
  0
LINE
  5
3E0
100
AcDbEntity
  8
0
  6
Continuous
 62
   174
100
AcDbLine
 10
64.444976
 20
157.969017
 30
0.0
 11
76.444976
 21
157.969017
 31
0.0
  0
LINE
  5
3E1
100
AcDbEntity
  8
0
  6
Continuous
 62
   174
100
AcDbLine
 10
256.944976
 20
173.125543
 30
0.0
 11
256.944976
 21
172.233932
 31
0.0
  0
LINE
  5
3E2
100
AcDbEntity
  8
0
  6
Continuous
 62
   174
100
AcDbLine
 10
68.244976
 20
122.890087
 30
0.0
 11
74.444976
 21
122.890087
 31
0.0
  0
ARC
  5
3E3
100
AcDbEntity
  8
0
  6
HIDDEN
 62
   174
100
AcDbCircle
 10
234.444976
 20
170.969017
 30
0.0
 40
3.0
100
AcDbArc
 50
72.0
 51
90.0
  0
LINE
  5
3E4
100
AcDbEntity
  8
0
  6
Continuous
 62
   174
100
AcDbLine
 10
102.444976
 20
173.969017
 30
0.0
 11
79.444976
 21
173.969017
 31
0.0
  0
LINE
  5
3E5
100
AcDbEntity
  8
0
  6
Continuous
 62
   174
100
AcDbLine
 10
68.244976
 20
125.469017
 30
0.0
 11
74.444976
 21
125.469017
 31
0.0
  0
ARC
  5
3E6
100
AcDbEntity
  8
0
  6
HIDDEN
 62
   174
100
AcDbCircle
 10
234.444976
 20
170.969017
 30
0.0
 40
3.0
100
AcDbArc
 50
0.0
 51
18.0
  0
LINE
  5
3E7
100
AcDbEntity
  8
0
  6
HIDDEN
 62
   174
100
AcDbLine
 10
193.944976
 20
145.919017
 30
0.0
 11
193.944976
 21
145.969017
 31
0.0
  0
LINE
  5
3E8
100
AcDbEntity
  8
0
  6
Continuous
 62
   174
100
AcDbLine
 10
191.944976
 20
109.969017
 30
0.0
 11
191.944976
 21
107.969017
 31
0.0
  0
LINE
  5
3E9
100
AcDbEntity
  8
0
  6
HIDDEN
 62
   174
100
AcDbLine
 10
60.744976
 20
170.390908
 30
0.0
 11
57.637796
 21
170.390908
 31
0.0
  0
LINE
  5
3EA
100
AcDbEntity
  8
0
  6
Continuous
 62
   174
100
AcDbLine
 10
60.744976
 20
174.968567
 30
0.0
 11
57.637796
 21
174.968567
 31
0.0
  0
LINE
  5
3EB
100
AcDbEntity
  8
0
  6
Continuous
 62
   174
100
AcDbLine
 10
245.644976
 20
125.472384
 30
0.0
 11
239.444976
 21
125.472384
 31
0.0
  0
LWPOLYLINE
  5
3EC
100
AcDbEntity
  8
0
  6
Continuous
 62
   174
100
AcDbPolyline
 90
        4
 70
   128
 10
256.280917
 20
174.919197
 10
256.580056
 20
174.34216
 10
256.81281
 20
173.730747
 10
256.944976
 20
173.125543
  0
LINE
  5
3ED
100
AcDbEntity
  8
0
  6
HIDDEN
 62
   174
100
AcDbLine
 10
76.444976
 20
157.978315
 30
0.0
 11
76.444976
 21
163.194132
 31
0.0
  0
LINE
  5
3EE
100
AcDbEntity
  8
0
  6
HIDDEN
 62
   174
100
AcDbLine
 10
102.444976
 20
144.969017
 30
0.0
 11
102.444976
 21
170.969017
 31
0.0
  0
ARC
  5
3EF
100
AcDbEntity
  8
0
  6
Continuous
 62
   174
100
AcDbCircle
 10
144.944976
 20
127.969017
 30
0.0
 40
10.0
100
AcDbArc
 50
-180.0
 51
0.0
  0
LINE
  5
3F0
100
AcDbEntity
  8
0
  6
HIDDEN
 62
   174
100
AcDbLine
 10
221.127571
 20
173.969017
 30
0.0
 11
222.944976
 21
173.969017
 31
0.0
  0
LINE
  5
3F1
100
AcDbEntity
  8
0
  6
HIDDEN
 62
   174
100
AcDbLine
 10
113.944976
 20
145.919017
 30
0.0
 11
113.944976
 21
145.969017
 31
0.0
  0
ARC
  5
3F2
100
AcDbEntity
  8
0
  6
Continuous
 62
   174
100
AcDbCircle
 10
102.444976
 20
170.969017
 30
0.0
 40
3.0
100
AcDbArc
 50
0.0
 51
90.0
  0
ENDBLK
  5
3F3
100
AcDbEntity
  8
0
100
AcDbBlockEnd
  0
BLOCK
  5
3F6
100
AcDbEntity
  8
0
100
AcDbBlockBegin
  2
*B5
 70
     0
 10
0.0
 20
0.0
 30
0.0
  3
*B5
  1

  0
LINE
  5
3F7
100
AcDbEntity
  8
0
  6
Continuous
 62
   172
100
AcDbLine
 10
99.660824
 20
75.113015
 30
0.0
 11
91.252272
 21
75.113015
 31
0.0
  0
LINE
  5
3F8
100
AcDbEntity
  8
0
  6
Continuous
 62
   172
100
AcDbLine
 10
111.125269
 20
55.617308
 30
0.0
 11
99.660824
 21
75.113015
 31
0.0
  0
ENDBLK
  5
3F9
100
AcDbEntity
  8
0
100
AcDbBlockEnd
  0
BLOCK
  5
3FC
100
AcDbEntity
  8
0
100
AcDbBlockBegin
  2
*B6
 70
     0
 10
0.0
 20
0.0
 30
0.0
  3
*B6
  1

  0
LINE
  5
3FD
100
AcDbEntity
  8
0
  6
Continuous
 62
   172
100
AcDbLine
 10
97.913668
 20
76.936573
 30
0.0
 11
96.113668
 21
77.597968
 31
0.0
  0
LINE
  5
3FE
100
AcDbEntity
  8
0
  6
Continuous
 62
   172
100
AcDbLine
 10
97.913668
 20
76.936573
 30
0.0
 11
96.113668
 21
76.397968
 31
0.0
  0
LINE
  5
3FF
100
AcDbEntity
  8
0
  6
Continuous
 62
   172
100
AcDbLine
 10
96.713668
 20
76.936573
 30
0.0
 11
97.913668
 21
76.936573
 31
0.0
  0
LINE
  5
400
100
AcDbEntity
  8
0
  6
Continuous
 62
   172
100
AcDbLine
 10
97.913668
 20
87.259363
 30
0.0
 11
96.113668
 21
86.597968
 31
0.0
  0
LINE
  5
401
100
AcDbEntity
  8
0
  6
Continuous
 62
   172
100
AcDbLine
 10
97.913668
 20
87.259363
 30
0.0
 11
96.113668
 21
87.797968
 31
0.0
  0
LINE
  5
402
100
AcDbEntity
  8
0
  6
Continuous
 62
   172
100
AcDbLine
 10
96.713668
 20
87.259363
 30
0.0
 11
97.913668
 21
87.259363
 31
0.0
  0
ARC
  5
403
100
AcDbEntity
  8
0
  6
Continuous
 62
   172
100
AcDbCircle
 10
96.713668
 20
82.097968
 30
0.0
 40
5.161395
100
AcDbArc
 50
-270.0
 51
-90.0
  0
ENDBLK
  5
404
100
AcDbEntity
  8
0
100
AcDbBlockEnd
  0
BLOCK
  5
407
100
AcDbEntity
  8
0
100
AcDbBlockBegin
  2
*B7
 70
     0
 10
0.0
 20
0.0
 30
0.0
  3
*B7
  1

  0
ENDBLK
  5
408
100
AcDbEntity
  8
0
100
AcDbBlockEnd
  0
BLOCK
  5
40A
100
AcDbEntity
  8
0
100
AcDbBlockBegin
  2
*B8
 70
     0
 10
0.0
 20
0.0
 30
0.0
  3
*B8
  1

  0
LINE
  5
40B
100
AcDbEntity
  8
0
  6
Continuous
 62
   172
100
AcDbLine
 10
89.11041
 20
122.128381
 30
0.0
 11
71.418961
 21
92.043428
 31
0.0
  0
LINE
  5
40C
100
AcDbEntity
  8
0
  6
Continuous
 62
   172
100
AcDbLine
 10
71.418961
 20
92.043428
 30
0.0
 11
63.01041
 21
92.043428
 31
0.0
  0
ENDBLK
  5
40D
100
AcDbEntity
  8
0
100
AcDbBlockEnd
  0
BLOCK
  5
410
100
AcDbEntity
  8
0
100
AcDbBlockBegin
  2
*B9
 70
     0
 10
0.0
 20
0.0
 30
0.0
  3
*B9
  1

  0
LINE
  5
411
100
AcDbEntity
  8
0
  6
Continuous
 62
   172
100
AcDbLine
 10
69.671805
 20
93.866986
 30
0.0
 11
67.871805
 21
94.528381
 31
0.0
  0
LINE
  5
412
100
AcDbEntity
  8
0
  6
Continuous
 62
   172
100
AcDbLine
 10
69.671805
 20
93.866986
 30
0.0
 11
67.871805
 21
93.328381
 31
0.0
  0
LINE
  5
413
100
AcDbEntity
  8
0
  6
Continuous
 62
   172
100
AcDbLine
 10
68.471805
 20
93.866986
 30
0.0
 11
69.671805
 21
93.866986
 31
0.0
  0
LINE
  5
414
100
AcDbEntity
  8
0
  6
Continuous
 62
   172
100
AcDbLine
 10
69.671805
 20
104.189776
 30
0.0
 11
67.871805
 21
103.528381
 31
0.0
  0
LINE
  5
415
100
AcDbEntity
  8
0
  6
Continuous
 62
   172
100
AcDbLine
 10
69.671805
 20
104.189776
 30
0.0
 11
67.871805
 21
104.728381
 31
0.0
  0
LINE
  5
416
100
AcDbEntity
  8
0
  6
Continuous
 62
   172
100
AcDbLine
 10
68.471805
 20
104.189776
 30
0.0
 11
69.671805
 21
104.189776
 31
0.0
  0
ARC
  5
417
100
AcDbEntity
  8
0
  6
Continuous
 62
   172
100
AcDbCircle
 10
68.471805
 20
99.028381
 30
0.0
 40
5.161395
100
AcDbArc
 50
-270.0
 51
-90.0
  0
ENDBLK
  5
418
100
AcDbEntity
  8
0
100
AcDbBlockEnd
  0
BLOCK
  5
41B
100
AcDbEntity
  8
0
100
AcDbBlockBegin
  2
*B10
 70
     0
 10
0.0
 20
0.0
 30
0.0
  3
*B10
  1

  0
ENDBLK
  5
41C
100
AcDbEntity
  8
0
100
AcDbBlockEnd
  0
BLOCK
  5
41E
100
AcDbEntity
  8
0
100
AcDbBlockBegin
  2
*B11
 70
     0
 10
0.0
 20
0.0
 30
0.0
  3
*B11
  1

  0
LINE
  5
41F
100
AcDbEntity
  8
0
  6
Continuous
 62
     0
100
AcDbLine
 10
201.018101
 20
143.979115
 30
0.0
 11
201.018101
 21
111.980853
 31
0.0
  0
SOLID
  5
420
100
AcDbEntity
  8
0
  6
Continuous
 62
     0
100
AcDbTrace
 10
201.618006
 20
140.479315
 30
0.0
 11
201.018101
 21
143.979115
 31
0.0
 12
200.418196
 22
140.479315
 32
0.0
 13
200.418196
 23
140.479315
 33
0.0
  0
SOLID
  5
421
100
AcDbEntity
  8
0
  6
Continuous
 62
     0
100
AcDbTrace
 10
200.418196
 20
115.480653
 30
0.0
 11
201.018101
 21
111.980853
 31
0.0
 12
201.618006
 22
115.480653
 32
0.0
 13
201.618006
 23
115.480653
 33
0.0
  0
ENDBLK
  5
422
100
AcDbEntity
  8
0
100
AcDbBlockEnd
  0
BLOCK
  5
425
100
AcDbEntity
  8
0
100
AcDbBlockBegin
  2
*B12
 70
     0
 10
0.0
 20
0.0
 30
0.0
  3
*B12
  1

  0
LINE
  5
426
100
AcDbEntity
  8
0
  6
Continuous
 62
     0
100
AcDbLine
 10
257.018087
 20
107.981203
 30
0.0
 11
257.018087
 21
147.978765
 31
0.0
  0
SOLID
  5
427
100
AcDbEntity
  8
0
  6
Continuous
 62
     0
100
AcDbTrace
 10
256.417969
 20
111.481003
 30
0.0
 11
257.018087
 21
107.981203
 31
0.0
 12
257.617992
 22
111.481003
 32
0.0
 13
257.617992
 23
111.481003
 33
0.0
  0
SOLID
  5
428
100
AcDbEntity
  8
0
  6
Continuous
 62
     0
100
AcDbTrace
 10
257.617992
 20
144.478965
 30
0.0
 11
257.018087
 21
147.978765
 31
0.0
 12
256.417969
 22
144.478965
 32
0.0
 13
256.417969
 23
144.478965
 33
0.0
  0
ENDBLK
  5
429
100
AcDbEntity
  8
0
100
AcDbBlockEnd
  0
BLOCK
  5
42C
100
AcDbEntity
  8
0
100
AcDbBlockBegin
  2
*B13
 70
     0
 10
0.0
 20
0.0
 30
0.0
  3
*B13
  1

  0
LINE
  5
42D
100
AcDbEntity
  8
0
  6
Continuous
 62
     0
100
AcDbLine
 10
144.963095
 20
96.012843
 30
0.0
 11
168.96312
 21
96.012843
 31
0.0
  0
SOLID
  5
42E
100
AcDbEntity
  8
0
  6
Continuous
 62
     0
100
AcDbTrace
 10
148.463108
 20
96.612748
 30
0.0
 11
144.963095
 21
96.012843
 31
0.0
 12
148.463108
 22
95.412726
 32
0.0
 13
148.463108
 23
95.412726
 33
0.0
  0
SOLID
  5
42F
100
AcDbEntity
  8
0
  6
Continuous
 62
     0
100
AcDbTrace
 10
165.463107
 20
95.412726
 30
0.0
 11
168.96312
 21
96.012843
 31
0.0
 12
165.463107
 22
96.612748
 32
0.0
 13
165.463107
 23
96.612748
 33
0.0
  0
ENDBLK
  5
430
100
AcDbEntity
  8
0
100
AcDbBlockEnd
  0
BLOCK
  5
433
100
AcDbEntity
  8
0
100
AcDbBlockBegin
  2
*B14
 70
     0
 10
0.0
 20
0.0
 30
0.0
  3
*B14
  1

  0
LINE
  5
434
100
AcDbEntity
  8
0
  6
Continuous
 62
     0
100
AcDbLine
 10
168.96312
 20
96.012843
 30
0.0
 11
191.963019
 21
96.012843
 31
0.0
  0
SOLID
  5
435
100
AcDbEntity
  8
0
  6
Continuous
 62
     0
100
AcDbTrace
 10
172.463132
 20
96.612748
 30
0.0
 11
168.96312
 21
96.012843
 31
0.0
 12
172.463132
 22
95.412726
 32
0.0
 13
172.463132
 23
95.412726
 33
0.0
  0
SOLID
  5
436
100
AcDbEntity
  8
0
  6
Continuous
 62
     0
100
AcDbTrace
 10
188.463007
 20
95.412726
 30
0.0
 11
191.963019
 21
96.012843
 31
0.0
 12
188.463007
 22
96.612748
 32
0.0
 13
188.463007
 23
96.612748
 33
0.0
  0
ENDBLK
  5
437
100
AcDbEntity
  8
0
100
AcDbBlockEnd
  0
BLOCK
  5
43A
100
AcDbEntity
  8
0
100
AcDbBlockBegin
  2
*B15
 70
     0
 10
0.0
 20
0.0
 30
0.0
  3
*B15
  1

  0
LINE
  5
43B
100
AcDbEntity
  8
0
  6
Continuous
 62
     0
100
AcDbLine
 10
134.963121
 20
72.014093
 30
0.0
 11
121.963196
 21
72.014093
 31
0.0
  0
SOLID
  5
43C
100
AcDbEntity
  8
0
  6
Continuous
 62
     0
100
AcDbTrace
 10
131.463108
 20
71.414188
 30
0.0
 11
134.963121
 21
72.014093
 31
0.0
 12
131.463108
 22
72.613998
 32
0.0
 13
131.463108
 23
72.613998
 33
0.0
  0
SOLID
  5
43D
100
AcDbEntity
  8
0
  6
Continuous
 62
     0
100
AcDbTrace
 10
125.463208
 20
72.613998
 30
0.0
 11
121.963196
 21
72.014093
 31
0.0
 12
125.463208
 22
71.414188
 32
0.0
 13
125.463208
 23
71.414188
 33
0.0
  0
ENDBLK
  5
43E
100
AcDbEntity
  8
0
100
AcDbBlockEnd
  0
BLOCK
  5
441
100
AcDbEntity
  8
0
100
AcDbBlockBegin
  2
*B16
 70
     0
 10
0.0
 20
0.0
 30
0.0
  3
*B16
  1

  0
LINE
  5
442
100
AcDbEntity
  8
0
  6
Continuous
 62
     0
100
AcDbLine
 10
134.963121
 20
72.014093
 30
0.0
 11
156.963108
 21
72.014093
 31
0.0
  0
SOLID
  5
443
100
AcDbEntity
  8
0
  6
Continuous
 62
     0
100
AcDbTrace
 10
138.463133
 20
72.613998
 30
0.0
 11
134.963121
 21
72.014093
 31
0.0
 12
138.463133
 22
71.414188
 32
0.0
 13
138.463133
 23
71.414188
 33
0.0
  0
SOLID
  5
444
100
AcDbEntity
  8
0
  6
Continuous
 62
     0
100
AcDbTrace
 10
153.463095
 20
71.414188
 30
0.0
 11
156.963108
 21
72.014093
 31
0.0
 12
153.463095
 22
72.613998
 32
0.0
 13
153.463095
 23
72.613998
 33
0.0
  0
ENDBLK
  5
445
100
AcDbEntity
  8
0
100
AcDbBlockEnd
  0
BLOCK
  5
448
100
AcDbEntity
  8
0
100
AcDbBlockBegin
  2
*B17
 70
     0
 10
0.0
 20
0.0
 30
0.0
  3
*B17
  1

  0
LINE
  5
449
100
AcDbEntity
  8
0
  6
Continuous
 62
     0
100
AcDbLine
 10
156.963108
 20
72.014093
 30
0.0
 11
178.963094
 21
72.014093
 31
0.0
  0
SOLID
  5
44A
100
AcDbEntity
  8
0
  6
Continuous
 62
     0
100
AcDbTrace
 10
160.46312
 20
72.613998
 30
0.0
 11
156.963108
 21
72.014093
 31
0.0
 12
160.46312
 22
71.414188
 32
0.0
 13
160.46312
 23
71.414188
 33
0.0
  0
SOLID
  5
44B
100
AcDbEntity
  8
0
  6
Continuous
 62
     0
100
AcDbTrace
 10
175.463082
 20
71.414188
 30
0.0
 11
178.963094
 21
72.014093
 31
0.0
 12
175.463082
 22
72.613998
 32
0.0
 13
175.463082
 23
72.613998
 33
0.0
  0
ENDBLK
  5
44C
100
AcDbEntity
  8
0
100
AcDbBlockEnd
  0
BLOCK
  5
44F
100
AcDbEntity
  8
0
100
AcDbBlockBegin
  2
*B18
 70
     0
 10
0.0
 20
0.0
 30
0.0
  3
*B18
  1

  0
LINE
  5
450
100
AcDbEntity
  8
0
  6
Continuous
 62
     0
100
AcDbLine
 10
178.963094
 20
72.014093
 30
0.0
 11
191.963019
 21
72.014093
 31
0.0
  0
SOLID
  5
451
100
AcDbEntity
  8
0
  6
Continuous
 62
     0
100
AcDbTrace
 10
182.463107
 20
72.613998
 30
0.0
 11
178.963094
 21
72.014093
 31
0.0
 12
182.463107
 22
71.414188
 32
0.0
 13
182.463107
 23
71.414188
 33
0.0
  0
SOLID
  5
452
100
AcDbEntity
  8
0
  6
Continuous
 62
     0
100
AcDbTrace
 10
188.463007
 20
71.414188
 30
0.0
 11
191.963019
 21
72.014093
 31
0.0
 12
188.463007
 22
72.613998
 32
0.0
 13
188.463007
 23
72.613998
 33
0.0
  0
ENDBLK
  5
453
100
AcDbEntity
  8
0
100
AcDbBlockEnd
  0
BLOCK
  5
456
100
AcDbEntity
  8
0
100
AcDbBlockBegin
  2
*B19
 70
     0
 10
0.0
 20
0.0
 30
0.0
  3
*B19
  1

  0
LINE
  5
457
100
AcDbEntity
  8
0
  6
Continuous
 62
     0
100
AcDbLine
 10
203.018138
 20
45.580035
 30
0.0
 11
203.018138
 21
18.320683
 31
0.0
  0
SOLID
  5
458
100
AcDbEntity
  8
0
  6
Continuous
 62
     0
100
AcDbTrace
 10
202.418021
 20
42.080235
 30
0.0
 11
203.018138
 21
38.580435
 31
0.0
 12
203.618043
 22
42.080235
 32
0.0
 13
203.618043
 23
42.080235
 33
0.0
  0
SOLID
  5
459
100
AcDbEntity
  8
0
  6
Continuous
 62
     0
100
AcDbTrace
 10
203.618043
 20
27.781083
 30
0.0
 11
203.018138
 21
31.280883
 31
0.0
 12
202.418021
 22
27.781083
 32
0.0
 13
202.418021
 23
27.781083
 33
0.0
  0
ENDBLK
  5
45A
100
AcDbEntity
  8
0
100
AcDbBlockEnd
  0
BLOCK
  5
45D
100
AcDbEntity
  8
0
100
AcDbBlockBegin
  2
*B20
 70
     0
 10
0.0
 20
0.0
 30
0.0
  3
*B20
  1

  0
LINE
  5
45E
100
AcDbEntity
  8
0
  6
Continuous
 62
     0
100
AcDbLine
 10
46.018068
 20
60.57936
 30
0.0
 11
46.018068
 21
38.580435
 31
0.0
  0
SOLID
  5
45F
100
AcDbEntity
  8
0
  6
Continuous
 62
     0
100
AcDbTrace
 10
46.618185
 20
57.079348
 30
0.0
 11
46.018068
 21
60.57936
 31
0.0
 12
45.418163
 22
57.079348
 32
0.0
 13
45.418163
 23
57.079348
 33
0.0
  0
SOLID
  5
460
100
AcDbEntity
  8
0
  6
Continuous
 62
     0
100
AcDbTrace
 10
45.418163
 20
42.080235
 30
0.0
 11
46.018068
 21
38.580435
 31
0.0
 12
46.618185
 22
42.080235
 32
0.0
 13
46.618185
 23
42.080235
 33
0.0
  0
ENDBLK
  5
461
100
AcDbEntity
  8
0
100
AcDbBlockEnd
  0
BLOCK
  5
464
100
AcDbEntity
  8
0
100
AcDbBlockBegin
  2
*B21
 70
     0
 10
0.0
 20
0.0
 30
0.0
  3
*B21
  1

  0
LINE
  5
465
100
AcDbEntity
  8
0
  6
Continuous
 62
     0
100
AcDbLine
 10
121.963196
 20
96.012843
 30
0.0
 11
144.963095
 21
96.012843
 31
0.0
  0
SOLID
  5
466
100
AcDbEntity
  8
0
  6
Continuous
 62
     0
100
AcDbTrace
 10
125.463208
 20
96.612748
 30
0.0
 11
121.963196
 21
96.012843
 31
0.0
 12
125.463208
 22
95.412726
 32
0.0
 13
125.463208
 23
95.412726
 33
0.0
  0
SOLID
  5
467
100
AcDbEntity
  8
0
  6
Continuous
 62
     0
100
AcDbTrace
 10
141.463083
 20
95.412726
 30
0.0
 11
144.963095
 21
96.012843
 31
0.0
 12
141.463083
 22
96.612748
 32
0.0
 13
141.463083
 23
96.612748
 33
0.0
  0
ENDBLK
  5
468
100
AcDbEntity
  8
0
100
AcDbBlockEnd
  0
BLOCK
  5
46B
100
AcDbEntity
  8
0
100
AcDbBlockBegin
  2
*B22
 70
     0
 10
0.0
 20
0.0
 30
0.0
  3
*B22
  1

  0
LINE
  5
46C
100
AcDbEntity
  8
0
  6
Continuous
 62
     0
100
AcDbLine
 10
105.963109
 20
84.013468
 30
0.0
 11
207.963106
 21
84.013468
 31
0.0
  0
SOLID
  5
46D
100
AcDbEntity
  8
0
  6
Continuous
 62
     0
100
AcDbTrace
 10
109.463121
 20
84.613373
 30
0.0
 11
105.963109
 21
84.013468
 31
0.0
 12
109.463121
 22
83.413563
 32
0.0
 13
109.463121
 23
83.413563
 33
0.0
  0
SOLID
  5
46E
100
AcDbEntity
  8
0
  6
Continuous
 62
     0
100
AcDbTrace
 10
204.463094
 20
83.413563
 30
0.0
 11
207.963106
 21
84.013468
 31
0.0
 12
204.463094
 22
84.613373
 32
0.0
 13
204.463094
 23
84.613373
 33
0.0
  0
ENDBLK
  5
46F
100
AcDbEntity
  8
0
100
AcDbBlockEnd
  0
BLOCK
  5
472
100
AcDbEntity
  8
0
100
AcDbBlockBegin
  2
*B23
 70
     0
 10
0.0
 20
0.0
 30
0.0
  3
*B23
  1

  0
LINE
  5
473
100
AcDbEntity
  8
0
  6
Continuous
 62
     0
100
AcDbLine
 10
49.01823
 20
174.976828
 30
0.0
 11
49.01823
 21
107.981203
 31
0.0
  0
SOLID
  5
474
100
AcDbEntity
  8
0
  6
Continuous
 62
     0
100
AcDbTrace
 10
49.618135
 20
171.477028
 30
0.0
 11
49.01823
 21
174.976828
 31
0.0
 12
48.418113
 22
171.477028
 32
0.0
 13
48.418113
 23
171.477028
 33
0.0
  0
SOLID
  5
475
100
AcDbEntity
  8
0
  6
Continuous
 62
     0
100
AcDbTrace
 10
48.418113
 20
111.481003
 30
0.0
 11
49.01823
 21
107.981203
 31
0.0
 12
49.618135
 22
111.481003
 32
0.0
 13
49.618135
 23
111.481003
 33
0.0
  0
ENDBLK
  5
476
100
AcDbEntity
  8
0
100
AcDbBlockEnd
  0
BLOCK
  5
479
100
AcDbEntity
  8
0
100
AcDbBlockBegin
  2
*B24
 70
     0
 10
0.0
 20
0.0
 30
0.0
  3
*B24
  1

  0
LINE
  5
47A
100
AcDbEntity
  8
0
  6
Continuous
 62
     0
100
AcDbLine
 10
107.678914
 20
20.017156
 30
0.0
 11
147.838136
 21
20.017156
 31
0.0
  0
SOLID
  5
47B
100
AcDbEntity
  8
0
  6
Continuous
 62
     0
100
AcDbTrace
 10
125.588118
 20
19.417039
 30
0.0
 11
129.08813
 21
20.017156
 31
0.0
 12
125.588118
 22
20.617061
 32
0.0
 13
125.588118
 23
20.617061
 33
0.0
  0
SOLID
  5
47C
100
AcDbEntity
  8
0
  6
Continuous
 62
     0
100
AcDbTrace
 10
144.338124
 20
20.617061
 30
0.0
 11
140.838111
 21
20.017156
 31
0.0
 12
144.338124
 22
19.417039
 32
0.0
 13
144.338124
 23
19.417039
 33
0.0
  0
ENDBLK
  5
47D
100
AcDbEntity
  8
0
100
AcDbBlockEnd
  0
BLOCK
  5
480
100
AcDbEntity
  8
0
100
AcDbBlockBegin
  2
*B25
 70
     0
 10
0.0
 20
0.0
 30
0.0
  3
*B25
  1

  0
LINE
  5
481
100
AcDbEntity
  8
0
  6
Continuous
 62
     0
100
AcDbLine
 10
105.463047
 20
184.007905
 30
0.0
 11
56.963148
 21
184.007905
 31
0.0
  0
SOLID
  5
482
100
AcDbEntity
  8
0
  6
Continuous
 62
     0
100
AcDbTrace
 10
101.963034
 20
183.407787
 30
0.0
 11
105.463047
 21
184.007905
 31
0.0
 12
101.963034
 22
184.60781
 32
0.0
 13
101.963034
 23
184.60781
 33
0.0
  0
SOLID
  5
483
100
AcDbEntity
  8
0
  6
Continuous
 62
     0
100
AcDbTrace
 10
60.46316
 20
184.60781
 30
0.0
 11
56.963148
 21
184.007905
 31
0.0
 12
60.46316
 22
183.407787
 32
0.0
 13
60.46316
 23
183.407787
 33
0.0
  0
ENDBLK
  5
484
100
AcDbEntity
  8
0
100
AcDbBlockEnd
  0
BLOCK
  5
487
100
AcDbEntity
  8
0
100
AcDbBlockBegin
  2
*B26
 70
     0
 10
0.0
 20
0.0
 30
0.0
  3
*B26
  1

  0
LINE
  5
488
100
AcDbEntity
  8
0
  6
Continuous
 62
     0
100
AcDbLine
 10
256.963067
 20
184.007905
 30
0.0
 11
208.463169
 21
184.007905
 31
0.0
  0
SOLID
  5
489
100
AcDbEntity
  8
0
  6
Continuous
 62
     0
100
AcDbTrace
 10
253.463055
 20
183.407787
 30
0.0
 11
256.963067
 21
184.007905
 31
0.0
 12
253.463055
 22
184.60781
 32
0.0
 13
253.463055
 23
184.60781
 33
0.0
  0
SOLID
  5
48A
100
AcDbEntity
  8
0
  6
Continuous
 62
     0
100
AcDbTrace
 10
211.963181
 20
184.60781
 30
0.0
 11
208.463169
 21
184.007905
 31
0.0
 12
211.963181
 22
183.407787
 32
0.0
 13
211.963181
 23
183.407787
 33
0.0
  0
ENDBLK
  5
48B
100
AcDbEntity
  8
0
100
AcDbBlockEnd
  0
BLOCK
  5
48E
100
AcDbEntity
  8
0
100
AcDbBlockBegin
  2
*B27
 70
     0
 10
0.0
 20
0.0
 30
0.0
  3
*B27
  1

  0
LINE
  5
48F
100
AcDbEntity
  8
0
  6
Continuous
 62
     0
100
AcDbLine
 10
159.462995
 20
20.017156
 30
0.0
 11
183.286064
 21
20.017156
 31
0.0
  0
SOLID
  5
490
100
AcDbEntity
  8
0
  6
Continuous
 62
     0
100
AcDbTrace
 10
162.963007
 20
19.417039
 30
0.0
 11
166.46302
 21
20.017156
 31
0.0
 12
162.963007
 22
20.617061
 32
0.0
 13
162.963007
 23
20.617061
 33
0.0
  0
SOLID
  5
491
100
AcDbEntity
  8
0
  6
Continuous
 62
     0
100
AcDbTrace
 10
174.96302
 20
20.617061
 30
0.0
 11
171.463007
 21
20.017156
 31
0.0
 12
174.96302
 22
19.417039
 32
0.0
 13
174.96302
 23
19.417039
 33
0.0
  0
ENDBLK
  5
492
100
AcDbEntity
  8
0
100
AcDbBlockEnd
  0
BLOCK
  5
495
100
AcDbEntity
  8
0
100
AcDbBlockBegin
  2
*B28
 70
     0
 10
0.0
 20
0.0
 30
0.0
  3
*B28
  1

  0
LINE
  5
496
100
AcDbEntity
  8
0
  6
Continuous
 62
     8
100
AcDbLine
 10
47.018193
 20
107.981203
 30
0.0
 11
120.963071
 21
107.981203
 31
0.0
  0
LINE
  5
497
100
AcDbEntity
  8
0
  6
Continuous
 62
     8
100
AcDbLine
 10
192.963144
 20
107.981203
 30
0.0
 11
259.018124
 21
107.981203
 31
0.0
  0
ENDBLK
  5
498
100
AcDbEntity
  8
0
100
AcDbBlockEnd
  0
BLOCK
  5
49B
100
AcDbEntity
  8
0
100
AcDbBlockBegin
  2
*B29
 70
     0
 10
0.0
 20
0.0
 30
0.0
  3
*B29
  1

  0
LINE
  5
49C
100
AcDbEntity
  8
0
  6
Continuous
 62
     8
100
AcDbLine
 10
256.963067
 20
174.776505
 30
0.0
 11
256.963067
 21
186.00773
 31
0.0
  0
ENDBLK
  5
49D
100
AcDbEntity
  8
0
100
AcDbBlockEnd
  0
BLOCK
  5
4A0
100
AcDbEntity
  8
0
100
AcDbBlockBegin
  2
*B30
 70
     0
 10
0.0
 20
0.0
 30
0.0
  3
*B30
  1

  0
LINE
  5
4A1
100
AcDbEntity
  8
0
  6
Continuous
 62
     8
100
AcDbLine
 10
105.463047
 20
171.977515
 30
0.0
 11
105.463047
 21
186.00773
 31
0.0
  0
ENDBLK
  5
4A2
100
AcDbEntity
  8
0
100
AcDbBlockEnd
  0
BLOCK
  5
4A5
100
AcDbEntity
  8
0
100
AcDbBlockBegin
  2
*B31
 70
     0
 10
0.0
 20
0.0
 30
0.0
  3
*B31
  1

  0
LINE
  5
4A6
100
AcDbEntity
  8
0
  6
Continuous
 62
     8
100
AcDbLine
 10
65.263038
 20
127.979878
 30
0.0
 11
70.383049
 21
127.979878
 31
0.0
  0
LINE
  5
4A7
100
AcDbEntity
  8
0
  6
Continuous
 62
     8
100
AcDbLine
 10
71.383173
 20
127.979878
 30
0.0
 11
72.383086
 21
127.979878
 31
0.0
  0
LINE
  5
4A8
100
AcDbEntity
  8
0
  6
Continuous
 62
     8
100
AcDbLine
 10
73.383211
 20
127.979878
 30
0.0
 11
78.503222
 21
127.979878
 31
0.0
  0
LINE
  5
4A9
100
AcDbEntity
  8
0
  6
Continuous
 62
     8
100
AcDbLine
 10
79.503134
 20
127.979878
 30
0.0
 11
80.503047
 21
127.979878
 31
0.0
  0
LINE
  5
4AA
100
AcDbEntity
  8
0
  6
Continuous
 62
     8
100
AcDbLine
 10
81.503172
 20
127.979878
 30
0.0
 11
86.623183
 21
127.979878
 31
0.0
  0
LINE
  5
4AB
100
AcDbEntity
  8
0
  6
Continuous
 62
     8
100
AcDbLine
 10
87.623095
 20
127.979878
 30
0.0
 11
88.62322
 21
127.979878
 31
0.0
  0
LINE
  5
4AC
100
AcDbEntity
  8
0
  6
Continuous
 62
     8
100
AcDbLine
 10
89.623132
 20
127.979878
 30
0.0
 11
94.743143
 21
127.979878
 31
0.0
  0
LINE
  5
4AD
100
AcDbEntity
  8
0
  6
Continuous
 62
     8
100
AcDbLine
 10
95.743056
 20
127.979878
 30
0.0
 11
96.743181
 21
127.979878
 31
0.0
  0
LINE
  5
4AE
100
AcDbEntity
  8
0
  6
Continuous
 62
     8
100
AcDbLine
 10
97.743093
 20
127.979878
 30
0.0
 11
102.863104
 21
127.979878
 31
0.0
  0
LINE
  5
4AF
100
AcDbEntity
  8
0
  6
Continuous
 62
     8
100
AcDbLine
 10
103.863017
 20
127.979878
 30
0.0
 11
104.863142
 21
127.979878
 31
0.0
  0
LINE
  5
4B0
100
AcDbEntity
  8
0
  6
Continuous
 62
     8
100
AcDbLine
 10
105.863054
 20
127.979878
 30
0.0
 11
110.983065
 21
127.979878
 31
0.0
  0
LINE
  5
4B1
100
AcDbEntity
  8
0
  6
Continuous
 62
     8
100
AcDbLine
 10
111.98319
 20
127.979878
 30
0.0
 11
112.983102
 21
127.979878
 31
0.0
  0
LINE
  5
4B2
100
AcDbEntity
  8
0
  6
Continuous
 62
     8
100
AcDbLine
 10
113.983015
 20
127.979878
 30
0.0
 11
119.103026
 21
127.979878
 31
0.0
  0
LINE
  5
4B3
100
AcDbEntity
  8
0
  6
Continuous
 62
     8
100
AcDbLine
 10
120.103151
 20
127.979878
 30
0.0
 11
121.103063
 21
127.979878
 31
0.0
  0
LINE
  5
4B4
100
AcDbEntity
  8
0
  6
Continuous
 62
     8
100
AcDbLine
 10
122.103188
 20
127.979878
 30
0.0
 11
127.223199
 21
127.979878
 31
0.0
  0
LINE
  5
4B5
100
AcDbEntity
  8
0
  6
Continuous
 62
     8
100
AcDbLine
 10
128.223111
 20
127.979878
 30
0.0
 11
129.223024
 21
127.979878
 31
0.0
  0
LINE
  5
4B6
100
AcDbEntity
  8
0
  6
Continuous
 62
     8
100
AcDbLine
 10
130.223149
 20
127.979878
 30
0.0
 11
135.34316
 21
127.979878
 31
0.0
  0
LINE
  5
4B7
100
AcDbEntity
  8
0
  6
Continuous
 62
     8
100
AcDbLine
 10
136.343072
 20
127.979878
 30
0.0
 11
137.343197
 21
127.979878
 31
0.0
  0
LINE
  5
4B8
100
AcDbEntity
  8
0
  6
Continuous
 62
     8
100
AcDbLine
 10
138.34311
 20
127.979878
 30
0.0
 11
143.46312
 21
127.979878
 31
0.0
  0
LINE
  5
4B9
100
AcDbEntity
  8
0
  6
Continuous
 62
     8
100
AcDbLine
 10
146.46307
 20
127.979878
 30
0.0
 11
151.463058
 21
127.979878
 31
0.0
  0
LINE
  5
4BA
100
AcDbEntity
  8
0
  6
Continuous
 62
     8
100
AcDbLine
 10
152.463183
 20
127.979878
 30
0.0
 11
153.463095
 21
127.979878
 31
0.0
  0
LINE
  5
4BB
100
AcDbEntity
  8
0
  6
Continuous
 62
     8
100
AcDbLine
 10
154.463008
 20
127.979878
 30
0.0
 11
159.462995
 21
127.979878
 31
0.0
  0
LINE
  5
4BC
100
AcDbEntity
  8
0
  6
Continuous
 62
     8
100
AcDbLine
 10
160.46312
 20
127.979878
 30
0.0
 11
161.463032
 21
127.979878
 31
0.0
  0
LINE
  5
4BD
100
AcDbEntity
  8
0
  6
Continuous
 62
     8
100
AcDbLine
 10
162.463157
 20
127.979878
 30
0.0
 11
167.463145
 21
127.979878
 31
0.0
  0
LINE
  5
4BE
100
AcDbEntity
  8
0
  6
Continuous
 62
     8
100
AcDbLine
 10
170.463095
 20
127.979878
 30
0.0
 11
175.583106
 21
127.979878
 31
0.0
  0
LINE
  5
4BF
100
AcDbEntity
  8
0
  6
Continuous
 62
     8
100
AcDbLine
 10
176.583018
 20
127.979878
 30
0.0
 11
177.583143
 21
127.979878
 31
0.0
  0
LINE
  5
4C0
100
AcDbEntity
  8
0
  6
Continuous
 62
     8
100
AcDbLine
 10
178.583055
 20
127.979878
 30
0.0
 11
183.703066
 21
127.979878
 31
0.0
  0
LINE
  5
4C1
100
AcDbEntity
  8
0
  6
Continuous
 62
     8
100
AcDbLine
 10
184.702979
 20
127.979878
 30
0.0
 11
185.703104
 21
127.979878
 31
0.0
  0
LINE
  5
4C2
100
AcDbEntity
  8
0
  6
Continuous
 62
     8
100
AcDbLine
 10
186.703016
 20
127.979878
 30
0.0
 11
191.823027
 21
127.979878
 31
0.0
  0
LINE
  5
4C3
100
AcDbEntity
  8
0
  6
Continuous
 62
     8
100
AcDbLine
 10
192.823152
 20
127.979878
 30
0.0
 11
193.823065
 21
127.979878
 31
0.0
  0
LINE
  5
4C4
100
AcDbEntity
  8
0
  6
Continuous
 62
     8
100
AcDbLine
 10
194.823189
 20
127.979878
 30
0.0
 11
199.942988
 21
127.979878
 31
0.0
  0
LINE
  5
4C5
100
AcDbEntity
  8
0
  6
Continuous
 62
     8
100
AcDbLine
 10
200.943113
 20
127.979878
 30
0.0
 11
201.943025
 21
127.979878
 31
0.0
  0
LINE
  5
4C6
100
AcDbEntity
  8
0
  6
Continuous
 62
     8
100
AcDbLine
 10
202.94315
 20
127.979878
 30
0.0
 11
208.063161
 21
127.979878
 31
0.0
  0
LINE
  5
4C7
100
AcDbEntity
  8
0
  6
Continuous
 62
     8
100
AcDbLine
 10
209.063074
 20
127.979878
 30
0.0
 11
210.062986
 21
127.979878
 31
0.0
  0
LINE
  5
4C8
100
AcDbEntity
  8
0
  6
Continuous
 62
     8
100
AcDbLine
 10
211.063111
 20
127.979878
 30
0.0
 11
216.183122
 21
127.979878
 31
0.0
  0
LINE
  5
4C9
100
AcDbEntity
  8
0
  6
Continuous
 62
     8
100
AcDbLine
 10
217.183034
 20
127.979878
 30
0.0
 11
218.183159
 21
127.979878
 31
0.0
  0
LINE
  5
4CA
100
AcDbEntity
  8
0
  6
Continuous
 62
     8
100
AcDbLine
 10
219.183072
 20
127.979878
 30
0.0
 11
224.303083
 21
127.979878
 31
0.0
  0
LINE
  5
4CB
100
AcDbEntity
  8
0
  6
Continuous
 62
     8
100
AcDbLine
 10
225.302995
 20
127.979878
 30
0.0
 11
226.30312
 21
127.979878
 31
0.0
  0
LINE
  5
4CC
100
AcDbEntity
  8
0
  6
Continuous
 62
     8
100
AcDbLine
 10
227.303033
 20
127.979878
 30
0.0
 11
232.423043
 21
127.979878
 31
0.0
  0
LINE
  5
4CD
100
AcDbEntity
  8
0
  6
Continuous
 62
     8
100
AcDbLine
 10
233.422956
 20
127.979878
 30
0.0
 11
234.423081
 21
127.979878
 31
0.0
  0
LINE
  5
4CE
100
AcDbEntity
  8
0
  6
Continuous
 62
     8
100
AcDbLine
 10
235.422993
 20
127.979878
 30
0.0
 11
240.543004
 21
127.979878
 31
0.0
  0
LINE
  5
4CF
100
AcDbEntity
  8
0
  6
Continuous
 62
     8
100
AcDbLine
 10
241.543129
 20
127.979878
 30
0.0
 11
242.543042
 21
127.979878
 31
0.0
  0
LINE
  5
4D0
100
AcDbEntity
  8
0
  6
Continuous
 62
     8
100
AcDbLine
 10
243.542954
 20
127.979878
 30
0.0
 11
248.662965
 21
127.979878
 31
0.0
  0
ENDBLK
  5
4D1
100
AcDbEntity
  8
0
100
AcDbBlockEnd
  0
BLOCK
  5
4D4
100
AcDbEntity
  8
0
100
AcDbBlockBegin
  2
*B32
 70
     0
 10
0.0
 20
0.0
 30
0.0
  3
*B32
  1

  0
LINE
  5
4D5
100
AcDbEntity
  8
0
  6
Continuous
 62
     8
100
AcDbLine
 10
192.963144
 20
147.978765
 30
0.0
 11
259.018124
 21
147.978765
 31
0.0
  0
ENDBLK
  5
4D6
100
AcDbEntity
  8
0
100
AcDbBlockEnd
  0
BLOCK
  5
4D9
100
AcDbEntity
  8
0
100
AcDbBlockBegin
  2
*B33
 70
     0
 10
0.0
 20
0.0
 30
0.0
  3
*B33
  1

  0
LINE
  5
4DA
100
AcDbEntity
  8
0
  6
Continuous
 62
     8
100
AcDbLine
 10
134.963121
 20
133.979565
 30
0.0
 11
134.963121
 21
140.979165
 31
0.0
  0
LINE
  5
4DB
100
AcDbEntity
  8
0
  6
Continuous
 62
     8
100
AcDbLine
 10
134.963121
 20
141.97929
 30
0.0
 11
134.963121
 21
142.979203
 31
0.0
  0
LINE
  5
4DC
100
AcDbEntity
  8
0
  6
Continuous
 62
     8
100
AcDbLine
 10
134.963121
 20
143.979115
 30
0.0
 11
134.963121
 21
150.978715
 31
0.0
  0
ENDBLK
  5
4DD
100
AcDbEntity
  8
0
100
AcDbBlockEnd
  0
BLOCK
  5
4E0
100
AcDbEntity
  8
0
100
AcDbBlockBegin
  2
*B34
 70
     0
 10
0.0
 20
0.0
 30
0.0
  3
*B34
  1

  0
LINE
  5
4E1
100
AcDbEntity
  8
0
  6
Continuous
 62
     8
100
AcDbLine
 10
134.963121
 20
70.014268
 30
0.0
 11
134.963121
 21
74.013918
 31
0.0
  0
LINE
  5
4E2
100
AcDbEntity
  8
0
  6
Continuous
 62
     8
100
AcDbLine
 10
134.963121
 20
40.705382
 30
0.0
 11
134.963121
 21
48.079923
 31
0.0
  0
LINE
  5
4E3
100
AcDbEntity
  8
0
  6
Continuous
 62
     8
100
AcDbLine
 10
134.963121
 20
51.079873
 30
0.0
 11
134.963121
 21
59.047096
 31
0.0
  0
LINE
  5
4E4
100
AcDbEntity
  8
0
  6
Continuous
 62
     8
100
AcDbLine
 10
134.963121
 20
60.047008
 30
0.0
 11
134.963121
 21
61.046921
 31
0.0
  0
LINE
  5
4E5
100
AcDbEntity
  8
0
  6
Continuous
 62
     8
100
AcDbLine
 10
134.963121
 20
62.046833
 30
0.0
 11
134.963121
 21
70.014268
 31
0.0
  0
ENDBLK
  5
4E6
100
AcDbEntity
  8
0
100
AcDbBlockEnd
  0
BLOCK
  5
4E9
100
AcDbEntity
  8
0
100
AcDbBlockBegin
  2
*B35
 70
     0
 10
0.0
 20
0.0
 30
0.0
  3
*B35
  1

  0
LINE
  5
4EA
100
AcDbEntity
  8
0
  6
Continuous
 62
     8
100
AcDbLine
 10
144.963095
 20
28.281145
 30
0.0
 11
144.963095
 21
34.780683
 31
0.0
  0
LINE
  5
4EB
100
AcDbEntity
  8
0
  6
Continuous
 62
     8
100
AcDbLine
 10
144.963095
 20
35.780595
 30
0.0
 11
144.963095
 21
36.780508
 31
0.0
  0
LINE
  5
4EC
100
AcDbEntity
  8
0
  6
Continuous
 62
     8
100
AcDbLine
 10
144.963095
 20
37.780633
 30
0.0
 11
144.963095
 21
44.28017
 31
0.0
  0
LINE
  5
4ED
100
AcDbEntity
  8
0
  6
Continuous
 62
     8
100
AcDbLine
 10
144.963095
 20
45.280083
 30
0.0
 11
144.963095
 21
46.279995
 31
0.0
  0
LINE
  5
4EE
100
AcDbEntity
  8
0
  6
Continuous
 62
     8
100
AcDbLine
 10
144.963095
 20
47.279908
 30
0.0
 11
144.963095
 21
53.779658
 31
0.0
  0
LINE
  5
4EF
100
AcDbEntity
  8
0
  6
Continuous
 62
     8
100
AcDbLine
 10
144.963095
 20
54.77957
 30
0.0
 11
144.963095
 21
55.779483
 31
0.0
  0
LINE
  5
4F0
100
AcDbEntity
  8
0
  6
Continuous
 62
     8
100
AcDbLine
 10
144.963095
 20
56.779395
 30
0.0
 11
144.963095
 21
63.279145
 31
0.0
  0
ENDBLK
  5
4F1
100
AcDbEntity
  8
0
100
AcDbBlockEnd
  0
BLOCK
  5
4F4
100
AcDbEntity
  8
0
100
AcDbBlockBegin
  2
*B36
 70
     0
 10
0.0
 20
0.0
 30
0.0
  3
*B36
  1

  0
LINE
  5
4F5
100
AcDbEntity
  8
0
  6
Continuous
 62
     8
100
AcDbLine
 10
144.963095
 20
94.012806
 30
0.0
 11
144.963095
 21
98.012668
 31
0.0
  0
LINE
  5
4F6
100
AcDbEntity
  8
0
  6
Continuous
 62
     8
100
AcDbLine
 10
144.963095
 20
98.012668
 30
0.0
 11
144.963095
 21
102.746904
 31
0.0
  0
LINE
  5
4F7
100
AcDbEntity
  8
0
  6
Continuous
 62
     8
100
AcDbLine
 10
144.963095
 20
103.746817
 30
0.0
 11
144.963095
 21
104.746729
 31
0.0
  0
LINE
  5
4F8
100
AcDbEntity
  8
0
  6
Continuous
 62
     8
100
AcDbLine
 10
144.963095
 20
105.746642
 30
0.0
 11
144.963095
 21
110.480878
 31
0.0
  0
LINE
  5
4F9
100
AcDbEntity
  8
0
  6
Continuous
 62
     8
100
AcDbLine
 10
144.963095
 20
113.480828
 30
0.0
 11
144.963095
 21
118.480603
 31
0.0
  0
LINE
  5
4FA
100
AcDbEntity
  8
0
  6
Continuous
 62
     8
100
AcDbLine
 10
144.963095
 20
119.480515
 30
0.0
 11
144.963095
 21
120.480428
 31
0.0
  0
LINE
  5
4FB
100
AcDbEntity
  8
0
  6
Continuous
 62
     8
100
AcDbLine
 10
144.963095
 20
121.48034
 30
0.0
 11
144.963095
 21
126.480115
 31
0.0
  0
LINE
  5
4FC
100
AcDbEntity
  8
0
  6
Continuous
 62
     8
100
AcDbLine
 10
144.963095
 20
129.479853
 30
0.0
 11
144.963095
 21
140.979165
 31
0.0
  0
ENDBLK
  5
4FD
100
AcDbEntity
  8
0
100
AcDbBlockEnd
  0
BLOCK
  5
500
100
AcDbEntity
  8
0
100
AcDbBlockBegin
  2
*B37
 70
     0
 10
0.0
 20
0.0
 30
0.0
  3
*B37
  1

  0
LINE
  5
501
100
AcDbEntity
  8
0
  6
Continuous
 62
     8
100
AcDbLine
 10
231.463068
 20
165.977828
 30
0.0
 11
236.338146
 21
165.977828
 31
0.0
  0
LINE
  5
502
100
AcDbEntity
  8
0
  6
Continuous
 62
     8
100
AcDbLine
 10
237.338058
 20
165.977828
 30
0.0
 11
238.338183
 21
165.977828
 31
0.0
  0
LINE
  5
503
100
AcDbEntity
  8
0
  6
Continuous
 62
     8
100
AcDbLine
 10
239.338096
 20
165.977828
 30
0.0
 11
244.212961
 21
165.977828
 31
0.0
  0
LINE
  5
504
100
AcDbEntity
  8
0
  6
Continuous
 62
     8
100
AcDbLine
 10
245.213086
 20
165.977828
 30
0.0
 11
246.212999
 21
165.977828
 31
0.0
  0
LINE
  5
505
100
AcDbEntity
  8
0
  6
Continuous
 62
     8
100
AcDbLine
 10
247.213124
 20
165.977828
 30
0.0
 11
252.087989
 21
165.977828
 31
0.0
  0
LINE
  5
506
100
AcDbEntity
  8
0
  6
Continuous
 62
     8
100
AcDbLine
 10
253.088114
 20
165.977828
 30
0.0
 11
254.088027
 21
165.977828
 31
0.0
  0
LINE
  5
507
100
AcDbEntity
  8
0
  6
Continuous
 62
     8
100
AcDbLine
 10
255.088152
 20
165.977828
 30
0.0
 11
259.963017
 21
165.977828
 31
0.0
  0
ENDBLK
  5
508
100
AcDbEntity
  8
0
100
AcDbBlockEnd
  0
BLOCK
  5
50B
100
AcDbEntity
  8
0
100
AcDbBlockBegin
  2
*B38
 70
     0
 10
0.0
 20
0.0
 30
0.0
  3
*B38
  1

  0
LINE
  5
50C
100
AcDbEntity
  8
0
  6
Continuous
 62
     8
100
AcDbLine
 10
53.963198
 20
165.977828
 30
0.0
 11
58.838063
 21
165.977828
 31
0.0
  0
LINE
  5
50D
100
AcDbEntity
  8
0
  6
Continuous
 62
     8
100
AcDbLine
 10
59.838188
 20
165.977828
 30
0.0
 11
60.838101
 21
165.977828
 31
0.0
  0
LINE
  5
50E
100
AcDbEntity
  8
0
  6
Continuous
 62
     8
100
AcDbLine
 10
61.838226
 20
165.977828
 30
0.0
 11
66.713091
 21
165.977828
 31
0.0
  0
LINE
  5
50F
100
AcDbEntity
  8
0
  6
Continuous
 62
     8
100
AcDbLine
 10
67.713216
 20
165.977828
 30
0.0
 11
68.713129
 21
165.977828
 31
0.0
  0
LINE
  5
510
100
AcDbEntity
  8
0
  6
Continuous
 62
     8
100
AcDbLine
 10
69.713041
 20
165.977828
 30
0.0
 11
74.588119
 21
165.977828
 31
0.0
  0
LINE
  5
511
100
AcDbEntity
  8
0
  6
Continuous
 62
     8
100
AcDbLine
 10
75.588032
 20
165.977828
 30
0.0
 11
76.588157
 21
165.977828
 31
0.0
  0
LINE
  5
512
100
AcDbEntity
  8
0
  6
Continuous
 62
     8
100
AcDbLine
 10
77.588069
 20
165.977828
 30
0.0
 11
82.463147
 21
165.977828
 31
0.0
  0
ENDBLK
  5
513
100
AcDbEntity
  8
0
100
AcDbBlockEnd
  0
BLOCK
  5
516
100
AcDbEntity
  8
0
100
AcDbBlockBegin
  2
*B39
 70
     0
 10
0.0
 20
0.0
 30
0.0
  3
*B39
  1

  0
LINE
  5
517
100
AcDbEntity
  8
0
  6
Continuous
 62
     8
100
AcDbLine
 10
140.838111
 20
18.017119
 30
0.0
 11
140.838111
 21
48.579985
 31
0.0
  0
ENDBLK
  5
518
100
AcDbEntity
  8
0
100
AcDbBlockEnd
  0
BLOCK
  5
51B
100
AcDbEntity
  8
0
100
AcDbBlockBegin
  2
*B40
 70
     0
 10
0.0
 20
0.0
 30
0.0
  3
*B40
  1

  0
LINE
  5
51C
100
AcDbEntity
  8
0
  6
Continuous
 62
     8
100
AcDbLine
 10
191.963019
 20
94.012806
 30
0.0
 11
191.963019
 21
106.981078
 31
0.0
  0
ENDBLK
  5
51D
100
AcDbEntity
  8
0
100
AcDbBlockEnd
  0
BLOCK
  5
520
100
AcDbEntity
  8
0
100
AcDbBlockBegin
  2
*B41
 70
     0
 10
0.0
 20
0.0
 30
0.0
  3
*B41
  1

  0
LINE
  5
521
100
AcDbEntity
  8
0
  6
Continuous
 62
     8
100
AcDbLine
 10
208.463169
 20
171.977515
 30
0.0
 11
208.463169
 21
186.00773
 31
0.0
  0
ENDBLK
  5
522
100
AcDbEntity
  8
0
100
AcDbBlockEnd
  0
BLOCK
  5
525
100
AcDbEntity
  8
0
100
AcDbBlockBegin
  2
*B42
 70
     0
 10
0.0
 20
0.0
 30
0.0
  3
*B42
  1

  0
LINE
  5
526
100
AcDbEntity
  8
0
  6
Continuous
 62
     8
100
AcDbLine
 10
207.963106
 20
82.013643
 30
0.0
 11
207.963106
 21
108.981116
 31
0.0
  0
ENDBLK
  5
527
100
AcDbEntity
  8
0
100
AcDbBlockEnd
  0
BLOCK
  5
52A
100
AcDbEntity
  8
0
100
AcDbBlockBegin
  2
*B43
 70
     0
 10
0.0
 20
0.0
 30
0.0
  3
*B43
  1

  0
LINE
  5
52B
100
AcDbEntity
  8
0
  6
Continuous
 62
     8
100
AcDbLine
 10
156.963108
 20
70.014268
 30
0.0
 11
156.963108
 21
74.013918
 31
0.0
  0
LINE
  5
52C
100
AcDbEntity
  8
0
  6
Continuous
 62
     8
100
AcDbLine
 10
156.963108
 20
40.705382
 30
0.0
 11
156.963108
 21
48.079923
 31
0.0
  0
LINE
  5
52D
100
AcDbEntity
  8
0
  6
Continuous
 62
     8
100
AcDbLine
 10
156.963108
 20
51.079873
 30
0.0
 11
156.963108
 21
59.047096
 31
0.0
  0
LINE
  5
52E
100
AcDbEntity
  8
0
  6
Continuous
 62
     8
100
AcDbLine
 10
156.963108
 20
60.047008
 30
0.0
 11
156.963108
 21
61.046921
 31
0.0
  0
LINE
  5
52F
100
AcDbEntity
  8
0
  6
Continuous
 62
     8
100
AcDbLine
 10
156.963108
 20
62.046833
 30
0.0
 11
156.963108
 21
70.014268
 31
0.0
  0
ENDBLK
  5
530
100
AcDbEntity
  8
0
100
AcDbBlockEnd
  0
BLOCK
  5
533
100
AcDbEntity
  8
0
100
AcDbBlockBegin
  2
*B44
 70
     0
 10
0.0
 20
0.0
 30
0.0
  3
*B44
  1

  0
LINE
  5
534
100
AcDbEntity
  8
0
  6
Continuous
 62
     8
100
AcDbLine
 10
90.963147
 20
43.180203
 30
0.0
 11
90.963147
 21
48.079923
 31
0.0
  0
LINE
  5
535
100
AcDbEntity
  8
0
  6
Continuous
 62
     8
100
AcDbLine
 10
90.963147
 20
51.079873
 30
0.0
 11
90.963147
 21
55.979593
 31
0.0
  0
ENDBLK
  5
536
100
AcDbEntity
  8
0
100
AcDbBlockEnd
  0
BLOCK
  5
539
100
AcDbEntity
  8
0
100
AcDbBlockBegin
  2
*B45
 70
     0
 10
0.0
 20
0.0
 30
0.0
  3
*B45
  1

  0
LINE
  5
53A
100
AcDbEntity
  8
0
  6
Continuous
 62
     8
100
AcDbLine
 10
172.463132
 20
31.280883
 30
0.0
 11
205.018176
 21
31.280883
 31
0.0
  0
ENDBLK
  5
53B
100
AcDbEntity
  8
0
100
AcDbBlockEnd
  0
BLOCK
  5
53E
100
AcDbEntity
  8
0
100
AcDbBlockBegin
  2
*B46
 70
     0
 10
0.0
 20
0.0
 30
0.0
  3
*B46
  1

  0
LINE
  5
53F
100
AcDbEntity
  8
0
  6
Continuous
 62
     8
100
AcDbLine
 10
47.018193
 20
174.976828
 30
0.0
 11
56.655973
 21
174.976828
 31
0.0
  0
ENDBLK
  5
540
100
AcDbEntity
  8
0
100
AcDbBlockEnd
  0
BLOCK
  5
543
100
AcDbEntity
  8
0
100
AcDbBlockBegin
  2
*B47
 70
     0
 10
0.0
 20
0.0
 30
0.0
  3
*B47
  1

  0
LINE
  5
544
100
AcDbEntity
  8
0
  6
Continuous
 62
     8
100
AcDbLine
 10
44.018243
 20
60.57936
 30
0.0
 11
120.963071
 21
60.57936
 31
0.0
  0
ENDBLK
  5
545
100
AcDbEntity
  8
0
100
AcDbBlockEnd
  0
BLOCK
  5
548
100
AcDbEntity
  8
0
100
AcDbBlockBegin
  2
*B48
 70
     0
 10
0.0
 20
0.0
 30
0.0
  3
*B48
  1

  0
LINE
  5
549
100
AcDbEntity
  8
0
  6
Continuous
 62
     8
100
AcDbLine
 10
168.96312
 20
28.281145
 30
0.0
 11
168.96312
 21
34.780683
 31
0.0
  0
LINE
  5
54A
100
AcDbEntity
  8
0
  6
Continuous
 62
     8
100
AcDbLine
 10
168.96312
 20
35.780595
 30
0.0
 11
168.96312
 21
36.780508
 31
0.0
  0
LINE
  5
54B
100
AcDbEntity
  8
0
  6
Continuous
 62
     8
100
AcDbLine
 10
168.96312
 20
37.780633
 30
0.0
 11
168.96312
 21
44.28017
 31
0.0
  0
LINE
  5
54C
100
AcDbEntity
  8
0
  6
Continuous
 62
     8
100
AcDbLine
 10
168.96312
 20
45.280083
 30
0.0
 11
168.96312
 21
46.279995
 31
0.0
  0
LINE
  5
54D
100
AcDbEntity
  8
0
  6
Continuous
 62
     8
100
AcDbLine
 10
168.96312
 20
47.279908
 30
0.0
 11
168.96312
 21
53.779658
 31
0.0
  0
LINE
  5
54E
100
AcDbEntity
  8
0
  6
Continuous
 62
     8
100
AcDbLine
 10
168.96312
 20
54.77957
 30
0.0
 11
168.96312
 21
55.779483
 31
0.0
  0
LINE
  5
54F
100
AcDbEntity
  8
0
  6
Continuous
 62
     8
100
AcDbLine
 10
168.96312
 20
56.779395
 30
0.0
 11
168.96312
 21
63.279145
 31
0.0
  0
ENDBLK
  5
550
100
AcDbEntity
  8
0
100
AcDbBlockEnd
  0
BLOCK
  5
553
100
AcDbEntity
  8
0
100
AcDbBlockBegin
  2
*B49
 70
     0
 10
0.0
 20
0.0
 30
0.0
  3
*B49
  1

  0
LINE
  5
554
100
AcDbEntity
  8
0
  6
Continuous
 62
     8
100
AcDbLine
 10
116.963209
 20
43.58021
 30
0.0
 11
116.963209
 21
48.079923
 31
0.0
  0
LINE
  5
555
100
AcDbEntity
  8
0
  6
Continuous
 62
     8
100
AcDbLine
 10
116.963209
 20
51.079873
 30
0.0
 11
116.963209
 21
55.579585
 31
0.0
  0
ENDBLK
  5
556
100
AcDbEntity
  8
0
100
AcDbBlockEnd
  0
BLOCK
  5
559
100
AcDbEntity
  8
0
100
AcDbBlockBegin
  2
*B50
 70
     0
 10
0.0
 20
0.0
 30
0.0
  3
*B50
  1

  0
LINE
  5
55A
100
AcDbEntity
  8
0
  6
Continuous
 62
     8
100
AcDbLine
 10
156.963108
 20
133.979565
 30
0.0
 11
156.963108
 21
140.979165
 31
0.0
  0
LINE
  5
55B
100
AcDbEntity
  8
0
  6
Continuous
 62
     8
100
AcDbLine
 10
156.963108
 20
141.97929
 30
0.0
 11
156.963108
 21
142.979203
 31
0.0
  0
LINE
  5
55C
100
AcDbEntity
  8
0
  6
Continuous
 62
     8
100
AcDbLine
 10
156.963108
 20
143.979115
 30
0.0
 11
156.963108
 21
150.978715
 31
0.0
  0
ENDBLK
  5
55D
100
AcDbEntity
  8
0
100
AcDbBlockEnd
  0
BLOCK
  5
560
100
AcDbEntity
  8
0
100
AcDbBlockBegin
  2
*B51
 70
     0
 10
0.0
 20
0.0
 30
0.0
  3
*B51
  1

  0
LINE
  5
561
100
AcDbEntity
  8
0
  6
Continuous
 62
     8
100
AcDbLine
 10
121.963196
 20
94.012806
 30
0.0
 11
121.963196
 21
106.981078
 31
0.0
  0
ENDBLK
  5
562
100
AcDbEntity
  8
0
100
AcDbBlockEnd
  0
BLOCK
  5
565
100
AcDbEntity
  8
0
100
AcDbBlockBegin
  2
*B52
 70
     0
 10
0.0
 20
0.0
 30
0.0
  3
*B52
  1

  0
LINE
  5
566
100
AcDbEntity
  8
0
  6
Continuous
 62
     8
100
AcDbLine
 10
222.963068
 20
43.180203
 30
0.0
 11
222.963068
 21
48.079923
 31
0.0
  0
LINE
  5
567
100
AcDbEntity
  8
0
  6
Continuous
 62
     8
100
AcDbLine
 10
222.963068
 20
51.079873
 30
0.0
 11
222.963068
 21
55.979593
 31
0.0
  0
ENDBLK
  5
568
100
AcDbEntity
  8
0
100
AcDbBlockEnd
  0
BLOCK
  5
56B
100
AcDbEntity
  8
0
100
AcDbBlockBegin
  2
*B53
 70
     0
 10
0.0
 20
0.0
 30
0.0
  3
*B53
  1

  0
LINE
  5
56C
100
AcDbEntity
  8
0
  6
Continuous
 62
     8
100
AcDbLine
 10
178.963094
 20
70.014268
 30
0.0
 11
178.963094
 21
74.013918
 31
0.0
  0
LINE
  5
56D
100
AcDbEntity
  8
0
  6
Continuous
 62
     8
100
AcDbLine
 10
178.963094
 20
40.705382
 30
0.0
 11
178.963094
 21
48.079923
 31
0.0
  0
LINE
  5
56E
100
AcDbEntity
  8
0
  6
Continuous
 62
     8
100
AcDbLine
 10
178.963094
 20
51.079873
 30
0.0
 11
178.963094
 21
59.047096
 31
0.0
  0
LINE
  5
56F
100
AcDbEntity
  8
0
  6
Continuous
 62
     8
100
AcDbLine
 10
178.963094
 20
60.047008
 30
0.0
 11
178.963094
 21
61.046921
 31
0.0
  0
LINE
  5
570
100
AcDbEntity
  8
0
  6
Continuous
 62
     8
100
AcDbLine
 10
178.963094
 20
62.046833
 30
0.0
 11
178.963094
 21
70.014268
 31
0.0
  0
ENDBLK
  5
571
100
AcDbEntity
  8
0
100
AcDbBlockEnd
  0
BLOCK
  5
574
100
AcDbEntity
  8
0
100
AcDbBlockBegin
  2
*B54
 70
     0
 10
0.0
 20
0.0
 30
0.0
  3
*B54
  1

  0
LINE
  5
575
100
AcDbEntity
  8
0
  6
Continuous
 62
     8
100
AcDbLine
 10
196.963006
 20
43.58021
 30
0.0
 11
196.963006
 21
48.079923
 31
0.0
  0
LINE
  5
576
100
AcDbEntity
  8
0
  6
Continuous
 62
     8
100
AcDbLine
 10
196.963006
 20
51.079873
 30
0.0
 11
196.963006
 21
55.579585
 31
0.0
  0
ENDBLK
  5
577
100
AcDbEntity
  8
0
100
AcDbBlockEnd
  0
BLOCK
  5
57A
100
AcDbEntity
  8
0
100
AcDbBlockBegin
  2
*B55
 70
     0
 10
0.0
 20
0.0
 30
0.0
  3
*B55
  1

  0
LINE
  5
57B
100
AcDbEntity
  8
0
  6
Continuous
 62
     8
100
AcDbLine
 10
121.963196
 20
61.579273
 30
0.0
 11
121.963196
 21
74.013918
 31
0.0
  0
ENDBLK
  5
57C
100
AcDbEntity
  8
0
100
AcDbBlockEnd
  0
BLOCK
  5
57F
100
AcDbEntity
  8
0
100
AcDbBlockBegin
  2
*B56
 70
     0
 10
0.0
 20
0.0
 30
0.0
  3
*B56
  1

  0
LINE
  5
580
100
AcDbEntity
  8
0
  6
Continuous
 62
     8
100
AcDbLine
 10
199.018064
 20
143.979115
 30
0.0
 11
203.018138
 21
143.979115
 31
0.0
  0
LINE
  5
581
100
AcDbEntity
  8
0
  6
Continuous
 62
     8
100
AcDbLine
 10
161.713064
 20
143.979115
 30
0.0
 11
167.463145
 21
143.979115
 31
0.0
  0
LINE
  5
582
100
AcDbEntity
  8
0
  6
Continuous
 62
     8
100
AcDbLine
 10
170.463095
 20
143.979115
 30
0.0
 11
175.351768
 21
143.979115
 31
0.0
  0
LINE
  5
583
100
AcDbEntity
  8
0
  6
Continuous
 62
     8
100
AcDbLine
 10
176.351893
 20
143.979115
 30
0.0
 11
177.351806
 21
143.979115
 31
0.0
  0
LINE
  5
584
100
AcDbEntity
  8
0
  6
Continuous
 62
     8
100
AcDbLine
 10
178.351931
 20
143.979115
 30
0.0
 11
183.240604
 21
143.979115
 31
0.0
  0
LINE
  5
585
100
AcDbEntity
  8
0
  6
Continuous
 62
     8
100
AcDbLine
 10
184.240517
 20
143.979115
 30
0.0
 11
185.240642
 21
143.979115
 31
0.0
  0
LINE
  5
586
100
AcDbEntity
  8
0
  6
Continuous
 62
     8
100
AcDbLine
 10
186.240554
 20
143.979115
 30
0.0
 11
191.12944
 21
143.979115
 31
0.0
  0
LINE
  5
587
100
AcDbEntity
  8
0
  6
Continuous
 62
     8
100
AcDbLine
 10
192.129353
 20
143.979115
 30
0.0
 11
193.129265
 21
143.979115
 31
0.0
  0
LINE
  5
588
100
AcDbEntity
  8
0
  6
Continuous
 62
     8
100
AcDbLine
 10
194.12939
 20
143.979115
 30
0.0
 11
199.018064
 21
143.979115
 31
0.0
  0
ENDBLK
  5
589
100
AcDbEntity
  8
0
100
AcDbBlockEnd
  0
BLOCK
  5
58C
100
AcDbEntity
  8
0
100
AcDbBlockBegin
  2
*B57
 70
     0
 10
0.0
 20
0.0
 30
0.0
  3
*B57
  1

  0
LINE
  5
58D
100
AcDbEntity
  8
0
  6
Continuous
 62
     8
100
AcDbLine
 10
191.963019
 20
61.579273
 30
0.0
 11
191.963019
 21
74.013918
 31
0.0
  0
ENDBLK
  5
58E
100
AcDbEntity
  8
0
100
AcDbBlockEnd
  0
BLOCK
  5
591
100
AcDbEntity
  8
0
100
AcDbBlockBegin
  2
*B58
 70
     0
 10
0.0
 20
0.0
 30
0.0
  3
*B58
  1

  0
LINE
  5
592
100
AcDbEntity
  8
0
  6
Continuous
 62
     8
100
AcDbLine
 10
171.463007
 20
18.017119
 30
0.0
 11
171.463007
 21
30.28097
 31
0.0
  0
ENDBLK
  5
593
100
AcDbEntity
  8
0
100
AcDbBlockEnd
  0
BLOCK
  5
596
100
AcDbEntity
  8
0
100
AcDbBlockBegin
  2
*B59
 70
     0
 10
0.0
 20
0.0
 30
0.0
  3
*B59
  1

  0
LINE
  5
597
100
AcDbEntity
  8
0
  6
Continuous
 62
     8
100
AcDbLine
 10
44.018243
 20
38.580435
 30
0.0
 11
120.963071
 21
38.580435
 31
0.0
  0
LINE
  5
598
100
AcDbEntity
  8
0
  6
Continuous
 62
     8
100
AcDbLine
 10
192.963144
 20
38.580435
 30
0.0
 11
205.018176
 21
38.580435
 31
0.0
  0
ENDBLK
  5
599
100
AcDbEntity
  8
0
100
AcDbBlockEnd
  0
BLOCK
  5
59C
100
AcDbEntity
  8
0
100
AcDbBlockBegin
  2
*B60
 70
     0
 10
0.0
 20
0.0
 30
0.0
  3
*B60
  1

  0
LINE
  5
59D
100
AcDbEntity
  8
0
  6
Continuous
 62
     8
100
AcDbLine
 10
166.46302
 20
18.017119
 30
0.0
 11
166.46302
 21
30.28097
 31
0.0
  0
ENDBLK
  5
59E
100
AcDbEntity
  8
0
100
AcDbBlockEnd
  0
BLOCK
  5
5A1
100
AcDbEntity
  8
0
100
AcDbBlockBegin
  2
*B61
 70
     0
 10
0.0
 20
0.0
 30
0.0
  3
*B61
  1

  0
LINE
  5
5A2
100
AcDbEntity
  8
0
  6
Continuous
 62
     8
100
AcDbLine
 10
199.018064
 20
111.980853
 30
0.0
 11
203.018138
 21
111.980853
 31
0.0
  0
LINE
  5
5A3
100
AcDbEntity
  8
0
  6
Continuous
 62
     8
100
AcDbLine
 10
137.713039
 20
111.980853
 30
0.0
 11
143.46312
 21
111.980853
 31
0.0
  0
LINE
  5
5A4
100
AcDbEntity
  8
0
  6
Continuous
 62
     8
100
AcDbLine
 10
146.46307
 20
111.980853
 30
0.0
 11
155.463133
 21
111.980853
 31
0.0
  0
LINE
  5
5A5
100
AcDbEntity
  8
0
  6
Continuous
 62
     8
100
AcDbLine
 10
158.463083
 20
111.980853
 30
0.0
 11
164.174076
 21
111.980853
 31
0.0
  0
LINE
  5
5A6
100
AcDbEntity
  8
0
  6
Continuous
 62
     8
100
AcDbLine
 10
165.174201
 20
111.980853
 30
0.0
 11
166.174114
 21
111.980853
 31
0.0
  0
LINE
  5
5A7
100
AcDbEntity
  8
0
  6
Continuous
 62
     8
100
AcDbLine
 10
167.174026
 20
111.980853
 30
0.0
 11
172.88502
 21
111.980853
 31
0.0
  0
LINE
  5
5A8
100
AcDbEntity
  8
0
  6
Continuous
 62
     8
100
AcDbLine
 10
173.885145
 20
111.980853
 30
0.0
 11
174.885057
 21
111.980853
 31
0.0
  0
LINE
  5
5A9
100
AcDbEntity
  8
0
  6
Continuous
 62
     8
100
AcDbLine
 10
175.885182
 20
111.980853
 30
0.0
 11
181.596176
 21
111.980853
 31
0.0
  0
LINE
  5
5AA
100
AcDbEntity
  8
0
  6
Continuous
 62
     8
100
AcDbLine
 10
182.596089
 20
111.980853
 30
0.0
 11
183.596001
 21
111.980853
 31
0.0
  0
LINE
  5
5AB
100
AcDbEntity
  8
0
  6
Continuous
 62
     8
100
AcDbLine
 10
184.596126
 20
111.980853
 30
0.0
 11
190.30712
 21
111.980853
 31
0.0
  0
LINE
  5
5AC
100
AcDbEntity
  8
0
  6
Continuous
 62
     8
100
AcDbLine
 10
191.307032
 20
111.980853
 30
0.0
 11
192.307157
 21
111.980853
 31
0.0
  0
LINE
  5
5AD
100
AcDbEntity
  8
0
  6
Continuous
 62
     8
100
AcDbLine
 10
193.30707
 20
111.980853
 30
0.0
 11
199.018064
 21
111.980853
 31
0.0
  0
ENDBLK
  5
5AE
100
AcDbEntity
  8
0
100
AcDbBlockEnd
  0
BLOCK
  5
5B1
100
AcDbEntity
  8
0
100
AcDbBlockBegin
  2
*B62
 70
     0
 10
0.0
 20
0.0
 30
0.0
  3
*B62
  1

  0
LINE
  5
5B2
100
AcDbEntity
  8
0
  6
Continuous
 62
     8
100
AcDbLine
 10
178.963094
 20
133.979565
 30
0.0
 11
178.963094
 21
140.979165
 31
0.0
  0
LINE
  5
5B3
100
AcDbEntity
  8
0
  6
Continuous
 62
     8
100
AcDbLine
 10
178.963094
 20
141.97929
 30
0.0
 11
178.963094
 21
142.979203
 31
0.0
  0
LINE
  5
5B4
100
AcDbEntity
  8
0
  6
Continuous
 62
     8
100
AcDbLine
 10
178.963094
 20
143.979115
 30
0.0
 11
178.963094
 21
150.978715
 31
0.0
  0
ENDBLK
  5
5B5
100
AcDbEntity
  8
0
100
AcDbBlockEnd
  0
BLOCK
  5
5B8
100
AcDbEntity
  8
0
100
AcDbBlockBegin
  2
*B63
 70
     0
 10
0.0
 20
0.0
 30
0.0
  3
*B63
  1

  0
LINE
  5
5B9
100
AcDbEntity
  8
0
  6
Continuous
 62
     8
100
AcDbLine
 10
56.963148
 20
174.776505
 30
0.0
 11
56.963148
 21
186.00773
 31
0.0
  0
ENDBLK
  5
5BA
100
AcDbEntity
  8
0
100
AcDbBlockEnd
  0
BLOCK
  5
5BD
100
AcDbEntity
  8
0
100
AcDbBlockBegin
  2
*B64
 70
     0
 10
0.0
 20
0.0
 30
0.0
  3
*B64
  1

  0
LINE
  5
5BE
100
AcDbEntity
  8
0
  6
Continuous
 62
     8
100
AcDbLine
 10
105.963109
 20
82.013643
 30
0.0
 11
105.963109
 21
108.981116
 31
0.0
  0
ENDBLK
  5
5BF
100
AcDbEntity
  8
0
100
AcDbBlockEnd
  0
BLOCK
  5
5C2
100
AcDbEntity
  8
0
100
AcDbBlockBegin
  2
*B65
 70
     0
 10
0.0
 20
0.0
 30
0.0
  3
*B65
  1

  0
LINE
  5
5C3
100
AcDbEntity
  8
0
  6
Continuous
 62
     8
100
AcDbLine
 10
168.96312
 20
94.012806
 30
0.0
 11
168.96312
 21
98.012668
 31
0.0
  0
LINE
  5
5C4
100
AcDbEntity
  8
0
  6
Continuous
 62
     8
100
AcDbLine
 10
168.96312
 20
98.012668
 30
0.0
 11
168.96312
 21
102.879674
 31
0.0
  0
LINE
  5
5C5
100
AcDbEntity
  8
0
  6
Continuous
 62
     8
100
AcDbLine
 10
168.96312
 20
103.879586
 30
0.0
 11
168.96312
 21
104.879499
 31
0.0
  0
LINE
  5
5C6
100
AcDbEntity
  8
0
  6
Continuous
 62
     8
100
AcDbLine
 10
168.96312
 20
105.879411
 30
0.0
 11
168.96312
 21
110.746417
 31
0.0
  0
LINE
  5
5C7
100
AcDbEntity
  8
0
  6
Continuous
 62
     8
100
AcDbLine
 10
168.96312
 20
111.746329
 30
0.0
 11
168.96312
 21
112.746242
 31
0.0
  0
LINE
  5
5C8
100
AcDbEntity
  8
0
  6
Continuous
 62
     8
100
AcDbLine
 10
168.96312
 20
113.746367
 30
0.0
 11
168.96312
 21
118.61316
 31
0.0
  0
LINE
  5
5C9
100
AcDbEntity
  8
0
  6
Continuous
 62
     8
100
AcDbLine
 10
168.96312
 20
119.613285
 30
0.0
 11
168.96312
 21
120.613197
 31
0.0
  0
LINE
  5
5CA
100
AcDbEntity
  8
0
  6
Continuous
 62
     8
100
AcDbLine
 10
168.96312
 20
121.61311
 30
0.0
 11
168.96312
 21
126.480115
 31
0.0
  0
LINE
  5
5CB
100
AcDbEntity
  8
0
  6
Continuous
 62
     8
100
AcDbLine
 10
168.96312
 20
129.479853
 30
0.0
 11
168.96312
 21
134.479628
 31
0.0
  0
LINE
  5
5CC
100
AcDbEntity
  8
0
  6
Continuous
 62
     8
100
AcDbLine
 10
168.96312
 20
135.47954
 30
0.0
 11
168.96312
 21
136.479453
 31
0.0
  0
LINE
  5
5CD
100
AcDbEntity
  8
0
  6
Continuous
 62
     8
100
AcDbLine
 10
168.96312
 20
137.479365
 30
0.0
 11
168.96312
 21
142.47914
 31
0.0
  0
LINE
  5
5CE
100
AcDbEntity
  8
0
  6
Continuous
 62
     8
100
AcDbLine
 10
168.96312
 20
145.47909
 30
0.0
 11
168.96312
 21
151.228746
 31
0.0
  0
ENDBLK
  5
5CF
100
AcDbEntity
  8
0
100
AcDbBlockEnd
  0
BLOCK
  5
5D2
100
AcDbEntity
  8
0
100
AcDbBlockBegin
  2
*B66
 70
     0
 10
0.0
 20
0.0
 30
0.0
  3
*B66
  1

  0
LINE
  5
5D3
100
AcDbEntity
  8
0
  6
Continuous
 62
     8
100
AcDbLine
 10
57.46321
 20
49.579898
 30
0.0
 11
63.213079
 21
49.579898
 31
0.0
  0
LINE
  5
5D4
100
AcDbEntity
  8
0
  6
Continuous
 62
     8
100
AcDbLine
 10
64.213204
 20
49.579898
 30
0.0
 11
65.213116
 21
49.579898
 31
0.0
  0
LINE
  5
5D5
100
AcDbEntity
  8
0
  6
Continuous
 62
     8
100
AcDbLine
 10
66.213029
 20
49.579898
 30
0.0
 11
71.96311
 21
49.579898
 31
0.0
  0
LINE
  5
5D6
100
AcDbEntity
  8
0
  6
Continuous
 62
     8
100
AcDbLine
 10
72.963235
 20
49.579898
 30
0.0
 11
73.963147
 21
49.579898
 31
0.0
  0
LINE
  5
5D7
100
AcDbEntity
  8
0
  6
Continuous
 62
     8
100
AcDbLine
 10
74.96306
 20
49.579898
 30
0.0
 11
80.713141
 21
49.579898
 31
0.0
  0
LINE
  5
5D8
100
AcDbEntity
  8
0
  6
Continuous
 62
     8
100
AcDbLine
 10
81.713053
 20
49.579898
 30
0.0
 11
82.713178
 21
49.579898
 31
0.0
  0
LINE
  5
5D9
100
AcDbEntity
  8
0
  6
Continuous
 62
     8
100
AcDbLine
 10
83.713091
 20
49.579898
 30
0.0
 11
89.463172
 21
49.579898
 31
0.0
  0
LINE
  5
5DA
100
AcDbEntity
  8
0
  6
Continuous
 62
     8
100
AcDbLine
 10
92.463122
 20
49.579898
 30
0.0
 11
98.129718
 21
49.579898
 31
0.0
  0
LINE
  5
5DB
100
AcDbEntity
  8
0
  6
Continuous
 62
     8
100
AcDbLine
 10
99.129843
 20
49.579898
 30
0.0
 11
100.129755
 21
49.579898
 31
0.0
  0
LINE
  5
5DC
100
AcDbEntity
  8
0
  6
Continuous
 62
     8
100
AcDbLine
 10
101.12988
 20
49.579898
 30
0.0
 11
106.796476
 21
49.579898
 31
0.0
  0
LINE
  5
5DD
100
AcDbEntity
  8
0
  6
Continuous
 62
     8
100
AcDbLine
 10
107.796388
 20
49.579898
 30
0.0
 11
108.796513
 21
49.579898
 31
0.0
  0
LINE
  5
5DE
100
AcDbEntity
  8
0
  6
Continuous
 62
     8
100
AcDbLine
 10
109.796426
 20
49.579898
 30
0.0
 11
115.463021
 21
49.579898
 31
0.0
  0
LINE
  5
5DF
100
AcDbEntity
  8
0
  6
Continuous
 62
     8
100
AcDbLine
 10
118.463184
 20
49.579898
 30
0.0
 11
124.463084
 21
49.579898
 31
0.0
  0
LINE
  5
5E0
100
AcDbEntity
  8
0
  6
Continuous
 62
     8
100
AcDbLine
 10
125.463208
 20
49.579898
 30
0.0
 11
126.463121
 21
49.579898
 31
0.0
  0
LINE
  5
5E1
100
AcDbEntity
  8
0
  6
Continuous
 62
     8
100
AcDbLine
 10
127.463033
 20
49.579898
 30
0.0
 11
133.463146
 21
49.579898
 31
0.0
  0
LINE
  5
5E2
100
AcDbEntity
  8
0
  6
Continuous
 62
     8
100
AcDbLine
 10
136.463096
 20
49.579898
 30
0.0
 11
144.463033
 21
49.579898
 31
0.0
  0
LINE
  5
5E3
100
AcDbEntity
  8
0
  6
Continuous
 62
     8
100
AcDbLine
 10
145.463158
 20
49.579898
 30
0.0
 11
146.46307
 21
49.579898
 31
0.0
  0
LINE
  5
5E4
100
AcDbEntity
  8
0
  6
Continuous
 62
     8
100
AcDbLine
 10
147.463195
 20
49.579898
 30
0.0
 11
155.463133
 21
49.579898
 31
0.0
  0
LINE
  5
5E5
100
AcDbEntity
  8
0
  6
Continuous
 62
     8
100
AcDbLine
 10
158.463083
 20
49.579898
 30
0.0
 11
166.46302
 21
49.579898
 31
0.0
  0
LINE
  5
5E6
100
AcDbEntity
  8
0
  6
Continuous
 62
     8
100
AcDbLine
 10
167.463145
 20
49.579898
 30
0.0
 11
168.463057
 21
49.579898
 31
0.0
  0
LINE
  5
5E7
100
AcDbEntity
  8
0
  6
Continuous
 62
     8
100
AcDbLine
 10
169.463182
 20
49.579898
 30
0.0
 11
177.46312
 21
49.579898
 31
0.0
  0
LINE
  5
5E8
100
AcDbEntity
  8
0
  6
Continuous
 62
     8
100
AcDbLine
 10
180.463069
 20
49.579898
 30
0.0
 11
186.463182
 21
49.579898
 31
0.0
  0
LINE
  5
5E9
100
AcDbEntity
  8
0
  6
Continuous
 62
     8
100
AcDbLine
 10
187.463094
 20
49.579898
 30
0.0
 11
188.463007
 21
49.579898
 31
0.0
  0
LINE
  5
5EA
100
AcDbEntity
  8
0
  6
Continuous
 62
     8
100
AcDbLine
 10
189.463132
 20
49.579898
 30
0.0
 11
195.463032
 21
49.579898
 31
0.0
  0
LINE
  5
5EB
100
AcDbEntity
  8
0
  6
Continuous
 62
     8
100
AcDbLine
 10
198.462981
 20
49.579898
 30
0.0
 11
204.12979
 21
49.579898
 31
0.0
  0
LINE
  5
5EC
100
AcDbEntity
  8
0
  6
Continuous
 62
     8
100
AcDbLine
 10
205.129702
 20
49.579898
 30
0.0
 11
206.129827
 21
49.579898
 31
0.0
  0
LINE
  5
5ED
100
AcDbEntity
  8
0
  6
Continuous
 62
     8
100
AcDbLine
 10
207.12974
 20
49.579898
 30
0.0
 11
212.796335
 21
49.579898
 31
0.0
  0
LINE
  5
5EE
100
AcDbEntity
  8
0
  6
Continuous
 62
     8
100
AcDbLine
 10
213.79646
 20
49.579898
 30
0.0
 11
214.796373
 21
49.579898
 31
0.0
  0
LINE
  5
5EF
100
AcDbEntity
  8
0
  6
Continuous
 62
     8
100
AcDbLine
 10
215.796498
 20
49.579898
 30
0.0
 11
221.463093
 21
49.579898
 31
0.0
  0
LINE
  5
5F0
100
AcDbEntity
  8
0
  6
Continuous
 62
     8
100
AcDbLine
 10
224.463043
 20
49.579898
 30
0.0
 11
229.963093
 21
49.579898
 31
0.0
  0
LINE
  5
5F1
100
AcDbEntity
  8
0
  6
Continuous
 62
     8
100
AcDbLine
 10
230.963006
 20
49.579898
 30
0.0
 11
231.96313
 21
49.579898
 31
0.0
  0
LINE
  5
5F2
100
AcDbEntity
  8
0
  6
Continuous
 62
     8
100
AcDbLine
 10
232.963043
 20
49.579898
 30
0.0
 11
238.463093
 21
49.579898
 31
0.0
  0
LINE
  5
5F3
100
AcDbEntity
  8
0
  6
Continuous
 62
     8
100
AcDbLine
 10
239.463005
 20
49.579898
 30
0.0
 11
240.46313
 21
49.579898
 31
0.0
  0
LINE
  5
5F4
100
AcDbEntity
  8
0
  6
Continuous
 62
     8
100
AcDbLine
 10
241.463043
 20
49.579898
 30
0.0
 11
246.963093
 21
49.579898
 31
0.0
  0
LINE
  5
5F5
100
AcDbEntity
  8
0
  6
Continuous
 62
     8
100
AcDbLine
 10
247.963005
 20
49.579898
 30
0.0
 11
248.96313
 21
49.579898
 31
0.0
  0
LINE
  5
5F6
100
AcDbEntity
  8
0
  6
Continuous
 62
     8
100
AcDbLine
 10
249.963042
 20
49.579898
 30
0.0
 11
255.463092
 21
49.579898
 31
0.0
  0
ENDBLK
  5
5F7
100
AcDbEntity
  8
0
100
AcDbBlockEnd
  0
BLOCK
  5
5FA
100
AcDbEntity
  8
0
100
AcDbBlockBegin
  2
*B67
 70
     0
 10
0.0
 20
0.0
 30
0.0
  3
*B67
  1

  0
LINE
  5
5FB
100
AcDbEntity
  8
0
  6
Continuous
 62
     8
100
AcDbLine
 10
156.963108
 20
106.231197
 30
0.0
 11
156.963108
 21
110.480878
 31
0.0
  0
LINE
  5
5FC
100
AcDbEntity
  8
0
  6
Continuous
 62
     8
100
AcDbLine
 10
156.963108
 20
113.480828
 30
0.0
 11
156.963108
 21
117.730509
 31
0.0
  0
ENDBLK
  5
5FD
100
AcDbEntity
  8
0
100
AcDbBlockEnd
  0
BLOCK
  5
600
100
AcDbEntity
  8
0
100
AcDbBlockBegin
  2
*B68
 70
     0
 10
0.0
 20
0.0
 30
0.0
  3
*B68
  1

  0
LINE
  5
601
100
AcDbEntity
  8
0
  6
Continuous
 62
     8
100
AcDbLine
 10
129.08813
 20
18.017119
 30
0.0
 11
129.08813
 21
48.579985
 31
0.0
  0
ENDBLK
  5
602
100
AcDbEntity
  8
0
100
AcDbBlockEnd
  0
BLOCK
  5
605
100
AcDbEntity
  8
0
100
AcDbBlockBegin
  2
*B69
 70
     0
 10
0.0
 20
0.0
 30
0.0
  3
*B69
  1

  0
LINE
  5
606
100
AcDbEntity
  8
0
  6
Continuous
 62
     6
100
AcDbLine
 10
168.463057
 20
143.979115
 30
0.0
 11
169.463182
 21
143.979115
 31
0.0
  0
LINE
  5
607
100
AcDbEntity
  8
0
  6
Continuous
 62
     6
100
AcDbLine
 10
168.96312
 20
143.479053
 30
0.0
 11
168.96312
 21
144.478965
 31
0.0
  0
ENDBLK
  5
608
100
AcDbEntity
  8
0
100
AcDbBlockEnd
  0
BLOCK
  5
60B
100
AcDbEntity
  8
0
100
AcDbBlockBegin
  2
*B70
 70
     0
 10
0.0
 20
0.0
 30
0.0
  3
*B70
  1

  0
LINE
  5
60C
100
AcDbEntity
  8
0
  6
Continuous
 62
     6
100
AcDbLine
 10
144.463033
 20
127.979878
 30
0.0
 11
145.463158
 21
127.979878
 31
0.0
  0
LINE
  5
60D
100
AcDbEntity
  8
0
  6
Continuous
 62
     6
100
AcDbLine
 10
144.963095
 20
127.480028
 30
0.0
 11
144.963095
 21
128.47994
 31
0.0
  0
ENDBLK
  5
60E
100
AcDbEntity
  8
0
100
AcDbBlockEnd
  0
BLOCK
  5
611
100
AcDbEntity
  8
0
100
AcDbBlockBegin
  2
*B71
 70
     0
 10
0.0
 20
0.0
 30
0.0
  3
*B71
  1

  0
LINE
  5
612
100
AcDbEntity
  8
0
  6
Continuous
 62
     6
100
AcDbLine
 10
222.963068
 20
49.079835
 30
0.0
 11
222.963068
 21
50.079748
 31
0.0
  0
LINE
  5
613
100
AcDbEntity
  8
0
  6
Continuous
 62
     6
100
AcDbLine
 10
222.463006
 20
49.579898
 30
0.0
 11
223.463131
 21
49.579898
 31
0.0
  0
ENDBLK
  5
614
100
AcDbEntity
  8
0
100
AcDbBlockEnd
  0
BLOCK
  5
617
100
AcDbEntity
  8
0
100
AcDbBlockBegin
  2
*B72
 70
     0
 10
0.0
 20
0.0
 30
0.0
  3
*B72
  1

  0
LINE
  5
618
100
AcDbEntity
  8
0
  6
Continuous
 62
     6
100
AcDbLine
 10
90.963147
 20
49.079835
 30
0.0
 11
90.963147
 21
50.079748
 31
0.0
  0
LINE
  5
619
100
AcDbEntity
  8
0
  6
Continuous
 62
     6
100
AcDbLine
 10
90.463084
 20
49.579898
 30
0.0
 11
91.463209
 21
49.579898
 31
0.0
  0
ENDBLK
  5
61A
100
AcDbEntity
  8
0
100
AcDbBlockEnd
  0
BLOCK
  5
61D
100
AcDbEntity
  8
0
100
AcDbBlockBegin
  2
*B73
 70
     0
 10
0.0
 20
0.0
 30
0.0
  3
*B73
  1

  0
LINE
  5
61E
100
AcDbEntity
  8
0
  6
Continuous
 62
     6
100
AcDbLine
 10
156.963108
 20
49.079835
 30
0.0
 11
156.963108
 21
50.079748
 31
0.0
  0
LINE
  5
61F
100
AcDbEntity
  8
0
  6
Continuous
 62
     6
100
AcDbLine
 10
156.463045
 20
49.579898
 30
0.0
 11
157.46317
 21
49.579898
 31
0.0
  0
ENDBLK
  5
620
100
AcDbEntity
  8
0
100
AcDbBlockEnd
  0
BLOCK
  5
623
100
AcDbEntity
  8
0
100
AcDbBlockBegin
  2
*B74
 70
     0
 10
0.0
 20
0.0
 30
0.0
  3
*B74
  1

  0
LINE
  5
624
100
AcDbEntity
  8
0
  6
Continuous
 62
     6
100
AcDbLine
 10
256.963067
 20
49.079835
 30
0.0
 11
256.963067
 21
50.079748
 31
0.0
  0
LINE
  5
625
100
AcDbEntity
  8
0
  6
Continuous
 62
     6
100
AcDbLine
 10
256.463005
 20
49.579898
 30
0.0
 11
257.46313
 21
49.579898
 31
0.0
  0
ENDBLK
  5
626
100
AcDbEntity
  8
0
100
AcDbBlockEnd
  0
BLOCK
  5
629
100
AcDbEntity
  8
0
100
AcDbBlockBegin
  2
*B75
 70
     0
 10
0.0
 20
0.0
 30
0.0
  3
*B75
  1

  0
LINE
  5
62A
100
AcDbEntity
  8
0
  6
Continuous
 62
     6
100
AcDbLine
 10
56.963148
 20
49.079835
 30
0.0
 11
56.963148
 21
50.079748
 31
0.0
  0
LINE
  5
62B
100
AcDbEntity
  8
0
  6
Continuous
 62
     6
100
AcDbLine
 10
56.463085
 20
49.579898
 30
0.0
 11
57.46321
 21
49.579898
 31
0.0
  0
ENDBLK
  5
62C
100
AcDbEntity
  8
0
100
AcDbBlockEnd
  0
BLOCK
  5
62F
100
AcDbEntity
  8
0
100
AcDbBlockBegin
  2
*B76
 70
     0
 10
0.0
 20
0.0
 30
0.0
  3
*B76
  1

  0
LINE
  5
630
100
AcDbEntity
  8
0
  6
Continuous
 62
     6
100
AcDbLine
 10
178.963094
 20
49.079835
 30
0.0
 11
178.963094
 21
50.079748
 31
0.0
  0
LINE
  5
631
100
AcDbEntity
  8
0
  6
Continuous
 62
     6
100
AcDbLine
 10
178.463032
 20
49.579898
 30
0.0
 11
179.463157
 21
49.579898
 31
0.0
  0
ENDBLK
  5
632
100
AcDbEntity
  8
0
100
AcDbBlockEnd
  0
BLOCK
  5
635
100
AcDbEntity
  8
0
100
AcDbBlockBegin
  2
*B77
 70
     0
 10
0.0
 20
0.0
 30
0.0
  3
*B77
  1

  0
LINE
  5
636
100
AcDbEntity
  8
0
  6
Continuous
 62
     6
100
AcDbLine
 10
134.963121
 20
49.079835
 30
0.0
 11
134.963121
 21
50.079748
 31
0.0
  0
LINE
  5
637
100
AcDbEntity
  8
0
  6
Continuous
 62
     6
100
AcDbLine
 10
134.463058
 20
49.579898
 30
0.0
 11
135.463183
 21
49.579898
 31
0.0
  0
ENDBLK
  5
638
100
AcDbEntity
  8
0
100
AcDbBlockEnd
  0
BLOCK
  5
63B
100
AcDbEntity
  8
0
100
AcDbBlockBegin
  2
*B78
 70
     0
 10
0.0
 20
0.0
 30
0.0
  3
*B78
  1

  0
LINE
  5
63C
100
AcDbEntity
  8
0
  6
Continuous
 62
     6
100
AcDbLine
 10
116.463146
 20
49.579898
 30
0.0
 11
117.463059
 21
49.579898
 31
0.0
  0
LINE
  5
63D
100
AcDbEntity
  8
0
  6
Continuous
 62
     6
100
AcDbLine
 10
116.963209
 20
49.079835
 30
0.0
 11
116.963209
 21
50.079748
 31
0.0
  0
ENDBLK
  5
63E
100
AcDbEntity
  8
0
100
AcDbBlockEnd
  0
BLOCK
  5
641
100
AcDbEntity
  8
0
100
AcDbBlockBegin
  2
*B79
 70
     0
 10
0.0
 20
0.0
 30
0.0
  3
*B79
  1

  0
LINE
  5
642
100
AcDbEntity
  8
0
  6
Continuous
 62
     6
100
AcDbLine
 10
156.463045
 20
111.980853
 30
0.0
 11
157.46317
 21
111.980853
 31
0.0
  0
LINE
  5
643
100
AcDbEntity
  8
0
  6
Continuous
 62
     6
100
AcDbLine
 10
156.963108
 20
111.481003
 30
0.0
 11
156.963108
 21
112.480916
 31
0.0
  0
ENDBLK
  5
644
100
AcDbEntity
  8
0
100
AcDbBlockEnd
  0
BLOCK
  5
647
100
AcDbEntity
  8
0
100
AcDbBlockBegin
  2
*B80
 70
     0
 10
0.0
 20
0.0
 30
0.0
  3
*B80
  1

  0
LINE
  5
648
100
AcDbEntity
  8
0
  6
Continuous
 62
     6
100
AcDbLine
 10
144.963095
 20
111.481003
 30
0.0
 11
144.963095
 21
112.480916
 31
0.0
  0
LINE
  5
649
100
AcDbEntity
  8
0
  6
Continuous
 62
     6
100
AcDbLine
 10
144.463033
 20
111.980853
 30
0.0
 11
145.463158
 21
111.980853
 31
0.0
  0
ENDBLK
  5
64A
100
AcDbEntity
  8
0
100
AcDbBlockEnd
  0
BLOCK
  5
64D
100
AcDbEntity
  8
0
100
AcDbBlockBegin
  2
*B81
 70
     0
 10
0.0
 20
0.0
 30
0.0
  3
*B81
  1

  0
LINE
  5
64E
100
AcDbEntity
  8
0
  6
Continuous
 62
     6
100
AcDbLine
 10
196.463156
 20
49.579898
 30
0.0
 11
197.463069
 21
49.579898
 31
0.0
  0
LINE
  5
64F
100
AcDbEntity
  8
0
  6
Continuous
 62
     6
100
AcDbLine
 10
196.963006
 20
49.079835
 30
0.0
 11
196.963006
 21
50.079748
 31
0.0
  0
ENDBLK
  5
650
100
AcDbEntity
  8
0
100
AcDbBlockEnd
  0
BLOCK
  5
653
100
AcDbEntity
  8
0
100
AcDbBlockBegin
  2
*B82
 70
     0
 10
0.0
 20
0.0
 30
0.0
  3
*B82
  1

  0
LINE
  5
654
100
AcDbEntity
  8
0
  6
Continuous
 62
     6
100
AcDbLine
 10
168.463057
 20
127.979878
 30
0.0
 11
169.463182
 21
127.979878
 31
0.0
  0
LINE
  5
655
100
AcDbEntity
  8
0
  6
Continuous
 62
     6
100
AcDbLine
 10
168.96312
 20
127.480028
 30
0.0
 11
168.96312
 21
128.47994
 31
0.0
  0
ENDBLK
  5
656
100
AcDbEntity
  8
0
100
AcDbBlockEnd
  0
BLOCK
  5
659
100
AcDbEntity
  8
0
100
AcDbBlockBegin
  2
*B83
 70
     0
 10
0.0
 20
0.0
 30
0.0
  3
*B83
  1

  0
TEXT
  5
65A
100
AcDbEntity
  8
TEXT
  6
Continuous
 62
     0
100
AcDbText
 10
185.23575
 20
54.5
 30
0.0
 40
5.0
  1
3
100
AcDbText
  0
ENDBLK
  5
65B
100
AcDbEntity
  8
0
100
AcDbBlockEnd
  0
BLOCK
  5
65E
100
AcDbEntity
  8
0
100
AcDbBlockBegin
  2
*B84
 70
     0
 10
0.0
 20
0.0
 30
0.0
  3
*B84
  1

  0
TEXT
  5
65F
100
AcDbEntity
  8
TEXT
  6
Continuous
 62
     0
100
AcDbText
 10
124.43575
 20
54.3
 30
0.0
 40
5.0
  1
5
100
AcDbText
  0
ENDBLK
  5
660
100
AcDbEntity
  8
0
100
AcDbBlockEnd
  0
BLOCK
  5
663
100
AcDbEntity
  8
0
100
AcDbBlockBegin
  2
*B85
 70
     0
 10
0.0
 20
0.0
 30
0.0
  3
*B85
  1

  0
TEXT
  5
664
100
AcDbEntity
  8
TEXT
  6
Continuous
 62
     0
100
AcDbText
 10
176.23575
 20
115.5
 30
0.0
 40
5.0
  1
2
100
AcDbText
  0
ENDBLK
  5
665
100
AcDbEntity
  8
0
100
AcDbBlockEnd
  0
BLOCK
  5
668
100
AcDbEntity
  8
0
100
AcDbBlockBegin
  2
*B86
 70
     0
 10
0.0
 20
0.0
 30
0.0
  3
*B86
  1

  0
TEXT
  5
669
100
AcDbEntity
  8
TEXT
  6
Continuous
 62
     0
100
AcDbText
 10
160.23575
 20
54.5
 30
0.0
 40
5.0
  1
1
100
AcDbText
  0
ENDBLK
  5
66A
100
AcDbEntity
  8
0
100
AcDbBlockEnd
  0
BLOCK
  5
66D
100
AcDbEntity
  8
0
100
AcDbBlockBegin
  2
*B87
 70
     0
 10
0.0
 20
0.0
 30
0.0
  3
*B87
  1

  0
TEXT
  5
66E
100
AcDbEntity
  8
TEXT
  6
Continuous
 62
     0
100
AcDbText
 10
134.23575
 20
115.5
 30
0.0
 40
5.0
  1
4
100
AcDbText
  0
ENDBLK
  5
66F
100
AcDbEntity
  8
0
100
AcDbBlockEnd
  0
BLOCK
  5
672
100
AcDbEntity
  8
0
100
AcDbBlockBegin
  2
*B88
 70
     0
 10
0.0
 20
0.0
 30
0.0
  3
*B88
  1

  0
TEXT
  5
673
100
AcDbEntity
  8
TEXT
  6
Continuous
 62
     0
100
AcDbText
 10
124.471499
 20
125.5
 30
0.0
 40
5.0
  1
14
100
AcDbText
  0
ENDBLK
  5
674
100
AcDbEntity
  8
0
100
AcDbBlockEnd
  0
BLOCK
  5
677
100
AcDbEntity
  8
0
100
AcDbBlockBegin
  2
*B89
 70
     0
 10
0.0
 20
0.0
 30
0.0
  3
*B89
  1

  0
TEXT
  5
678
100
AcDbEntity
  8
TEXT
  6
Continuous
 62
     0
100
AcDbText
 10
182.471499
 20
125.5
 30
0.0
 40
5.0
  1
12
100
AcDbText
  0
ENDBLK
  5
679
100
AcDbEntity
  8
0
100
AcDbBlockEnd
  0
BLOCK
  5
67C
100
AcDbEntity
  8
0
100
AcDbBlockBegin
  2
*B90
 70
     0
 10
0.0
 20
0.0
 30
0.0
  3
*B90
  1

  0
TEXT
  5
67D
100
AcDbEntity
  8
TEXT
  6
Continuous
 62
     0
100
AcDbText
 10
77.438662
 20
80.5
 30
0.0
 40
5.0
  1
180░
100
AcDbText
  0
ENDBLK
  5
67E
100
AcDbEntity
  8
0
100
AcDbBlockEnd
  0
BLOCK
  5
681
100
AcDbEntity
  8
0
100
AcDbBlockBegin
  2
*B91
 70
     0
 10
0.0
 20
0.0
 30
0.0
  3
*B91
  1

  0
TEXT
  5
682
100
AcDbEntity
  8
TEXT
  6
Continuous
 62
     0
100
AcDbText
 10
112.1114
 20
47.9772
 30
0.0
 40
4.0
  1
1
 50
90.0
100
AcDbText
  0
ENDBLK
  5
683
100
AcDbEntity
  8
0
100
AcDbBlockEnd
  0
BLOCK
  5
686
100
AcDbEntity
  8
0
100
AcDbBlockBegin
  2
*B92
 70
     0
 10
0.0
 20
0.0
 30
0.0
  3
*B92
  1

  0
TEXT
  5
687
100
AcDbEntity
  8
TEXT
  6
Continuous
 62
     0
100
AcDbText
 10
118.8114
 20
42.0772
 30
0.0
 40
4.0
  1
0
 50
90.0
100
AcDbText
  0
ENDBLK
  5
688
100
AcDbEntity
  8
0
100
AcDbBlockEnd
  0
BLOCK
  5
68B
100
AcDbEntity
  8
0
100
AcDbBlockBegin
  2
*B93
 70
     0
 10
0.0
 20
0.0
 30
0.0
  3
*B93
  1

  0
TEXT
  5
68C
100
AcDbEntity
  8
TEXT
  6
Continuous
 62
     0
100
AcDbText
 10
201.6
 20
51.2114
 30
0.0
 40
4.0
  1
1
 50
-90.0
100
AcDbText
  0
ENDBLK
  5
68D
100
AcDbEntity
  8
0
100
AcDbBlockEnd
  0
BLOCK
  5
690
100
AcDbEntity
  8
0
100
AcDbBlockBegin
  2
*B94
 70
     0
 10
0.0
 20
0.0
 30
0.0
  3
*B94
  1

  0
TEXT
  5
691
100
AcDbEntity
  8
TEXT
  6
Continuous
 62
     0
100
AcDbText
 10
198.7
 20
54.1886
 30
0.0
 40
4.0
  1
0
 50
90.0
100
AcDbText
  0
ENDBLK
  5
692
100
AcDbEntity
  8
0
100
AcDbBlockEnd
  0
BLOCK
  5
695
100
AcDbEntity
  8
0
100
AcDbBlockBegin
  2
*B95
 70
     0
 10
0.0
 20
0.0
 30
0.0
  3
*B95
  1

  0
TEXT
  5
696
100
AcDbEntity
  8
TEXT
  6
Continuous
 62
     0
100
AcDbText
 10
199.5
 20
125.111874
 30
0.0
 40
3.0
  1
32
 50
90.0
100
AcDbText
  0
ENDBLK
  5
697
100
AcDbEntity
  8
0
100
AcDbBlockEnd
  0
BLOCK
  5
69A
100
AcDbEntity
  8
0
100
AcDbBlockBegin
  2
*B96
 70
     0
 10
0.0
 20
0.0
 30
0.0
  3
*B96
  1

  0
TEXT
  5
69B
100
AcDbEntity
  8
TEXT
  6
Continuous
 62
     0
100
AcDbText
 10
255.5
 20
125.111874
 30
0.0
 40
3.0
  1
40
 50
90.0
100
AcDbText
  0
ENDBLK
  5
69C
100
AcDbEntity
  8
0
100
AcDbBlockEnd
  0
BLOCK
  5
69F
100
AcDbEntity
  8
0
100
AcDbBlockBegin
  2
*B97
 70
     0
 10
0.0
 20
0.0
 30
0.0
  3
*B97
  1

  0
TEXT
  5
6A0
100
AcDbEntity
  8
TEXT
  6
Continuous
 62
     0
100
AcDbText
 10
154.087833
 20
97.5
 30
0.0
 40
3.0
  1
24
100
AcDbText
  0
ENDBLK
  5
6A1
100
AcDbEntity
  8
0
100
AcDbBlockEnd
  0
BLOCK
  5
6A4
100
AcDbEntity
  8
0
100
AcDbBlockBegin
  2
*B98
 70
     0
 10
0.0
 20
0.0
 30
0.0
  3
*B98
  1

  0
TEXT
  5
6A5
100
AcDbEntity
  8
TEXT
  6
Continuous
 62
     0
100
AcDbText
 10
177.587833
 20
97.5
 30
0.0
 40
3.0
  1
23
100
AcDbText
  0
ENDBLK
  5
6A6
100
AcDbEntity
  8
0
100
AcDbBlockEnd
  0
BLOCK
  5
6A9
100
AcDbEntity
  8
0
100
AcDbBlockBegin
  2
*B99
 70
     0
 10
0.0
 20
0.0
 30
0.0
  3
*B99
  1

  0
TEXT
  5
6AA
100
AcDbEntity
  8
TEXT
  6
Continuous
 62
     0
100
AcDbText
 10
125.587833
 20
73.5
 30
0.0
 40
3.0
  1
13
100
AcDbText
  0
ENDBLK
  5
6AB
100
AcDbEntity
  8
0
100
AcDbBlockEnd
  0
BLOCK
  5
6AE
100
AcDbEntity
  8
0
100
AcDbBlockBegin
  2
*B100
 70
     0
 10
0.0
 20
0.0
 30
0.0
  3
*B100
  1

  0
TEXT
  5
6AF
100
AcDbEntity
  8
TEXT
  6
Continuous
 62
     0
100
AcDbText
 10
143.087833
 20
73.5
 30
0.0
 40
3.0
  1
22
100
AcDbText
  0
ENDBLK
  5
6B0
100
AcDbEntity
  8
0
100
AcDbBlockEnd
  0
BLOCK
  5
6B3
100
AcDbEntity
  8
0
100
AcDbBlockBegin
  2
*B101
 70
     0
 10
0.0
 20
0.0
 30
0.0
  3
*B101
  1

  0
TEXT
  5
6B4
100
AcDbEntity
  8
TEXT
  6
Continuous
 62
     0
100
AcDbText
 10
165.087833
 20
73.5
 30
0.0
 40
3.0
  1
22
100
AcDbText
  0
ENDBLK
  5
6B5
100
AcDbEntity
  8
0
100
AcDbBlockEnd
  0
BLOCK
  5
6B8
100
AcDbEntity
  8
0
100
AcDbBlockBegin
  2
*B102
 70
     0
 10
0.0
 20
0.0
 30
0.0
  3
*B102
  1

  0
TEXT
  5
6B9
100
AcDbEntity
  8
TEXT
  6
Continuous
 62
     0
100
AcDbText
 10
182.587833
 20
73.5
 30
0.0
 40
3.0
  1
13
100
AcDbText
  0
ENDBLK
  5
6BA
100
AcDbEntity
  8
0
100
AcDbBlockEnd
  0
BLOCK
  5
6BD
100
AcDbEntity
  8
0
100
AcDbBlockBegin
  2
*B103
 70
     0
 10
0.0
 20
0.0
 30
0.0
  3
*B103
  1

  0
TEXT
  5
6BE
100
AcDbEntity
  8
TEXT
  6
Continuous
 62
     0
100
AcDbText
 10
201.5
 20
19.428571
 30
0.0
 40
3.0
  1
7,2
 50
90.0
100
AcDbText
  0
ENDBLK
  5
6BF
100
AcDbEntity
  8
0
100
AcDbBlockEnd
  0
BLOCK
  5
6C2
100
AcDbEntity
  8
0
100
AcDbBlockBegin
  2
*B104
 70
     0
 10
0.0
 20
0.0
 30
0.0
  3
*B104
  1

  0
TEXT
  5
6C3
100
AcDbEntity
  8
TEXT
  6
Continuous
 62
     0
100
AcDbText
 10
44.5
 20
46.707337
 30
0.0
 40
3.0
  1
22
 50
90.0
100
AcDbText
  0
ENDBLK
  5
6C4
100
AcDbEntity
  8
0
100
AcDbBlockEnd
  0
BLOCK
  5
6C7
100
AcDbEntity
  8
0
100
AcDbBlockBegin
  2
*B105
 70
     0
 10
0.0
 20
0.0
 30
0.0
  3
*B105
  1

  0
TEXT
  5
6C8
100
AcDbEntity
  8
TEXT
  6
Continuous
 62
     0
100
AcDbText
 10
130.587833
 20
97.5
 30
0.0
 40
3.0
  1
23
100
AcDbText
  0
ENDBLK
  5
6C9
100
AcDbEntity
  8
0
100
AcDbBlockEnd
  0
BLOCK
  5
6CC
100
AcDbEntity
  8
0
100
AcDbBlockBegin
  2
*B106
 70
     0
 10
0.0
 20
0.0
 30
0.0
  3
*B106
  1

  0
TEXT
  5
6CD
100
AcDbEntity
  8
TEXT
  6
Continuous
 62
     0
100
AcDbText
 10
152.659261
 20
85.5
 30
0.0
 40
3.0
  1
102
100
AcDbText
  0
ENDBLK
  5
6CE
100
AcDbEntity
  8
0
100
AcDbBlockEnd
  0
BLOCK
  5
6D1
100
AcDbEntity
  8
0
100
AcDbBlockBegin
  2
*B107
 70
     0
 10
0.0
 20
0.0
 30
0.0
  3
*B107
  1

  0
TEXT
  5
6D2
100
AcDbEntity
  8
TEXT
  6
Continuous
 62
     0
100
AcDbText
 10
47.5
 20
138.611649
 30
0.0
 40
3.0
  1
67
 50
90.0
100
AcDbText
  0
ENDBLK
  5
6D3
100
AcDbEntity
  8
0
100
AcDbBlockEnd
  0
BLOCK
  5
6D6
100
AcDbEntity
  8
0
100
AcDbBlockBegin
  2
*B108
 70
     0
 10
0.0
 20
0.0
 30
0.0
  3
*B108
  1

  0
TEXT
  5
6D7
100
AcDbEntity
  8
TEXT
  6
Continuous
 62
     0
100
AcDbText
 10
108.785714
 20
21.5
 30
0.0
 40
3.0
  1
G 1/4"
100
AcDbText
  0
ENDBLK
  5
6D8
100
AcDbEntity
  8
0
100
AcDbBlockEnd
  0
BLOCK
  5
6DB
100
AcDbEntity
  8
0
100
AcDbBlockBegin
  2
*B109
 70
     0
 10
0.0
 20
0.0
 30
0.0
  3
*B109
  1

  0
TEXT
  5
6DC
100
AcDbEntity
  8
TEXT
  6
Continuous
 62
     0
100
AcDbText
 10
78.337833
 20
185.5
 30
0.0
 40
3.0
  1
48
100
AcDbText
  0
ENDBLK
  5
6DD
100
AcDbEntity
  8
0
100
AcDbBlockEnd
  0
BLOCK
  5
6E0
100
AcDbEntity
  8
0
100
AcDbBlockBegin
  2
*B110
 70
     0
 10
0.0
 20
0.0
 30
0.0
  3
*B110
  1

  0
TEXT
  5
6E1
100
AcDbEntity
  8
TEXT
  6
Continuous
 62
     0
100
AcDbText
 10
229.837833
 20
185.5
 30
0.0
 40
3.0
  1
48
100
AcDbText
  0
ENDBLK
  5
6E2
100
AcDbEntity
  8
0
100
AcDbBlockEnd
  0
BLOCK
  5
6E5
100
AcDbEntity
  8
0
100
AcDbBlockBegin
  2
*B111
 70
     0
 10
0.0
 20
0.0
 30
0.0
  3
*B111
  1

  0
TEXT
  5
6E6
100
AcDbEntity
  8
TEXT
  6
Continuous
 62
     0
100
AcDbText
 10
175.857143
 20
21.5
 30
0.0
 40
3.0
  1
M5
100
AcDbText
  0
ENDBLK
  5
6E7
100
AcDbEntity
  8
0
100
AcDbBlockEnd
  0
ENDSEC
  0
SECTION
  2
ENTITIES
  0
INSERT
  5
30
100
AcDbEntity
  8
0
  6
Continuous
 62
   172
100
AcDbBlockReference
  2
*B0
 10
0.0
 20
0.0
 30
0.0
  0
INSERT
  5
1F2
100
AcDbEntity
  8
0
  6
Continuous
 62
   174
100
AcDbBlockReference
  2
*B2
 10
0.0
 20
0.0
 30
0.0
  0
INSERT
  5
1FC
100
AcDbEntity
  8
0
  6
HIDDEN
 62
   172
100
AcDbBlockReference
  2
*B3
 10
0.0
 20
0.0
 30
0.0
  0
INSERT
  5
3F4
100
AcDbEntity
  8
0
  6
Continuous
 62
   174
100
AcDbBlockReference
  2
*B4
 10
0.0
 20
0.0
 30
0.0
  0
INSERT
  5
3FA
100
AcDbEntity
  8
0
  6
Continuous
 62
   172
100
AcDbBlockReference
  2
*B5
 10
0.0
 20
0.0
 30
0.0
  0
INSERT
  5
405
100
AcDbEntity
  8
0
  6
Continuous
 62
   172
100
AcDbBlockReference
  2
*B6
 10
0.0
 20
0.0
 30
0.0
  0
INSERT
  5
40E
100
AcDbEntity
  8
0
  6
Continuous
 62
   172
100
AcDbBlockReference
  2
*B8
 10
0.0
 20
0.0
 30
0.0
  0
INSERT
  5
419
100
AcDbEntity
  8
0
  6
Continuous
 62
   172
100
AcDbBlockReference
  2
*B9
 10
0.0
 20
0.0
 30
0.0
  0
INSERT
  5
423
100
AcDbEntity
  8
0
  6
Continuous
 62
     0
100
AcDbBlockReference
  2
*B11
 10
0.0
 20
0.0
 30
0.0
  0
INSERT
  5
42A
100
AcDbEntity
  8
0
  6
Continuous
 62
     0
100
AcDbBlockReference
  2
*B12
 10
0.0
 20
0.0
 30
0.0
  0
INSERT
  5
431
100
AcDbEntity
  8
0
  6
Continuous
 62
     0
100
AcDbBlockReference
  2
*B13
 10
0.0
 20
0.0
 30
0.0
  0
INSERT
  5
438
100
AcDbEntity
  8
0
  6
Continuous
 62
     0
100
AcDbBlockReference
  2
*B14
 10
0.0
 20
0.0
 30
0.0
  0
INSERT
  5
43F
100
AcDbEntity
  8
0
  6
Continuous
 62
     0
100
AcDbBlockReference
  2
*B15
 10
0.0
 20
0.0
 30
0.0
  0
INSERT
  5
446
100
AcDbEntity
  8
0
  6
Continuous
 62
     0
100
AcDbBlockReference
  2
*B16
 10
0.0
 20
0.0
 30
0.0
  0
INSERT
  5
44D
100
AcDbEntity
  8
0
  6
Continuous
 62
     0
100
AcDbBlockReference
  2
*B17
 10
0.0
 20
0.0
 30
0.0
  0
INSERT
  5
454
100
AcDbEntity
  8
0
  6
Continuous
 62
     0
100
AcDbBlockReference
  2
*B18
 10
0.0
 20
0.0
 30
0.0
  0
INSERT
  5
45B
100
AcDbEntity
  8
0
  6
Continuous
 62
     0
100
AcDbBlockReference
  2
*B19
 10
0.0
 20
0.0
 30
0.0
  0
INSERT
  5
462
100
AcDbEntity
  8
0
  6
Continuous
 62
     0
100
AcDbBlockReference
  2
*B20
 10
0.0
 20
0.0
 30
0.0
  0
INSERT
  5
469
100
AcDbEntity
  8
0
  6
Continuous
 62
     0
100
AcDbBlockReference
  2
*B21
 10
0.0
 20
0.0
 30
0.0
  0
INSERT
  5
470
100
AcDbEntity
  8
0
  6
Continuous
 62
     0
100
AcDbBlockReference
  2
*B22
 10
0.0
 20
0.0
 30
0.0
  0
INSERT
  5
477
100
AcDbEntity
  8
0
  6
Continuous
 62
     0
100
AcDbBlockReference
  2
*B23
 10
0.0
 20
0.0
 30
0.0
  0
INSERT
  5
47E
100
AcDbEntity
  8
0
  6
Continuous
 62
     0
100
AcDbBlockReference
  2
*B24
 10
0.0
 20
0.0
 30
0.0
  0
INSERT
  5
485
100
AcDbEntity
  8
0
  6
Continuous
 62
     0
100
AcDbBlockReference
  2
*B25
 10
0.0
 20
0.0
 30
0.0
  0
INSERT
  5
48C
100
AcDbEntity
  8
0
  6
Continuous
 62
     0
100
AcDbBlockReference
  2
*B26
 10
0.0
 20
0.0
 30
0.0
  0
INSERT
  5
493
100
AcDbEntity
  8
0
  6
Continuous
 62
     0
100
AcDbBlockReference
  2
*B27
 10
0.0
 20
0.0
 30
0.0
  0
INSERT
  5
499
100
AcDbEntity
  8
0
  6
Continuous
 62
     8
100
AcDbBlockReference
  2
*B28
 10
0.0
 20
0.0
 30
0.0
  0
INSERT
  5
49E
100
AcDbEntity
  8
0
  6
Continuous
 62
     8
100
AcDbBlockReference
  2
*B29
 10
0.0
 20
0.0
 30
0.0
  0
INSERT
  5
4A3
100
AcDbEntity
  8
0
  6
Continuous
 62
     8
100
AcDbBlockReference
  2
*B30
 10
0.0
 20
0.0
 30
0.0
  0
INSERT
  5
4D2
100
AcDbEntity
  8
0
  6
Continuous
 62
     8
100
AcDbBlockReference
  2
*B31
 10
0.0
 20
0.0
 30
0.0
  0
INSERT
  5
4D7
100
AcDbEntity
  8
0
  6
Continuous
 62
     8
100
AcDbBlockReference
  2
*B32
 10
0.0
 20
0.0
 30
0.0
  0
INSERT
  5
4DE
100
AcDbEntity
  8
0
  6
Continuous
 62
     8
100
AcDbBlockReference
  2
*B33
 10
0.0
 20
0.0
 30
0.0
  0
INSERT
  5
4E7
100
AcDbEntity
  8
0
  6
Continuous
 62
     8
100
AcDbBlockReference
  2
*B34
 10
0.0
 20
0.0
 30
0.0
  0
INSERT
  5
4F2
100
AcDbEntity
  8
0
  6
Continuous
 62
     8
100
AcDbBlockReference
  2
*B35
 10
0.0
 20
0.0
 30
0.0
  0
INSERT
  5
4FE
100
AcDbEntity
  8
0
  6
Continuous
 62
     8
100
AcDbBlockReference
  2
*B36
 10
0.0
 20
0.0
 30
0.0
  0
INSERT
  5
509
100
AcDbEntity
  8
0
  6
Continuous
 62
     8
100
AcDbBlockReference
  2
*B37
 10
0.0
 20
0.0
 30
0.0
  0
INSERT
  5
514
100
AcDbEntity
  8
0
  6
Continuous
 62
     8
100
AcDbBlockReference
  2
*B38
 10
0.0
 20
0.0
 30
0.0
  0
INSERT
  5
519
100
AcDbEntity
  8
0
  6
Continuous
 62
     8
100
AcDbBlockReference
  2
*B39
 10
0.0
 20
0.0
 30
0.0
  0
INSERT
  5
51E
100
AcDbEntity
  8
0
  6
Continuous
 62
     8
100
AcDbBlockReference
  2
*B40
 10
0.0
 20
0.0
 30
0.0
  0
INSERT
  5
523
100
AcDbEntity
  8
0
  6
Continuous
 62
     8
100
AcDbBlockReference
  2
*B41
 10
0.0
 20
0.0
 30
0.0
  0
INSERT
  5
528
100
AcDbEntity
  8
0
  6
Continuous
 62
     8
100
AcDbBlockReference
  2
*B42
 10
0.0
 20
0.0
 30
0.0
  0
INSERT
  5
531
100
AcDbEntity
  8
0
  6
Continuous
 62
     8
100
AcDbBlockReference
  2
*B43
 10
0.0
 20
0.0
 30
0.0
  0
INSERT
  5
537
100
AcDbEntity
  8
0
  6
Continuous
 62
     8
100
AcDbBlockReference
  2
*B44
 10
0.0
 20
0.0
 30
0.0
  0
INSERT
  5
53C
100
AcDbEntity
  8
0
  6
Continuous
 62
     8
100
AcDbBlockReference
  2
*B45
 10
0.0
 20
0.0
 30
0.0
  0
INSERT
  5
541
100
AcDbEntity
  8
0
  6
Continuous
 62
     8
100
AcDbBlockReference
  2
*B46
 10
0.0
 20
0.0
 30
0.0
  0
INSERT
  5
546
100
AcDbEntity
  8
0
  6
Continuous
 62
     8
100
AcDbBlockReference
  2
*B47
 10
0.0
 20
0.0
 30
0.0
  0
INSERT
  5
551
100
AcDbEntity
  8
0
  6
Continuous
 62
     8
100
AcDbBlockReference
  2
*B48
 10
0.0
 20
0.0
 30
0.0
  0
INSERT
  5
557
100
AcDbEntity
  8
0
  6
Continuous
 62
     8
100
AcDbBlockReference
  2
*B49
 10
0.0
 20
0.0
 30
0.0
  0
INSERT
  5
55E
100
AcDbEntity
  8
0
  6
Continuous
 62
     8
100
AcDbBlockReference
  2
*B50
 10
0.0
 20
0.0
 30
0.0
  0
INSERT
  5
563
100
AcDbEntity
  8
0
  6
Continuous
 62
     8
100
AcDbBlockReference
  2
*B51
 10
0.0
 20
0.0
 30
0.0
  0
INSERT
  5
569
100
AcDbEntity
  8
0
  6
Continuous
 62
     8
100
AcDbBlockReference
  2
*B52
 10
0.0
 20
0.0
 30
0.0
  0
INSERT
  5
572
100
AcDbEntity
  8
0
  6
Continuous
 62
     8
100
AcDbBlockReference
  2
*B53
 10
0.0
 20
0.0
 30
0.0
  0
INSERT
  5
578
100
AcDbEntity
  8
0
  6
Continuous
 62
     8
100
AcDbBlockReference
  2
*B54
 10
0.0
 20
0.0
 30
0.0
  0
INSERT
  5
57D
100
AcDbEntity
  8
0
  6
Continuous
 62
     8
100
AcDbBlockReference
  2
*B55
 10
0.0
 20
0.0
 30
0.0
  0
INSERT
  5
58A
100
AcDbEntity
  8
0
  6
Continuous
 62
     8
100
AcDbBlockReference
  2
*B56
 10
0.0
 20
0.0
 30
0.0
  0
INSERT
  5
58F
100
AcDbEntity
  8
0
  6
Continuous
 62
     8
100
AcDbBlockReference
  2
*B57
 10
0.0
 20
0.0
 30
0.0
  0
INSERT
  5
594
100
AcDbEntity
  8
0
  6
Continuous
 62
     8
100
AcDbBlockReference
  2
*B58
 10
0.0
 20
0.0
 30
0.0
  0
INSERT
  5
59A
100
AcDbEntity
  8
0
  6
Continuous
 62
     8
100
AcDbBlockReference
  2
*B59
 10
0.0
 20
0.0
 30
0.0
  0
INSERT
  5
59F
100
AcDbEntity
  8
0
  6
Continuous
 62
     8
100
AcDbBlockReference
  2
*B60
 10
0.0
 20
0.0
 30
0.0
  0
INSERT
  5
5AF
100
AcDbEntity
  8
0
  6
Continuous
 62
     8
100
AcDbBlockReference
  2
*B61
 10
0.0
 20
0.0
 30
0.0
  0
INSERT
  5
5B6
100
AcDbEntity
  8
0
  6
Continuous
 62
     8
100
AcDbBlockReference
  2
*B62
 10
0.0
 20
0.0
 30
0.0
  0
INSERT
  5
5BB
100
AcDbEntity
  8
0
  6
Continuous
 62
     8
100
AcDbBlockReference
  2
*B63
 10
0.0
 20
0.0
 30
0.0
  0
INSERT
  5
5C0
100
AcDbEntity
  8
0
  6
Continuous
 62
     8
100
AcDbBlockReference
  2
*B64
 10
0.0
 20
0.0
 30
0.0
  0
INSERT
  5
5D0
100
AcDbEntity
  8
0
  6
Continuous
 62
     8
100
AcDbBlockReference
  2
*B65
 10
0.0
 20
0.0
 30
0.0
  0
INSERT
  5
5F8
100
AcDbEntity
  8
0
  6
Continuous
 62
     8
100
AcDbBlockReference
  2
*B66
 10
0.0
 20
0.0
 30
0.0
  0
INSERT
  5
5FE
100
AcDbEntity
  8
0
  6
Continuous
 62
     8
100
AcDbBlockReference
  2
*B67
 10
0.0
 20
0.0
 30
0.0
  0
INSERT
  5
603
100
AcDbEntity
  8
0
  6
Continuous
 62
     8
100
AcDbBlockReference
  2
*B68
 10
0.0
 20
0.0
 30
0.0
  0
INSERT
  5
609
100
AcDbEntity
  8
0
  6
Continuous
 62
     6
100
AcDbBlockReference
  2
*B69
 10
0.0
 20
0.0
 30
0.0
  0
INSERT
  5
60F
100
AcDbEntity
  8
0
  6
Continuous
 62
     6
100
AcDbBlockReference
  2
*B70
 10
0.0
 20
0.0
 30
0.0
  0
INSERT
  5
615
100
AcDbEntity
  8
0
  6
Continuous
 62
     6
100
AcDbBlockReference
  2
*B71
 10
0.0
 20
0.0
 30
0.0
  0
INSERT
  5
61B
100
AcDbEntity
  8
0
  6
Continuous
 62
     6
100
AcDbBlockReference
  2
*B72
 10
0.0
 20
0.0
 30
0.0
  0
INSERT
  5
621
100
AcDbEntity
  8
0
  6
Continuous
 62
     6
100
AcDbBlockReference
  2
*B73
 10
0.0
 20
0.0
 30
0.0
  0
INSERT
  5
627
100
AcDbEntity
  8
0
  6
Continuous
 62
     6
100
AcDbBlockReference
  2
*B74
 10
0.0
 20
0.0
 30
0.0
  0
INSERT
  5
62D
100
AcDbEntity
  8
0
  6
Continuous
 62
     6
100
AcDbBlockReference
  2
*B75
 10
0.0
 20
0.0
 30
0.0
  0
INSERT
  5
633
100
AcDbEntity
  8
0
  6
Continuous
 62
     6
100
AcDbBlockReference
  2
*B76
 10
0.0
 20
0.0
 30
0.0
  0
INSERT
  5
639
100
AcDbEntity
  8
0
  6
Continuous
 62
     6
100
AcDbBlockReference
  2
*B77
 10
0.0
 20
0.0
 30
0.0
  0
INSERT
  5
63F
100
AcDbEntity
  8
0
  6
Continuous
 62
     6
100
AcDbBlockReference
  2
*B78
 10
0.0
 20
0.0
 30
0.0
  0
INSERT
  5
645
100
AcDbEntity
  8
0
  6
Continuous
 62
     6
100
AcDbBlockReference
  2
*B79
 10
0.0
 20
0.0
 30
0.0
  0
INSERT
  5
64B
100
AcDbEntity
  8
0
  6
Continuous
 62
     6
100
AcDbBlockReference
  2
*B80
 10
0.0
 20
0.0
 30
0.0
  0
INSERT
  5
651
100
AcDbEntity
  8
0
  6
Continuous
 62
     6
100
AcDbBlockReference
  2
*B81
 10
0.0
 20
0.0
 30
0.0
  0
INSERT
  5
657
100
AcDbEntity
  8
0
  6
Continuous
 62
     6
100
AcDbBlockReference
  2
*B82
 10
0.0
 20
0.0
 30
0.0
  0
INSERT
  5
65C
100
AcDbEntity
  8
TEXT
  6
Continuous
 62
     0
100
AcDbBlockReference
  2
*B83
 10
0.0
 20
0.0
 30
0.0
  0
INSERT
  5
661
100
AcDbEntity
  8
TEXT
  6
Continuous
 62
     0
100
AcDbBlockReference
  2
*B84
 10
0.0
 20
0.0
 30
0.0
  0
INSERT
  5
666
100
AcDbEntity
  8
TEXT
  6
Continuous
 62
     0
100
AcDbBlockReference
  2
*B85
 10
0.0
 20
0.0
 30
0.0
  0
INSERT
  5
66B
100
AcDbEntity
  8
TEXT
  6
Continuous
 62
     0
100
AcDbBlockReference
  2
*B86
 10
0.0
 20
0.0
 30
0.0
  0
INSERT
  5
670
100
AcDbEntity
  8
TEXT
  6
Continuous
 62
     0
100
AcDbBlockReference
  2
*B87
 10
0.0
 20
0.0
 30
0.0
  0
INSERT
  5
675
100
AcDbEntity
  8
TEXT
  6
Continuous
 62
     0
100
AcDbBlockReference
  2
*B88
 10
0.0
 20
0.0
 30
0.0
  0
INSERT
  5
67A
100
AcDbEntity
  8
TEXT
  6
Continuous
 62
     0
100
AcDbBlockReference
  2
*B89
 10
0.0
 20
0.0
 30
0.0
  0
INSERT
  5
67F
100
AcDbEntity
  8
TEXT
  6
Continuous
 62
     0
100
AcDbBlockReference
  2
*B90
 10
0.0
 20
0.0
 30
0.0
  0
INSERT
  5
684
100
AcDbEntity
  8
TEXT
  6
Continuous
 62
     0
100
AcDbBlockReference
  2
*B91
 10
0.0
 20
0.0
 30
0.0
  0
INSERT
  5
689
100
AcDbEntity
  8
TEXT
  6
Continuous
 62
     0
100
AcDbBlockReference
  2
*B92
 10
0.0
 20
0.0
 30
0.0
  0
INSERT
  5
68E
100
AcDbEntity
  8
TEXT
  6
Continuous
 62
     0
100
AcDbBlockReference
  2
*B93
 10
0.0
 20
0.0
 30
0.0
  0
INSERT
  5
693
100
AcDbEntity
  8
TEXT
  6
Continuous
 62
     0
100
AcDbBlockReference
  2
*B94
 10
0.0
 20
0.0
 30
0.0
  0
INSERT
  5
698
100
AcDbEntity
  8
TEXT
  6
Continuous
 62
     0
100
AcDbBlockReference
  2
*B95
 10
0.0
 20
0.0
 30
0.0
  0
INSERT
  5
69D
100
AcDbEntity
  8
TEXT
  6
Continuous
 62
     0
100
AcDbBlockReference
  2
*B96
 10
0.0
 20
0.0
 30
0.0
  0
INSERT
  5
6A2
100
AcDbEntity
  8
TEXT
  6
Continuous
 62
     0
100
AcDbBlockReference
  2
*B97
 10
0.0
 20
0.0
 30
0.0
  0
INSERT
  5
6A7
100
AcDbEntity
  8
TEXT
  6
Continuous
 62
     0
100
AcDbBlockReference
  2
*B98
 10
0.0
 20
0.0
 30
0.0
  0
INSERT
  5
6AC
100
AcDbEntity
  8
TEXT
  6
Continuous
 62
     0
100
AcDbBlockReference
  2
*B99
 10
0.0
 20
0.0
 30
0.0
  0
INSERT
  5
6B1
100
AcDbEntity
  8
TEXT
  6
Continuous
 62
     0
100
AcDbBlockReference
  2
*B100
 10
0.0
 20
0.0
 30
0.0
  0
INSERT
  5
6B6
100
AcDbEntity
  8
TEXT
  6
Continuous
 62
     0
100
AcDbBlockReference
  2
*B101
 10
0.0
 20
0.0
 30
0.0
  0
INSERT
  5
6BB
100
AcDbEntity
  8
TEXT
  6
Continuous
 62
     0
100
AcDbBlockReference
  2
*B102
 10
0.0
 20
0.0
 30
0.0
  0
INSERT
  5
6C0
100
AcDbEntity
  8
TEXT
  6
Continuous
 62
     0
100
AcDbBlockReference
  2
*B103
 10
0.0
 20
0.0
 30
0.0
  0
INSERT
  5
6C5
100
AcDbEntity
  8
TEXT
  6
Continuous
 62
     0
100
AcDbBlockReference
  2
*B104
 10
0.0
 20
0.0
 30
0.0
  0
INSERT
  5
6CA
100
AcDbEntity
  8
TEXT
  6
Continuous
 62
     0
100
AcDbBlockReference
  2
*B105
 10
0.0
 20
0.0
 30
0.0
  0
INSERT
  5
6CF
100
AcDbEntity
  8
TEXT
  6
Continuous
 62
     0
100
AcDbBlockReference
  2
*B106
 10
0.0
 20
0.0
 30
0.0
  0
INSERT
  5
6D4
100
AcDbEntity
  8
TEXT
  6
Continuous
 62
     0
100
AcDbBlockReference
  2
*B107
 10
0.0
 20
0.0
 30
0.0
  0
INSERT
  5
6D9
100
AcDbEntity
  8
TEXT
  6
Continuous
 62
     0
100
AcDbBlockReference
  2
*B108
 10
0.0
 20
0.0
 30
0.0
  0
INSERT
  5
6DE
100
AcDbEntity
  8
TEXT
  6
Continuous
 62
     0
100
AcDbBlockReference
  2
*B109
 10
0.0
 20
0.0
 30
0.0
  0
INSERT
  5
6E3
100
AcDbEntity
  8
TEXT
  6
Continuous
 62
     0
100
AcDbBlockReference
  2
*B110
 10
0.0
 20
0.0
 30
0.0
  0
INSERT
  5
6E8
100
AcDbEntity
  8
TEXT
  6
Continuous
 62
     0
100
AcDbBlockReference
  2
*B111
 10
0.0
 20
0.0
 30
0.0
  0
ENDSEC
  0
SECTION
  2
OBJECTS
  0
DICTIONARY
  5
19
100
AcDbDictionary
280
     0
281
     1
  3
ACAD_GROUP
350
1A
  3
ACAD_MLINESTYLE
350
1B
  3
ACAD_LAYOUT
350
1E
  3
ACAD_PLOTSETTINGS
350
22
  3
ACAD_PLOTSTYLENAME
350
1F
  3
ACAD_WIPEOUT_VARS
350
23
  0
DICTIONARY
  5
1A
102
{ACAD_REACTORS
330
19
102
}
100
AcDbDictionary
280
     0
281
     1
  0
DICTIONARY
  5
1B
102
{ACAD_REACTORS
330
19
102
}
100
AcDbDictionary
280
     0
281
     1
  3
Standard
350
1C
  0
MLINESTYLE
  5
1C
102
{ACAD_REACTORS
330
1B
102
}
100
AcDbMlineStyle
  2
Standard
 70
     0
  3

 62
     0
 51
90.0
 52
90.0
 71
     2
 49
0.5
 62
   256
  6
BYLAYER
 49
-0.5
 62
   256
  6
BYLAYER
  0
ACDBDICTIONARYWDFLT
  5
1F
102
{ACAD_REACTORS
330
19
102
}
100
AcDbDictionary
281
     1
  3
Normal
350
1D
100
AcDbDictionaryWithDefault
340
1D
  0
ACDBPLACEHOLDER
  5
1D
102
{ACAD_REACTORS
330
1F
102
}
  0
LAYOUT
  5
20
102
{ACAD_REACTORS
330
1E
102
}
100
AcDbPlotSettings
  1

  2

  4

  6

 40
0.0
 41
0.0
 42
0.0
 43
0.0
 44
0.0
 45
0.0
 46
0.0
 47
0.0
 48
0.0
 49
0.0
140
0.0
141
0.0
142
1.0
143
1.0
 70
     0
 72
     0
 73
     0
 74
     0
  7

 75
     0
147
1.0
148
0.0
149
0.0
100
AcDbLayout
  1
Model
 70
     0
 71
     0
 10
0.0
 20
0.0
 11
0.0
 21
0.0
 12
0.0
 22
0.0
 32
0.0
 14
0.0
 24
0.0
 34
0.0
 15
0.0
 25
0.0
 35
0.0
146
0.0
 13
0.0
 23
0.0
 33
0.0
 16
0.0
 26
0.0
 36
0.0
 17
0.0
 27
0.0
 37
0.0
 76
     0
330
A
331
0
345
0
346
0
  0
LAYOUT
  5
21
102
{ACAD_REACTORS
330
1E
102
}
100
AcDbPlotSettings
  1

  2

  4

  6

 40
0.0
 41
0.0
 42
0.0
 43
0.0
 44
0.0
 45
0.0
 46
0.0
 47
0.0
 48
0.0
 49
0.0
140
0.0
141
0.0
142
1.0
143
1.0
 70
     0
 72
     0
 73
     0
 74
     0
  7

 75
     0
147
1.0
148
0.0
149
0.0
100
AcDbLayout
  1
Layout1
 70
     0
 71
     0
 10
0.0
 20
0.0
 11
0.0
 21
0.0
 12
0.0
 22
0.0
 32
0.0
 14
0.0
 24
0.0
 34
0.0
 15
0.0
 25
0.0
 35
0.0
146
0.0
 13
0.0
 23
0.0
 33
0.0
 16
0.0
 26
0.0
 36
0.0
 17
0.0
 27
0.0
 37
0.0
 76
     0
330
B
331
0
345
0
346
0
  0
DICTIONARY
  5
1E
102
{ACAD_REACTORS
330
19
102
}
100
AcDbDictionary
280
     0
281
     1
  3
Layout1
350
21
  3
Model
350
20
  0
DICTIONARY
  5
22
102
{ACAD_REACTORS
330
19
102
}
100
AcDbDictionary
280
     0
281
     1
  0
WIPEOUTVARIABLES
  5
23
100
AcDbWipeoutVariables
 70
     1
  0
ENDSEC
  0
EOF
