  0
SECTION
  2
HEADER
  9
$ACADVER
  1
AC1015
  9
$ACADMAINTVER
 70
     6
  9
$DWGCODEPAGE
  3
DOS850
  9
$INSBASE
 10
0.0
 20
0.0
 30
0.0
  9
$EXTMIN
 10
0.0
 20
0.0
 30
0.0
  9
$EXTMAX
 10
420.0
 20
297.0
 30
0.0
  9
$LIMMIN
 10
0.0
 20
0.0
  9
$LIMMAX
 10
420.0
 20
297.0
  9
$ORTHOMODE
 70
     0
  9
$REGENMODE
 70
     1
  9
$FILLMODE
 70
     1
  9
$QTEXTMODE
 70
     0
  9
$MIRRTEXT
 70
     1
  9
$LTSCALE
 40
25.4
  9
$ATTMODE
 70
     1
  9
$TEXTSIZE
 40
3.5
  9
$TRACEWID
 40
0.05
  9
$TEXTSTYLE
  7
Standard
  9
$CLAYER
  8
0
  9
$CELTYPE
  6
Continuous
  9
$CECOLOR
 62
   256
  9
$CELTSCALE
 40
1.0
  9
$DISPSILH
 70
     0
  9
$DIMSCALE
 40
1.0
  9
$DIMASZ
 40
5.0
  9
$DIMEXO
 40
3.0
  9
$DIMDLI
 40
0.38
  9
$DIMRND
 40
0.0
  9
$DIMDLE
 40
0.0
  9
$DIMEXE
 40
2.0
  9
$DIMTP
 40
0.0
  9
$DIMTM
 40
0.0
  9
$DIMTXT
 40
3.5
  9
$DIMCEN
 40
4.0
  9
$DIMTSZ
 40
0.0
  9
$DIMTOL
 70
     0
  9
$DIMLIM
 70
     0
  9
$DIMTIH
 70
     1
  9
$DIMTOH
 70
     1
  9
$DIMSE1
 70
     0
  9
$DIMSE2
 70
     0
  9
$DIMTAD
 70
     0
  9
$DIMZIN
 70
     0
  9
$DIMBLK
  1

  9
$DIMASO
 70
     1
  9
$DIMSHO
 70
     1
  9
$DIMPOST
  1

  9
$DIMAPOST
  1

  9
$DIMALT
 70
     0
  9
$DIMALTD
 70
     2
  9
$DIMALTF
 40
25.4
  9
$DIMLFAC
 40
1.0
  9
$DIMTOFL
 70
     0
  9
$DIMTVP
 40
0.0
  9
$DIMTIX
 70
     0
  9
$DIMSOXD
 70
     0
  9
$DIMSAH
 70
     0
  9
$DIMBLK1
  1

  9
$DIMBLK2
  1

  9
$DIMSTYLE
  2
Standard
  9
$DIMCLRD
 70
     0
  9
$DIMCLRE
 70
     0
  9
$DIMCLRT
 70
     0
  9
$DIMTFAC
 40
1.0
  9
$DIMGAP
 40
1.0
  9
$DIMJUST
 70
     0
  9
$DIMSD1
 70
     0
  9
$DIMSD2
 70
     0
  9
$DIMTOLJ
 70
     1
  9
$DIMTZIN
 70
     0
  9
$DIMALTZ
 70
     0
  9
$DIMALTTZ
 70
     0
  9
$DIMUPT
 70
     0
  9
$DIMDEC
 70
     4
  9
$DIMTDEC
 70
     4
  9
$DIMALTU
 70
     2
  9
$DIMALTTD
 70
     2
  9
$DIMTXSTY
  7
Standard
  9
$DIMAUNIT
 70
     0
  9
$DIMADEC
 70
     0
  9
$DIMALTRND
 40
0.0
  9
$DIMAZIN
 70
     0
  9
$DIMDSEP
 70
     0
  9
$DIMATFIT
 70
     3
  9
$DIMFRAC
 70
     0
  9
$DIMLDRBLK
  1

  9
$DIMLUNIT
 70
     2
  9
$DIMLWD
 70
     0
  9
$DIMLWE
 70
     0
  9
$DIMTMOVE
 70
     0
  9
$LUNITS
 70
     2
  9
$LUPREC
 70
     4
  9
$SKETCHINC
 40
0.1
  9
$FILLETRAD
 40
0.0
  9
$AUNITS
 70
     0
  9
$AUPREC
 70
     0
  9
$MENU
  1
acad
  9
$ELEVATION
 40
0.0
  9
$PELEVATION
 40
0.0
  9
$THICKNESS
 40
0.0
  9
$LIMCHECK
 70
     0
  9
$CHAMFERA
 40
0.0
  9
$CHAMFERB
 40
0.0
  9
$CHAMFERC
 40
0.0
  9
$CHAMFERD
 40
0.0
  9
$SKPOLY
 70
     0
  9
$TDCREATE
 40
0.000000000
  9
$TDUCREATE
 40
0.000000000
  9
$TDUPDATE
 40
0.000000000
  9
$TDUUPDATE
 40
0.000000000
  9
$TDINDWG
 40
0.0000000000
  9
$TDUSRTIMER
 40
0.0000000000
  9
$USRTIMER
 70
     1
  9
$ANGBASE
 50
0.0
  9
$ANGDIR
 70
     0
  9
$PDMODE
 70
     0
  9
$PDSIZE
 40
0.0
  9
$PLINEWID
 40
0.0
  9
$SPLFRAME
 70
     0
  9
$SPLINETYPE
 70
     6
  9
$SPLINESEGS
 70
     8
  9
$HANDSEED
  5
21B
  9
$SURFTAB1
 70
     6
  9
$SURFTAB2
 70
     6
  9
$SURFTYPE
 70
     6
  9
$SURFU
 70
     6
  9
$SURFV
 70
     6
  9
$UCSBASE
  2

  9
$UCSNAME
  2

  9
$UCSORG
 10
0.0
 20
0.0
 30
0.0
  9
$UCSXDIR
 10
1.0
 20
0.0
 30
0.0
  9
$UCSYDIR
 10
0.0
 20
1.0
 30
0.0
  9
$UCSORTHOREF
  2

  9
$UCSORTHOVIEW
 70
     0
  9
$UCSORGTOP
 10
0.0
 20
0.0
 30
0.0
  9
$UCSORGBOTTOM
 10
0.0
 20
0.0
 30
0.0
  9
$UCSORGLEFT
 10
0.0
 20
0.0
 30
0.0
  9
$UCSORGRIGHT
 10
0.0
 20
0.0
 30
0.0
  9
$UCSORGFRONT
 10
0.0
 20
0.0
 30
0.0
  9
$UCSORGBACK
 10
0.0
 20
0.0
 30
0.0
  9
$PUCSBASE
  2

  9
$PUCSNAME
  2

  9
$PUCSORG
 10
0.0
 20
0.0
 30
0.0
  9
$PUCSXDIR
 10
1.0
 20
0.0
 30
0.0
  9
$PUCSYDIR
 10
0.0
 20
1.0
 30
0.0
  9
$PUCSORTHOREF
  2

  9
$PUCSORTHOVIEW
 70
     0
  9
$PUCSORGTOP
 10
0.0
 20
0.0
 30
0.0
  9
$PUCSORGBOTTOM
 10
0.0
 20
0.0
 30
0.0
  9
$PUCSORGLEFT
 10
0.0
 20
0.0
 30
0.0
  9
$PUCSORGRIGHT
 10
0.0
 20
0.0
 30
0.0
  9
$PUCSORGFRONT
 10
0.0
 20
0.0
 30
0.0
  9
$PUCSORGBACK
 10
0.0
 20
0.0
 30
0.0
  9
$USERI1
 70
     0
  9
$USERI2
 70
     0
  9
$USERI3
 70
     0
  9
$USERI4
 70
     0
  9
$USERI5
 70
     0
  9
$USERR1
 40
0.0
  9
$USERR2
 40
0.0
  9
$USERR3
 40
0.0
  9
$USERR4
 40
0.0
  9
$USERR5
 40
0.0
  9
$WORLDVIEW
 70
     1
  9
$SHADEDGE
 70
     3
  9
$SHADEDIF
 70
    70
  9
$TILEMODE
 70
     1
  9
$MAXACTVP
 70
    16
  9
$PINSBASE
 10
0.0
 20
0.0
 30
0.0
  9
$PLIMCHECK
 70
     0
  9
$PEXTMIN
 10
1.000000E+20
 20
1.000000E+20
 30
1.000000E+20
  9
$PEXTMAX
 10
-1.000000E+20
 20
-1.000000E+20
 30
-1.000000E+20
  9
$PLIMMIN
 10
0.0
 20
0.0
  9
$PLIMMAX
 10
420.0
 20
297.0
  9
$UNITMODE
 70
     0
  9
$VISRETAIN
 70
     0
  9
$PLINEGEN
 70
     1
  9
$PSLTSCALE
 70
     0
  9
$TREEDEPTH
 70
  3020
  9
$CMLSTYLE
  2
Standard
  9
$CMLJUST
 70
     0
  9
$CMLSCALE
 40
1.0
  9
$PROXYGRAPHICS
 70
     0
  9
$MEASUREMENT
 70
     0
  9
$CELWEIGHT
370
     0
  9
$ENDCAPS
280
     0
  9
$JOINSTYLE
280
     0
  9
$LWDISPLAY
290
     0
  9
$INSUNITS
 70
     0
  9
$HYPERLINKBASE
  1

  9
$XEDIT
290
     1
  9
$CEPSNTYPE
380
     0
  9
$PSTYLEMODE
290
     0
  9
$FINGERPRINTGUID
  2

  9
$VERSIONGUID
  2

  9
$EXTNAMES
290
     1
  9
$PSVPSCALE
 40
0.0
  0
ENDSEC
  0
SECTION
  2
CLASSES
  0
CLASS
  1
LWPOLYLINE
  2
AcDbPolyline
  3
"AutoCAD"
 90
        0
280
     0
281
     1
  0
CLASS
  1
IMAGE
  2
AcDbRasterImage
  3
ISM
 90
      127
280
     0
281
     1
  0
CLASS
  1
OLE2FRAME
  2
AcDbOle2Frame
  3
""
 90
        0
280
     0
281
     1
  0
CLASS
  1
HATCH
  2
AcDbHatch
  3
"ACAD_SEDONA"
 90
        0
280
     0
281
     1
  0
CLASS
  1
DICTIONARYVAR
  2
AcDbDictionaryVar
  3
"AutoCAD"
 90
        0
280
     0
281
     0
  0
CLASS
  1
RASTERVARIABLES
  2
AcDbRasterVariables
  3
ISM
 90
        0
280
     0
281
     0
  0
CLASS
  1
IMAGEDEF
  2
AcDbRasterImageDef
  3
ISM
 90
        0
280
     0
281
     0
  0
CLASS
  1
IMAGEDEF_REACTOR
  2
AcDbRasterImageDefReactor
  3
ISM
 90
        1
280
     0
281
     0
  0
CLASS
  1
IDBUFFER
  2
AcDbIdBuffer
  3
"Acad"
 90
        0
280
     0
281
     0
  0
CLASS
  1
SPATIAL_FILTER
  2
AcDbSpatialFilter
  3
"Acad"
 90
        0
280
     0
281
     0
  0
CLASS
  1
XRECORD
  2
AcDbXrecord
  3
"<Built In>"
 90
        0
280
     0
281
     0
  0
CLASS
  1
SORTENTSTABLE
  2
AcDbSortentsTable
  3
"AutoCAD"
 90
        0
280
     0
281
     0
  0
CLASS
  1
LAYER_INDEX
  2
AcDbLayerIndex
  3
"Acad"
 90
        0
280
     0
281
     0
  0
CLASS
  1
SPATIAL_INDEX
  2
AcDbSpatialIndex
  3
"Acad"
 90
        0
280
     0
281
     0
  0
CLASS
  1
OBJECT_PTR
  2
CAseDLPNTableRecord
  3
"ASE-LPNTableRecord"
 90
        1
280
     0
281
     0
  0
CLASS
  1
LAYOUT
  2
AcDbLayout
  3
"AutoCAD 2000"
 90
        1
280
     0
281
     0
  0
CLASS
  1
PLOTSETTINGS
  2
AcDbPlotSettings
  3
"AutoCAD 2000"
 90
        1
280
     0
281
     0
  0
CLASS
  1
ACDBDICTIONARYWDFLT
  2
AcDbDictionaryWithDefault
  3
"AutoCAD 2000"
 90
        1
280
     0
281
     0
  0
CLASS
  1
ACDBPLACEHOLDER
  2
AcDbPlaceHolder
  3
"AutoCAD 2000"
 90
        1
280
     0
281
     0
  0
CLASS
  1
VBA_PROJECT
  2
AcDbVbaProject
  3
"acadvba"
 90
        1
280
     0
281
     0
  0
CLASS
  1
WIPEOUT
  2
AcDbWipeout
  3
WipeOut|AutoCAD Express Tool|expresstools@autodesk.com
 90
      127
280
     0
281
     1
  0
CLASS
  1
WIPEOUTVARIABLES
  2
AcDbWipeoutVariables
  3
WipeOut|AutoCAD Express Tool|expresstools@autodesk.com
 90
        0
280
     0
281
     0
  0
CLASS
  1
RTEXT
  2
RText
  3
RText|AutoCAD Express Tool|expresstools@autodesk.com
 90
        0
280
     0
281
     1
  0
CLASS
  1
ARCALIGNEDTEXT
  2
AcDbArcAlignedText
  3
ATEXT|AutoCAD Express Tool|expresstools@autodesk.com
 90
        0
280
     0
281
     1
  0
ENDSEC
  0
SECTION
  2
TABLES
  0
TABLE
  2
VPORT
  5
7
100
AcDbSymbolTable
 70
     1
  0
VPORT
  5
15
100
AcDbSymbolTableRecord
100
AcDbViewportTableRecord
  2
*ACTIVE
 70
     0
 10
0.0
 20
0.0
 11
1.0
 21
1.0
 12
6.591288
 22
4.579184
 13
0.0
 23
0.0
 14
1.0
 24
1.0
 15
0.0
 25
0.0
 16
0.0
 26
0.0
 36
1.0
 17
0.0
 27
0.0
 37
0.0
 40
9.158369
 41
0.688564
 42
50.0
 43
0.0
 44
0.0
 50
0.0
 51
0.0
 71
     0
 72
   100
 73
     1
 74
     1
 75
     0
 76
     0
 77
     0
 78
     0
281
     0
 65
     0
110
0.0
120
0.0
130
0.0
111
1.0
121
0.0
131
0.0
112
0.0
122
1.0
132
0.0
345
0
346
0
 79
     0
146
0.0
  0
ENDTAB
  0
TABLE
  2
LTYPE
  5
4
100
AcDbSymbolTable
 70
     7
  0
LTYPE
  5
11
100
AcDbSymbolTableRecord
100
AcDbLinetypeTableRecord
  2
ByBlock
 70
    64
  3

 72
    65
 73
     0
 40
0.0
  0
LTYPE
  5
12
100
AcDbSymbolTableRecord
100
AcDbLinetypeTableRecord
  2
ByLayer
 70
    64
  3

 72
    65
 73
     0
 40
0.0
  0
LTYPE
  5
13
100
AcDbSymbolTableRecord
100
AcDbLinetypeTableRecord
  2
Continuous
 70
    64
  3
Solid line
 72
    65
 73
     0
 40
0.0
  0
LTYPE
  5
24
100
AcDbSymbolTableRecord
100
AcDbLinetypeTableRecord
  2
HIDDEN
 70
    64
  3
_ _ _ _ _ _ _ _ _ _ _ _ _ _ _ _ _ _ _ _ _ _ _ _
 72
    65
 73
     2
 40
0.1875
 49
0.125
 74
     0
 49
-0.0625
 74
     0
  0
LTYPE
  5
25
100
AcDbSymbolTableRecord
100
AcDbLinetypeTableRecord
  2
DOTTED
 70
    64
  3
...............................................
 72
    65
 73
     2
 40
0.125
 49
0.0
 74
     0
 49
-0.125
 74
     0
  0
LTYPE
  5
26
100
AcDbSymbolTableRecord
100
AcDbLinetypeTableRecord
  2
CENTER
 70
    64
  3
____ _ ____ _ ____ _ ____ _ ____ _ ____ _ ____ 
 72
    65
 73
     4
 40
1.125
 49
0.75
 74
     0
 49
-0.125
 74
     0
 49
0.125
 74
     0
 49
-0.125
 74
     0
  0
LTYPE
  5
27
100
AcDbSymbolTableRecord
100
AcDbLinetypeTableRecord
  2
PHANTOM
 70
    64
  3
______  __  __  ______  __  __  ______  __  __ 
 72
    65
 73
     6
 40
1.25
 49
0.625
 74
     0
 49
-0.125
 74
     0
 49
0.125
 74
     0
 49
-0.125
 74
     0
 49
0.125
 74
     0
 49
-0.125
 74
     0
  0
ENDTAB
  0
TABLE
  2
LAYER
  5
2
100
AcDbSymbolTable
 70
     2
  0
LAYER
  5
14
100
AcDbSymbolTableRecord
100
AcDbLayerTableRecord
  2
0
 70
     0
 62
     7
  6
Continuous
290
     1
370
    -3
390
1D
  0
LAYER
  5
28
100
AcDbSymbolTableRecord
100
AcDbLayerTableRecord
  2
TEXT
 70
     0
 62
     8
  6
Continuous
290
     1
370
    -3
390
1F
  0
ENDTAB
  0
TABLE
  2
STYLE
  5
3
100
AcDbSymbolTable
 70
     1
  0
STYLE
  5
17
100
AcDbSymbolTableRecord
100
AcDbTextStyleTableRecord
  2
Standard
 70
     0
 40
0.0
 41
1.0
 50
0.0
 71
     0
 42
0.0
  3
txt
  4

  0
ENDTAB
  0
TABLE
  2
VIEW
  5
5
100
AcDbSymbolTable
 70
     0
  0
ENDTAB
  0
TABLE
  2
UCS
  5
6
100
AcDbSymbolTable
 70
     0
  0
ENDTAB
  0
TABLE
  2
APPID
  5
8
100
AcDbSymbolTable
 70
     1
  0
APPID
  5
16
100
AcDbSymbolTableRecord
100
AcDbRegAppTableRecord
  2
ACAD
 70
     0
  0
ENDTAB
  0
TABLE
  2
DIMSTYLE
  5
9
100
AcDbSymbolTable
 70
     1
100
AcDbDimStyleTable
 71
     0
  0
DIMSTYLE
105
18
100
AcDbSymbolTableRecord
100
AcDbDimStyleTableRecord
  2
Standard
 70
     0
  3

  4

 40
1.0
 41
0.18
 42
0.0625
 43
0.38
 44
0.18
 45
0.0
 46
0.0
 47
0.0
 48
0.0
 71
     0
 72
     0
 73
     1
 74
     1
 75
     0
 76
     0
 77
     0
 78
     0
 79
     0
140
0.18
141
0.09
142
0.0
143
25.4
144
1.0
145
0.0
146
1.0
147
0.09
148
0.0
170
     0
171
     2
172
     0
173
     0
174
     0
175
     0
176
     0
177
     0
178
     0
179
     0
271
     4
272
     4
273
     2
274
     2
275
     0
276
     0
277
     2
278
    46
279
     0
280
     0
281
     0
282
     0
283
     1
284
     0
285
     0
286
     0
288
     0
340
17
341
0
342
0
343
0
344
0
371
    -2
372
    -2
  0
ENDTAB
  0
TABLE
  2
BLOCK_RECORD
  5
1
100
AcDbSymbolTable
 70
    61
  0
BLOCK_RECORD
  5
A
100
AcDbSymbolTableRecord
100
AcDbBlockTableRecord
  2
*MODEL_SPACE
340
20
  0
BLOCK_RECORD
  5
B
100
AcDbSymbolTableRecord
100
AcDbBlockTableRecord
  2
*PAPER_SPACE
340
21
  0
BLOCK_RECORD
  5
29
100
AcDbSymbolTableRecord
100
AcDbBlockTableRecord
  2
*B0
340
0
  0
BLOCK_RECORD
  5
2C
100
AcDbSymbolTableRecord
100
AcDbBlockTableRecord
  2
*B1
340
0
  0
BLOCK_RECORD
  5
4C
100
AcDbSymbolTableRecord
100
AcDbBlockTableRecord
  2
*B2
340
0
  0
BLOCK_RECORD
  5
7F
100
AcDbSymbolTableRecord
100
AcDbBlockTableRecord
  2
*B3
340
0
  0
BLOCK_RECORD
  5
86
100
AcDbSymbolTableRecord
100
AcDbBlockTableRecord
  2
*B4
340
0
  0
BLOCK_RECORD
  5
8D
100
AcDbSymbolTableRecord
100
AcDbBlockTableRecord
  2
*B5
340
0
  0
BLOCK_RECORD
  5
94
100
AcDbSymbolTableRecord
100
AcDbBlockTableRecord
  2
*B6
340
0
  0
BLOCK_RECORD
  5
9B
100
AcDbSymbolTableRecord
100
AcDbBlockTableRecord
  2
*B7
340
0
  0
BLOCK_RECORD
  5
A2
100
AcDbSymbolTableRecord
100
AcDbBlockTableRecord
  2
*B8
340
0
  0
BLOCK_RECORD
  5
A9
100
AcDbSymbolTableRecord
100
AcDbBlockTableRecord
  2
*B9
340
0
  0
BLOCK_RECORD
  5
B0
100
AcDbSymbolTableRecord
100
AcDbBlockTableRecord
  2
*B10
340
0
  0
BLOCK_RECORD
  5
B7
100
AcDbSymbolTableRecord
100
AcDbBlockTableRecord
  2
*B11
340
0
  0
BLOCK_RECORD
  5
BE
100
AcDbSymbolTableRecord
100
AcDbBlockTableRecord
  2
*B12
340
0
  0
BLOCK_RECORD
  5
C5
100
AcDbSymbolTableRecord
100
AcDbBlockTableRecord
  2
*B13
340
0
  0
BLOCK_RECORD
  5
CC
100
AcDbSymbolTableRecord
100
AcDbBlockTableRecord
  2
*B14
340
0
  0
BLOCK_RECORD
  5
D3
100
AcDbSymbolTableRecord
100
AcDbBlockTableRecord
  2
*B15
340
0
  0
BLOCK_RECORD
  5
DA
100
AcDbSymbolTableRecord
100
AcDbBlockTableRecord
  2
*B16
340
0
  0
BLOCK_RECORD
  5
E1
100
AcDbSymbolTableRecord
100
AcDbBlockTableRecord
  2
*B17
340
0
  0
BLOCK_RECORD
  5
EA
100
AcDbSymbolTableRecord
100
AcDbBlockTableRecord
  2
*B18
340
0
  0
BLOCK_RECORD
  5
F7
100
AcDbSymbolTableRecord
100
AcDbBlockTableRecord
  2
*B19
340
0
  0
BLOCK_RECORD
  5
100
100
AcDbSymbolTableRecord
100
AcDbBlockTableRecord
  2
*B20
340
0
  0
BLOCK_RECORD
  5
105
100
AcDbSymbolTableRecord
100
AcDbBlockTableRecord
  2
*B21
340
0
  0
BLOCK_RECORD
  5
10B
100
AcDbSymbolTableRecord
100
AcDbBlockTableRecord
  2
*B22
340
0
  0
BLOCK_RECORD
  5
110
100
AcDbSymbolTableRecord
100
AcDbBlockTableRecord
  2
*B23
340
0
  0
BLOCK_RECORD
  5
122
100
AcDbSymbolTableRecord
100
AcDbBlockTableRecord
  2
*B24
340
0
  0
BLOCK_RECORD
  5
132
100
AcDbSymbolTableRecord
100
AcDbBlockTableRecord
  2
*B25
340
0
  0
BLOCK_RECORD
  5
137
100
AcDbSymbolTableRecord
100
AcDbBlockTableRecord
  2
*B26
340
0
  0
BLOCK_RECORD
  5
140
100
AcDbSymbolTableRecord
100
AcDbBlockTableRecord
  2
*B27
340
0
  0
BLOCK_RECORD
  5
145
100
AcDbSymbolTableRecord
100
AcDbBlockTableRecord
  2
*B28
340
0
  0
BLOCK_RECORD
  5
152
100
AcDbSymbolTableRecord
100
AcDbBlockTableRecord
  2
*B29
340
0
  0
BLOCK_RECORD
  5
161
100
AcDbSymbolTableRecord
100
AcDbBlockTableRecord
  2
*B30
340
0
  0
BLOCK_RECORD
  5
16C
100
AcDbSymbolTableRecord
100
AcDbBlockTableRecord
  2
*B31
340
0
  0
BLOCK_RECORD
  5
17C
100
AcDbSymbolTableRecord
100
AcDbBlockTableRecord
  2
*B32
340
0
  0
BLOCK_RECORD
  5
185
100
AcDbSymbolTableRecord
100
AcDbBlockTableRecord
  2
*B33
340
0
  0
BLOCK_RECORD
  5
18A
100
AcDbSymbolTableRecord
100
AcDbBlockTableRecord
  2
*B34
340
0
  0
BLOCK_RECORD
  5
18F
100
AcDbSymbolTableRecord
100
AcDbBlockTableRecord
  2
*B35
340
0
  0
BLOCK_RECORD
  5
194
100
AcDbSymbolTableRecord
100
AcDbBlockTableRecord
  2
*B36
340
0
  0
BLOCK_RECORD
  5
19D
100
AcDbSymbolTableRecord
100
AcDbBlockTableRecord
  2
*B37
340
0
  0
BLOCK_RECORD
  5
1A2
100
AcDbSymbolTableRecord
100
AcDbBlockTableRecord
  2
*B38
340
0
  0
BLOCK_RECORD
  5
1A8
100
AcDbSymbolTableRecord
100
AcDbBlockTableRecord
  2
*B39
340
0
  0
BLOCK_RECORD
  5
1AE
100
AcDbSymbolTableRecord
100
AcDbBlockTableRecord
  2
*B40
340
0
  0
BLOCK_RECORD
  5
1B4
100
AcDbSymbolTableRecord
100
AcDbBlockTableRecord
  2
*B41
340
0
  0
BLOCK_RECORD
  5
1BA
100
AcDbSymbolTableRecord
100
AcDbBlockTableRecord
  2
*B42
340
0
  0
BLOCK_RECORD
  5
1C0
100
AcDbSymbolTableRecord
100
AcDbBlockTableRecord
  2
*B43
340
0
  0
BLOCK_RECORD
  5
1C6
100
AcDbSymbolTableRecord
100
AcDbBlockTableRecord
  2
*B44
340
0
  0
BLOCK_RECORD
  5
1CB
100
AcDbSymbolTableRecord
100
AcDbBlockTableRecord
  2
*B45
340
0
  0
BLOCK_RECORD
  5
1D0
100
AcDbSymbolTableRecord
100
AcDbBlockTableRecord
  2
*B46
340
0
  0
BLOCK_RECORD
  5
1D5
100
AcDbSymbolTableRecord
100
AcDbBlockTableRecord
  2
*B47
340
0
  0
BLOCK_RECORD
  5
1DA
100
AcDbSymbolTableRecord
100
AcDbBlockTableRecord
  2
*B48
340
0
  0
BLOCK_RECORD
  5
1DF
100
AcDbSymbolTableRecord
100
AcDbBlockTableRecord
  2
*B49
340
0
  0
BLOCK_RECORD
  5
1E4
100
AcDbSymbolTableRecord
100
AcDbBlockTableRecord
  2
*B50
340
0
  0
BLOCK_RECORD
  5
1E9
100
AcDbSymbolTableRecord
100
AcDbBlockTableRecord
  2
*B51
340
0
  0
BLOCK_RECORD
  5
1EE
100
AcDbSymbolTableRecord
100
AcDbBlockTableRecord
  2
*B52
340
0
  0
BLOCK_RECORD
  5
1F3
100
AcDbSymbolTableRecord
100
AcDbBlockTableRecord
  2
*B53
340
0
  0
BLOCK_RECORD
  5
1F8
100
AcDbSymbolTableRecord
100
AcDbBlockTableRecord
  2
*B54
340
0
  0
BLOCK_RECORD
  5
1FD
100
AcDbSymbolTableRecord
100
AcDbBlockTableRecord
  2
*B55
340
0
  0
BLOCK_RECORD
  5
202
100
AcDbSymbolTableRecord
100
AcDbBlockTableRecord
  2
*B56
340
0
  0
BLOCK_RECORD
  5
207
100
AcDbSymbolTableRecord
100
AcDbBlockTableRecord
  2
*B57
340
0
  0
BLOCK_RECORD
  5
20C
100
AcDbSymbolTableRecord
100
AcDbBlockTableRecord
  2
*B58
340
0
  0
BLOCK_RECORD
  5
211
100
AcDbSymbolTableRecord
100
AcDbBlockTableRecord
  2
*B59
340
0
  0
BLOCK_RECORD
  5
216
100
AcDbSymbolTableRecord
100
AcDbBlockTableRecord
  2
*B60
340
0
  0
ENDTAB
  0
ENDSEC
  0
SECTION
  2
BLOCKS
  0
BLOCK
  5
D
100
AcDbEntity
  8
0
100
AcDbBlockBegin
  2
*MODEL_SPACE
 70
     0
 10
0.0
 20
0.0
 30
0.0
  3
*MODEL_SPACE
  1

  0
ENDBLK
  5
E
100
AcDbEntity
  8
0
100
AcDbBlockEnd
  0
BLOCK
  5
F
100
AcDbEntity
 67
     1
  8
0
100
AcDbBlockBegin
  2
*PAPER_SPACE
 70
     0
 10
0.0
 20
0.0
 30
0.0
  3
*PAPER_SPACE
  1

  0
ENDBLK
  5
10
100
AcDbEntity
 67
     1
  8
0
100
AcDbBlockEnd
  0
BLOCK
  5
2A
100
AcDbEntity
  8
0
100
AcDbBlockBegin
  2
*B0
 70
     0
 10
0.0
 20
0.0
 30
0.0
  3
*B0
  1

  0
ENDBLK
  5
2B
100
AcDbEntity
  8
0
100
AcDbBlockEnd
  0
BLOCK
  5
2D
100
AcDbEntity
  8
0
100
AcDbBlockBegin
  2
*B1
 70
     0
 10
0.0
 20
0.0
 30
0.0
  3
*B1
  1

  0
ARC
  5
2E
100
AcDbEntity
  8
0
  6
Continuous
 62
   174
100
AcDbCircle
 10
233.439894
 20
79.550896
 30
0.0
 40
9.73
100
AcDbArc
 50
-180.0
 51
0.0
  0
ARC
  5
2F
100
AcDbEntity
  8
0
  6
Continuous
 62
   174
100
AcDbCircle
 10
233.439894
 20
79.550896
 30
0.0
 40
9.73
100
AcDbArc
 50
0.0
 51
118.807171
  0
ARC
  5
30
100
AcDbEntity
  8
0
  6
Continuous
 62
   174
100
AcDbCircle
 10
197.439894
 20
79.550896
 30
0.0
 40
9.73
100
AcDbArc
 50
-180.0
 51
0.0
  0
ARC
  5
31
100
AcDbEntity
  8
0
  6
Continuous
 62
   174
100
AcDbCircle
 10
197.439894
 20
79.550896
 30
0.0
 40
9.73
100
AcDbArc
 50
0.0
 51
118.789674
  0
ARC
  5
32
100
AcDbEntity
  8
0
  6
Continuous
 62
   174
100
AcDbCircle
 10
169.439894
 20
93.550896
 30
0.0
 40
9.73
100
AcDbArc
 50
-180.0
 51
0.0
  0
ARC
  5
33
100
AcDbEntity
  8
0
  6
Continuous
 62
   174
100
AcDbCircle
 10
169.439894
 20
93.550896
 30
0.0
 40
9.73
100
AcDbArc
 50
0.0
 51
118.805294
  0
ARC
  5
34
100
AcDbEntity
  8
0
  6
Continuous
 62
   174
100
AcDbCircle
 10
215.439894
 20
107.550896
 30
0.0
 40
9.73
100
AcDbArc
 50
-180.0
 51
0.0
  0
ARC
  5
35
100
AcDbEntity
  8
0
  6
Continuous
 62
   174
100
AcDbCircle
 10
215.439894
 20
107.550896
 30
0.0
 40
9.73
100
AcDbArc
 50
0.0
 51
118.789674
  0
ARC
  5
36
100
AcDbEntity
  8
0
  6
Continuous
 62
   174
100
AcDbCircle
 10
169.439894
 20
93.550896
 30
0.0
 40
8.75
100
AcDbArc
 50
0.0
 51
180.0
  0
ARC
  5
37
100
AcDbEntity
  8
0
  6
Continuous
 62
   174
100
AcDbCircle
 10
169.439894
 20
93.550896
 30
0.0
 40
8.75
100
AcDbArc
 50
-180.0
 51
0.0
  0
ARC
  5
38
100
AcDbEntity
  8
0
  6
Continuous
 62
   174
100
AcDbCircle
 10
197.439894
 20
79.550896
 30
0.0
 40
8.75
100
AcDbArc
 50
0.0
 51
180.0
  0
ARC
  5
39
100
AcDbEntity
  8
0
  6
Continuous
 62
   174
100
AcDbCircle
 10
197.439894
 20
79.550896
 30
0.0
 40
8.75
100
AcDbArc
 50
-180.0
 51
0.0
  0
ARC
  5
3A
100
AcDbEntity
  8
0
  6
Continuous
 62
   174
100
AcDbCircle
 10
233.439894
 20
79.550896
 30
0.0
 40
8.75
100
AcDbArc
 50
0.0
 51
180.0
  0
LINE
  5
3B
100
AcDbEntity
  8
0
  6
Continuous
 62
   174
100
AcDbLine
 10
261.439894
 20
63.550896
 30
0.0
 11
261.439894
 21
123.550896
 31
0.0
  0
LINE
  5
3C
100
AcDbEntity
  8
0
  6
Continuous
 62
   174
100
AcDbLine
 10
153.439894
 20
123.550896
 30
0.0
 11
153.439894
 21
63.550896
 31
0.0
  0
ARC
  5
3D
100
AcDbEntity
  8
0
  6
Continuous
 62
   174
100
AcDbCircle
 10
245.439894
 20
113.550896
 30
0.0
 40
4.5
100
AcDbArc
 50
0.0
 51
180.0
  0
ARC
  5
3E
100
AcDbEntity
  8
0
  6
Continuous
 62
   174
100
AcDbCircle
 10
181.439894
 20
113.550896
 30
0.0
 40
7.5
100
AcDbArc
 50
-180.0
 51
0.0
  0
ARC
  5
3F
100
AcDbEntity
  8
0
  6
Continuous
 62
   174
100
AcDbCircle
 10
181.439894
 20
113.550896
 30
0.0
 40
7.5
100
AcDbArc
 50
0.0
 51
180.0
  0
LINE
  5
40
100
AcDbEntity
  8
0
  6
Continuous
 62
   174
100
AcDbLine
 10
153.439894
 20
63.550896
 30
0.0
 11
261.439894
 21
63.550896
 31
0.0
  0
ARC
  5
41
100
AcDbEntity
  8
0
  6
Continuous
 62
   174
100
AcDbCircle
 10
181.439894
 20
113.550896
 30
0.0
 40
4.5
100
AcDbArc
 50
-180.0
 51
0.0
  0
ARC
  5
42
100
AcDbEntity
  8
0
  6
Continuous
 62
   174
100
AcDbCircle
 10
233.439894
 20
79.550896
 30
0.0
 40
8.75
100
AcDbArc
 50
-180.0
 51
0.0
  0
ARC
  5
43
100
AcDbEntity
  8
0
  6
Continuous
 62
   174
100
AcDbCircle
 10
215.439894
 20
107.550896
 30
0.0
 40
8.75
100
AcDbArc
 50
0.0
 51
180.0
  0
ARC
  5
44
100
AcDbEntity
  8
0
  6
Continuous
 62
   174
100
AcDbCircle
 10
181.439894
 20
113.550896
 30
0.0
 40
4.5
100
AcDbArc
 50
0.0
 51
180.0
  0
ARC
  5
45
100
AcDbEntity
  8
0
  6
Continuous
 62
   174
100
AcDbCircle
 10
215.439894
 20
107.550896
 30
0.0
 40
8.75
100
AcDbArc
 50
-180.0
 51
0.0
  0
ARC
  5
46
100
AcDbEntity
  8
0
  6
Continuous
 62
   174
100
AcDbCircle
 10
245.439894
 20
113.550896
 30
0.0
 40
7.5
100
AcDbArc
 50
-180.0
 51
0.0
  0
ARC
  5
47
100
AcDbEntity
  8
0
  6
Continuous
 62
   174
100
AcDbCircle
 10
245.439894
 20
113.550896
 30
0.0
 40
7.5
100
AcDbArc
 50
0.0
 51
180.0
  0
LINE
  5
48
100
AcDbEntity
  8
0
  6
Continuous
 62
   174
100
AcDbLine
 10
261.439894
 20
123.550896
 30
0.0
 11
153.439894
 21
123.550896
 31
0.0
  0
ARC
  5
49
100
AcDbEntity
  8
0
  6
Continuous
 62
   174
100
AcDbCircle
 10
245.439894
 20
113.550896
 30
0.0
 40
4.5
100
AcDbArc
 50
-180.0
 51
0.0
  0
ENDBLK
  5
4A
100
AcDbEntity
  8
0
100
AcDbBlockEnd
  0
BLOCK
  5
4D
100
AcDbEntity
  8
0
100
AcDbBlockBegin
  2
*B2
 70
     0
 10
0.0
 20
0.0
 30
0.0
  3
*B2
  1

  0
LINE
  5
4E
100
AcDbEntity
  8
0
  6
HIDDEN
 62
   174
100
AcDbLine
 10
206.715446
 20
211.665517
 30
0.0
 11
224.215379
 21
211.665517
 31
0.0
  0
LINE
  5
4F
100
AcDbEntity
  8
0
  6
HIDDEN
 62
   174
100
AcDbLine
 10
224.189894
 20
213.665517
 30
0.0
 11
224.189894
 21
229.665517
 31
0.0
  0
LINE
  5
50
100
AcDbEntity
  8
0
  6
HIDDEN
 62
   174
100
AcDbLine
 10
206.689894
 20
213.665517
 30
0.0
 11
206.689894
 21
229.665517
 31
0.0
  0
LINE
  5
51
100
AcDbEntity
  8
0
  6
HIDDEN
 62
   174
100
AcDbLine
 10
224.189894
 20
213.665517
 30
0.0
 11
224.189894
 21
229.665517
 31
0.0
  0
LINE
  5
52
100
AcDbEntity
  8
0
  6
HIDDEN
 62
   174
100
AcDbLine
 10
206.689894
 20
213.665517
 30
0.0
 11
206.689894
 21
229.665517
 31
0.0
  0
LINE
  5
53
100
AcDbEntity
  8
0
  6
HIDDEN
 62
   174
100
AcDbLine
 10
206.689894
 20
229.665517
 30
0.0
 11
206.689894
 21
211.665517
 31
0.0
  0
LINE
  5
54
100
AcDbEntity
  8
0
  6
HIDDEN
 62
   174
100
AcDbLine
 10
224.189894
 20
229.665517
 30
0.0
 11
224.189894
 21
211.665517
 31
0.0
  0
LINE
  5
55
100
AcDbEntity
  8
0
  6
HIDDEN
 62
   174
100
AcDbLine
 10
206.689894
 20
229.665517
 30
0.0
 11
206.689894
 21
211.665517
 31
0.0
  0
LINE
  5
56
100
AcDbEntity
  8
0
  6
HIDDEN
 62
   174
100
AcDbLine
 10
224.189894
 20
229.665517
 30
0.0
 11
224.189894
 21
211.665517
 31
0.0
  0
LINE
  5
57
100
AcDbEntity
  8
0
  6
HIDDEN
 62
   174
100
AcDbLine
 10
225.195608
 20
213.665517
 30
0.0
 11
205.735517
 21
213.665517
 31
0.0
  0
LINE
  5
58
100
AcDbEntity
  8
0
  6
HIDDEN
 62
   174
100
AcDbLine
 10
225.169894
 20
213.665517
 30
0.0
 11
225.169894
 21
229.665517
 31
0.0
  0
LINE
  5
59
100
AcDbEntity
  8
0
  6
HIDDEN
 62
   174
100
AcDbLine
 10
225.195608
 20
229.665517
 30
0.0
 11
205.735517
 21
229.665517
 31
0.0
  0
LINE
  5
5A
100
AcDbEntity
  8
0
  6
HIDDEN
 62
   174
100
AcDbLine
 10
205.709894
 20
213.665517
 30
0.0
 11
205.709894
 21
229.665517
 31
0.0
  0
LINE
  5
5B
100
AcDbEntity
  8
0
  6
HIDDEN
 62
   174
100
AcDbLine
 10
206.715446
 20
229.665517
 30
0.0
 11
224.215379
 21
229.665517
 31
0.0
  0
LINE
  5
5C
100
AcDbEntity
  8
0
  6
HIDDEN
 62
   174
100
AcDbLine
 10
188.939894
 20
229.665517
 30
0.0
 11
188.939894
 21
221.265517
 31
0.0
  0
LINE
  5
5D
100
AcDbEntity
  8
0
  6
HIDDEN
 62
   174
100
AcDbLine
 10
242.194161
 20
229.665517
 30
0.0
 11
252.965569
 21
229.665517
 31
0.0
  0
LINE
  5
5E
100
AcDbEntity
  8
0
  6
HIDDEN
 62
   174
100
AcDbLine
 10
185.965405
 20
221.265517
 30
0.0
 11
176.965499
 21
221.265517
 31
0.0
  0
LINE
  5
5F
100
AcDbEntity
  8
0
  6
HIDDEN
 62
   174
100
AcDbLine
 10
237.939894
 20
229.665517
 30
0.0
 11
237.939894
 21
221.265517
 31
0.0
  0
LINE
  5
60
100
AcDbEntity
  8
0
  6
HIDDEN
 62
   174
100
AcDbLine
 10
173.965631
 20
229.665517
 30
0.0
 11
178.194165
 21
229.665517
 31
0.0
  0
LINE
  5
61
100
AcDbEntity
  8
0
  6
HIDDEN
 62
   174
100
AcDbLine
 10
176.939894
 20
169.665517
 30
0.0
 11
176.939894
 21
221.265517
 31
0.0
  0
LINE
  5
62
100
AcDbEntity
  8
0
  6
HIDDEN
 62
   174
100
AcDbLine
 10
225.169894
 20
213.665517
 30
0.0
 11
225.169894
 21
229.665517
 31
0.0
  0
LINE
  5
63
100
AcDbEntity
  8
0
  6
HIDDEN
 62
   174
100
AcDbLine
 10
173.939894
 20
229.665517
 30
0.0
 11
173.939894
 21
221.265517
 31
0.0
  0
LINE
  5
64
100
AcDbEntity
  8
0
  6
HIDDEN
 62
   174
100
AcDbLine
 10
240.939894
 20
169.665517
 30
0.0
 11
240.939894
 21
221.265517
 31
0.0
  0
LINE
  5
65
100
AcDbEntity
  8
0
  6
HIDDEN
 62
   174
100
AcDbLine
 10
252.939894
 20
229.665517
 30
0.0
 11
252.939894
 21
221.265517
 31
0.0
  0
LINE
  5
66
100
AcDbEntity
  8
0
  6
HIDDEN
 62
   174
100
AcDbLine
 10
188.709927
 20
229.665517
 30
0.0
 11
188.965573
 21
229.665517
 31
0.0
  0
LINE
  5
67
100
AcDbEntity
  8
0
  6
HIDDEN
 62
   174
100
AcDbLine
 10
185.939894
 20
169.665517
 30
0.0
 11
185.939894
 21
221.265517
 31
0.0
  0
LINE
  5
68
100
AcDbEntity
  8
0
  6
HIDDEN
 62
   174
100
AcDbLine
 10
249.965401
 20
169.665517
 30
0.0
 11
240.965495
 21
169.665517
 31
0.0
  0
LINE
  5
69
100
AcDbEntity
  8
0
  6
HIDDEN
 62
   174
100
AcDbLine
 10
205.709894
 20
213.665517
 30
0.0
 11
205.709894
 21
229.665517
 31
0.0
  0
LINE
  5
6A
100
AcDbEntity
  8
0
  6
HIDDEN
 62
   174
100
AcDbLine
 10
188.939894
 20
229.665517
 30
0.0
 11
188.939894
 21
221.265517
 31
0.0
  0
LINE
  5
6B
100
AcDbEntity
  8
0
  6
HIDDEN
 62
   174
100
AcDbLine
 10
178.194165
 20
229.665517
 30
0.0
 11
188.709927
 21
229.665517
 31
0.0
  0
LINE
  5
6C
100
AcDbEntity
  8
0
  6
HIDDEN
 62
   174
100
AcDbLine
 10
249.939894
 20
169.665517
 30
0.0
 11
249.939894
 21
221.265517
 31
0.0
  0
LINE
  5
6D
100
AcDbEntity
  8
0
  6
HIDDEN
 62
   174
100
AcDbLine
 10
240.939894
 20
169.665517
 30
0.0
 11
240.939894
 21
221.265517
 31
0.0
  0
LINE
  5
6E
100
AcDbEntity
  8
0
  6
Continuous
 62
   174
100
AcDbLine
 10
153.439894
 20
169.665517
 30
0.0
 11
261.439894
 21
169.665517
 31
0.0
  0
LINE
  5
6F
100
AcDbEntity
  8
0
  6
HIDDEN
 62
   174
100
AcDbLine
 10
237.939894
 20
229.665517
 30
0.0
 11
237.939894
 21
221.265517
 31
0.0
  0
LINE
  5
70
100
AcDbEntity
  8
0
  6
HIDDEN
 62
   174
100
AcDbLine
 10
249.965401
 20
221.265517
 30
0.0
 11
240.965495
 21
221.265517
 31
0.0
  0
LINE
  5
71
100
AcDbEntity
  8
0
  6
HIDDEN
 62
   174
100
AcDbLine
 10
176.939894
 20
169.665517
 30
0.0
 11
176.939894
 21
221.265517
 31
0.0
  0
LINE
  5
72
100
AcDbEntity
  8
0
  6
Continuous
 62
   174
100
AcDbLine
 10
153.439894
 20
229.665517
 30
0.0
 11
261.439894
 21
229.665517
 31
0.0
  0
LINE
  5
73
100
AcDbEntity
  8
0
  6
Continuous
 62
   174
100
AcDbLine
 10
153.439894
 20
169.665517
 30
0.0
 11
153.439894
 21
229.665517
 31
0.0
  0
LINE
  5
74
100
AcDbEntity
  8
0
  6
HIDDEN
 62
   174
100
AcDbLine
 10
173.965631
 20
221.265517
 30
0.0
 11
188.965573
 21
221.265517
 31
0.0
  0
LINE
  5
75
100
AcDbEntity
  8
0
  6
HIDDEN
 62
   174
100
AcDbLine
 10
173.939894
 20
229.665517
 30
0.0
 11
173.939894
 21
221.265517
 31
0.0
  0
LINE
  5
76
100
AcDbEntity
  8
0
  6
HIDDEN
 62
   174
100
AcDbLine
 10
249.939894
 20
169.665517
 30
0.0
 11
249.939894
 21
221.265517
 31
0.0
  0
LINE
  5
77
100
AcDbEntity
  8
0
  6
Continuous
 62
   174
100
AcDbLine
 10
261.439894
 20
169.665517
 30
0.0
 11
261.439894
 21
229.665517
 31
0.0
  0
LINE
  5
78
100
AcDbEntity
  8
0
  6
HIDDEN
 62
   174
100
AcDbLine
 10
237.965627
 20
221.265517
 30
0.0
 11
252.965569
 21
221.265517
 31
0.0
  0
LINE
  5
79
100
AcDbEntity
  8
0
  6
HIDDEN
 62
   174
100
AcDbLine
 10
252.939894
 20
229.665517
 30
0.0
 11
252.939894
 21
221.265517
 31
0.0
  0
LINE
  5
7A
100
AcDbEntity
  8
0
  6
HIDDEN
 62
   174
100
AcDbLine
 10
237.965627
 20
229.665517
 30
0.0
 11
242.194161
 21
229.665517
 31
0.0
  0
LINE
  5
7B
100
AcDbEntity
  8
0
  6
HIDDEN
 62
   174
100
AcDbLine
 10
185.939894
 20
169.665517
 30
0.0
 11
185.939894
 21
221.265517
 31
0.0
  0
LINE
  5
7C
100
AcDbEntity
  8
0
  6
HIDDEN
 62
   174
100
AcDbLine
 10
185.965405
 20
169.665517
 30
0.0
 11
176.965499
 21
169.665517
 31
0.0
  0
ENDBLK
  5
7D
100
AcDbEntity
  8
0
100
AcDbBlockEnd
  0
BLOCK
  5
80
100
AcDbEntity
  8
0
100
AcDbBlockBegin
  2
*B3
 70
     0
 10
0.0
 20
0.0
 30
0.0
  3
*B3
  1

  0
LINE
  5
81
100
AcDbEntity
  8
0
  6
Continuous
 62
     0
100
AcDbLine
 10
296.025667
 20
123.593316
 30
0.0
 11
296.025667
 21
63.597751
 31
0.0
  0
SOLID
  5
82
100
AcDbEntity
  8
0
  6
Continuous
 62
     0
100
AcDbTrace
 10
297.025723
 20
118.593636
 30
0.0
 11
296.025667
 21
123.593316
 31
0.0
 12
295.025611
 22
118.593636
 32
0.0
 13
295.025611
 23
118.593636
 33
0.0
  0
SOLID
  5
83
100
AcDbEntity
  8
0
  6
Continuous
 62
     0
100
AcDbTrace
 10
295.025611
 20
68.597431
 30
0.0
 11
296.025667
 21
63.597751
 31
0.0
 12
297.025723
 22
68.597431
 32
0.0
 13
297.025723
 23
68.597431
 33
0.0
  0
ENDBLK
  5
84
100
AcDbEntity
  8
0
100
AcDbBlockEnd
  0
BLOCK
  5
87
100
AcDbEntity
  8
0
100
AcDbBlockBegin
  2
*B4
 70
     0
 10
0.0
 20
0.0
 30
0.0
  3
*B4
  1

  0
LINE
  5
88
100
AcDbEntity
  8
0
  6
Continuous
 62
     0
100
AcDbLine
 10
140.025601
 20
107.594519
 30
0.0
 11
140.025601
 21
79.596548
 31
0.0
  0
SOLID
  5
89
100
AcDbEntity
  8
0
  6
Continuous
 62
     0
100
AcDbTrace
 10
141.025658
 20
102.594838
 30
0.0
 11
140.025601
 21
107.594519
 31
0.0
 12
139.025545
 22
102.594838
 32
0.0
 13
139.025545
 23
102.594838
 33
0.0
  0
SOLID
  5
8A
100
AcDbEntity
  8
0
  6
Continuous
 62
     0
100
AcDbTrace
 10
139.025545
 20
84.596229
 30
0.0
 11
140.025601
 21
79.596548
 31
0.0
 12
141.025658
 22
84.596229
 32
0.0
 13
141.025658
 23
84.596229
 33
0.0
  0
ENDBLK
  5
8B
100
AcDbEntity
  8
0
100
AcDbBlockEnd
  0
BLOCK
  5
8E
100
AcDbEntity
  8
0
100
AcDbBlockBegin
  2
*B5
 70
     0
 10
0.0
 20
0.0
 30
0.0
  3
*B5
  1

  0
LINE
  5
8F
100
AcDbEntity
  8
0
  6
Continuous
 62
     0
100
AcDbLine
 10
233.465524
 20
48.047762
 30
0.0
 11
197.465601
 21
48.047762
 31
0.0
  0
SOLID
  5
90
100
AcDbEntity
  8
0
  6
Continuous
 62
     0
100
AcDbTrace
 10
228.465543
 20
47.048006
 30
0.0
 11
233.465524
 21
48.047762
 31
0.0
 12
228.465543
 22
49.047818
 32
0.0
 13
228.465543
 23
49.047818
 33
0.0
  0
SOLID
  5
91
100
AcDbEntity
  8
0
  6
Continuous
 62
     0
100
AcDbTrace
 10
202.465582
 20
49.047818
 30
0.0
 11
197.465601
 21
48.047762
 31
0.0
 12
202.465582
 22
47.048006
 32
0.0
 13
202.465582
 23
47.048006
 33
0.0
  0
ENDBLK
  5
92
100
AcDbEntity
  8
0
100
AcDbBlockEnd
  0
BLOCK
  5
95
100
AcDbEntity
  8
0
100
AcDbBlockBegin
  2
*B6
 70
     0
 10
0.0
 20
0.0
 30
0.0
  3
*B6
  1

  0
LINE
  5
96
100
AcDbEntity
  8
0
  6
Continuous
 62
     0
100
AcDbLine
 10
169.465528
 20
48.047762
 30
0.0
 11
197.465601
 21
48.047762
 31
0.0
  0
SOLID
  5
97
100
AcDbEntity
  8
0
  6
Continuous
 62
     0
100
AcDbTrace
 10
174.465508
 20
49.047818
 30
0.0
 11
169.465528
 21
48.047762
 31
0.0
 12
174.465508
 22
47.048006
 32
0.0
 13
174.465508
 23
47.048006
 33
0.0
  0
SOLID
  5
98
100
AcDbEntity
  8
0
  6
Continuous
 62
     0
100
AcDbTrace
 10
192.46562
 20
47.048006
 30
0.0
 11
197.465601
 21
48.047762
 31
0.0
 12
192.46562
 22
49.047818
 32
0.0
 13
192.46562
 23
49.047818
 33
0.0
  0
ENDBLK
  5
99
100
AcDbEntity
  8
0
100
AcDbBlockEnd
  0
BLOCK
  5
9C
100
AcDbEntity
  8
0
100
AcDbBlockBegin
  2
*B7
 70
     0
 10
0.0
 20
0.0
 30
0.0
  3
*B7
  1

  0
LINE
  5
9D
100
AcDbEntity
  8
0
  6
Continuous
 62
     0
100
AcDbLine
 10
143.465567
 20
48.047762
 30
0.0
 11
179.465489
 21
48.047762
 31
0.0
  0
SOLID
  5
9E
100
AcDbEntity
  8
0
  6
Continuous
 62
     0
100
AcDbTrace
 10
148.465548
 20
47.048006
 30
0.0
 11
153.465528
 21
48.047762
 31
0.0
 12
148.465548
 22
49.047818
 32
0.0
 13
148.465548
 23
49.047818
 33
0.0
  0
SOLID
  5
9F
100
AcDbEntity
  8
0
  6
Continuous
 62
     0
100
AcDbTrace
 10
174.465508
 20
49.047818
 30
0.0
 11
169.465528
 21
48.047762
 31
0.0
 12
174.465508
 22
47.048006
 32
0.0
 13
174.465508
 23
47.048006
 33
0.0
  0
ENDBLK
  5
A0
100
AcDbEntity
  8
0
100
AcDbBlockEnd
  0
BLOCK
  5
A3
100
AcDbEntity
  8
0
100
AcDbBlockBegin
  2
*B8
 70
     0
 10
0.0
 20
0.0
 30
0.0
  3
*B8
  1

  0
LINE
  5
A4
100
AcDbEntity
  8
0
  6
Continuous
 62
     0
100
AcDbLine
 10
153.465528
 20
260.032654
 30
0.0
 11
261.465597
 21
260.032654
 31
0.0
  0
SOLID
  5
A5
100
AcDbEntity
  8
0
  6
Continuous
 62
     0
100
AcDbTrace
 10
158.465509
 20
261.03241
 30
0.0
 11
153.465528
 21
260.032654
 31
0.0
 12
158.465509
 22
259.032598
 32
0.0
 13
158.465509
 23
259.032598
 33
0.0
  0
SOLID
  5
A6
100
AcDbEntity
  8
0
  6
Continuous
 62
     0
100
AcDbTrace
 10
256.465616
 20
259.032598
 30
0.0
 11
261.465597
 21
260.032654
 31
0.0
 12
256.465616
 22
261.03241
 32
0.0
 13
256.465616
 23
261.03241
 33
0.0
  0
ENDBLK
  5
A7
100
AcDbEntity
  8
0
100
AcDbBlockEnd
  0
BLOCK
  5
AA
100
AcDbEntity
  8
0
100
AcDbBlockBegin
  2
*B9
 70
     0
 10
0.0
 20
0.0
 30
0.0
  3
*B9
  1

  0
LINE
  5
AB
100
AcDbEntity
  8
0
  6
Continuous
 62
     0
100
AcDbLine
 10
245.465598
 20
151.040339
 30
0.0
 11
181.465602
 21
151.040339
 31
0.0
  0
SOLID
  5
AC
100
AcDbEntity
  8
0
  6
Continuous
 62
     0
100
AcDbTrace
 10
240.465617
 20
150.040584
 30
0.0
 11
245.465598
 21
151.040339
 31
0.0
 12
240.465617
 22
152.040396
 32
0.0
 13
240.465617
 23
152.040396
 33
0.0
  0
SOLID
  5
AD
100
AcDbEntity
  8
0
  6
Continuous
 62
     0
100
AcDbTrace
 10
186.465583
 20
152.040396
 30
0.0
 11
181.465602
 21
151.040339
 31
0.0
 12
186.465583
 22
150.040584
 32
0.0
 13
186.465583
 23
150.040584
 33
0.0
  0
ENDBLK
  5
AE
100
AcDbEntity
  8
0
100
AcDbBlockEnd
  0
BLOCK
  5
B1
100
AcDbEntity
  8
0
100
AcDbBlockBegin
  2
*B10
 70
     0
 10
0.0
 20
0.0
 30
0.0
  3
*B10
  1

  0
LINE
  5
B2
100
AcDbEntity
  8
0
  6
Continuous
 62
     0
100
AcDbLine
 10
166.965537
 20
192.110538
 30
0.0
 11
209.954739
 21
192.110538
 31
0.0
  0
SOLID
  5
B3
100
AcDbEntity
  8
0
  6
Continuous
 62
     0
100
AcDbTrace
 10
171.965518
 20
191.110783
 30
0.0
 11
176.965499
 21
192.110538
 31
0.0
 12
171.965518
 22
193.110595
 32
0.0
 13
171.965518
 23
193.110595
 33
0.0
  0
SOLID
  5
B4
100
AcDbEntity
  8
0
  6
Continuous
 62
     0
100
AcDbTrace
 10
190.965385
 20
193.110595
 30
0.0
 11
185.965405
 21
192.110538
 31
0.0
 12
190.965385
 22
191.110783
 32
0.0
 13
190.965385
 23
191.110783
 33
0.0
  0
ENDBLK
  5
B5
100
AcDbEntity
  8
0
100
AcDbBlockEnd
  0
BLOCK
  5
B8
100
AcDbEntity
  8
0
100
AcDbBlockBegin
  2
*B11
 70
     0
 10
0.0
 20
0.0
 30
0.0
  3
*B11
  1

  0
LINE
  5
B9
100
AcDbEntity
  8
0
  6
Continuous
 62
     0
100
AcDbLine
 10
280.025668
 20
103.594894
 30
0.0
 11
280.025668
 21
133.592677
 31
0.0
  0
SOLID
  5
BA
100
AcDbEntity
  8
0
  6
Continuous
 62
     0
100
AcDbTrace
 10
281.025724
 20
108.594575
 30
0.0
 11
280.025668
 21
113.593955
 31
0.0
 12
279.025612
 22
108.594575
 32
0.0
 13
279.025612
 23
108.594575
 33
0.0
  0
SOLID
  5
BB
100
AcDbEntity
  8
0
  6
Continuous
 62
     0
100
AcDbTrace
 10
279.025612
 20
128.592997
 30
0.0
 11
280.025668
 21
123.593316
 31
0.0
 12
281.025724
 22
128.592997
 32
0.0
 13
281.025724
 23
128.592997
 33
0.0
  0
ENDBLK
  5
BC
100
AcDbEntity
  8
0
100
AcDbBlockEnd
  0
BLOCK
  5
BF
100
AcDbEntity
  8
0
100
AcDbBlockBegin
  2
*B12
 70
     0
 10
0.0
 20
0.0
 30
0.0
  3
*B12
  1

  0
LINE
  5
C0
100
AcDbEntity
  8
0
  6
Continuous
 62
     0
100
AcDbLine
 10
295.025611
 20
229.700217
 30
0.0
 11
295.025611
 21
169.704652
 31
0.0
  0
SOLID
  5
C1
100
AcDbEntity
  8
0
  6
Continuous
 62
     0
100
AcDbTrace
 10
296.025667
 20
224.700537
 30
0.0
 11
295.025611
 21
229.700217
 31
0.0
 12
294.025555
 22
224.700537
 32
0.0
 13
294.025555
 23
224.700537
 33
0.0
  0
SOLID
  5
C2
100
AcDbEntity
  8
0
  6
Continuous
 62
     0
100
AcDbTrace
 10
294.025555
 20
174.704332
 30
0.0
 11
295.025611
 21
169.704652
 31
0.0
 12
296.025667
 22
174.704332
 32
0.0
 13
296.025667
 23
174.704332
 33
0.0
  0
ENDBLK
  5
C3
100
AcDbEntity
  8
0
100
AcDbBlockEnd
  0
BLOCK
  5
C6
100
AcDbEntity
  8
0
100
AcDbBlockBegin
  2
*B13
 70
     0
 10
0.0
 20
0.0
 30
0.0
  3
*B13
  1

  0
LINE
  5
C7
100
AcDbEntity
  8
0
  6
Continuous
 62
     0
100
AcDbLine
 10
196.715484
 20
244.733806
 30
0.0
 11
252.92141
 21
244.733806
 31
0.0
  0
SOLID
  5
C8
100
AcDbEntity
  8
0
  6
Continuous
 62
     0
100
AcDbTrace
 10
201.715465
 20
243.73405
 30
0.0
 11
206.715446
 21
244.733806
 31
0.0
 12
201.715465
 22
245.733862
 32
0.0
 13
201.715465
 23
245.733862
 33
0.0
  0
SOLID
  5
C9
100
AcDbEntity
  8
0
  6
Continuous
 62
     0
100
AcDbTrace
 10
229.21566
 20
245.733862
 30
0.0
 11
224.215379
 21
244.733806
 31
0.0
 12
229.21566
 22
243.73405
 32
0.0
 13
229.21566
 23
243.73405
 33
0.0
  0
ENDBLK
  5
CA
100
AcDbEntity
  8
0
100
AcDbBlockEnd
  0
BLOCK
  5
CD
100
AcDbEntity
  8
0
100
AcDbBlockBegin
  2
*B14
 70
     0
 10
0.0
 20
0.0
 30
0.0
  3
*B14
  1

  0
LINE
  5
CE
100
AcDbEntity
  8
0
  6
Continuous
 62
     0
100
AcDbLine
 10
181.465602
 20
151.040339
 30
0.0
 11
153.465528
 21
151.040339
 31
0.0
  0
SOLID
  5
CF
100
AcDbEntity
  8
0
  6
Continuous
 62
     0
100
AcDbTrace
 10
176.465621
 20
150.040584
 30
0.0
 11
181.465602
 21
151.040339
 31
0.0
 12
176.465621
 22
152.040396
 32
0.0
 13
176.465621
 23
152.040396
 33
0.0
  0
SOLID
  5
D0
100
AcDbEntity
  8
0
  6
Continuous
 62
     0
100
AcDbTrace
 10
158.465509
 20
152.040396
 30
0.0
 11
153.465528
 21
151.040339
 31
0.0
 12
158.465509
 22
150.040584
 32
0.0
 13
158.465509
 23
150.040584
 33
0.0
  0
ENDBLK
  5
D1
100
AcDbEntity
  8
0
100
AcDbBlockEnd
  0
BLOCK
  5
D4
100
AcDbEntity
  8
0
100
AcDbBlockBegin
  2
*B15
 70
     0
 10
0.0
 20
0.0
 30
0.0
  3
*B15
  1

  0
LINE
  5
D5
100
AcDbEntity
  8
0
  6
Continuous
 62
     0
100
AcDbLine
 10
215.465412
 20
137.041354
 30
0.0
 11
153.465528
 21
137.041354
 31
0.0
  0
SOLID
  5
D6
100
AcDbEntity
  8
0
  6
Continuous
 62
     0
100
AcDbTrace
 10
210.465431
 20
136.041598
 30
0.0
 11
215.465412
 21
137.041354
 31
0.0
 12
210.465431
 22
138.04141
 32
0.0
 13
210.465431
 23
138.04141
 33
0.0
  0
SOLID
  5
D7
100
AcDbEntity
  8
0
  6
Continuous
 62
     0
100
AcDbTrace
 10
158.465509
 20
138.04141
 30
0.0
 11
153.465528
 21
137.041354
 31
0.0
 12
158.465509
 22
136.041598
 32
0.0
 13
158.465509
 23
136.041598
 33
0.0
  0
ENDBLK
  5
D8
100
AcDbEntity
  8
0
100
AcDbBlockEnd
  0
BLOCK
  5
DB
100
AcDbEntity
  8
0
100
AcDbBlockBegin
  2
*B16
 70
     0
 10
0.0
 20
0.0
 30
0.0
  3
*B16
  1

  0
LINE
  5
DC
100
AcDbEntity
  8
0
  6
Continuous
 62
     8
100
AcDbLine
 10
215.465412
 20
207.701983
 30
0.0
 11
215.465412
 21
218.201222
 31
0.0
  0
LINE
  5
DD
100
AcDbEntity
  8
0
  6
Continuous
 62
     8
100
AcDbLine
 10
215.465412
 20
220.201035
 30
0.0
 11
215.465412
 21
221.20079
 31
0.0
  0
LINE
  5
DE
100
AcDbEntity
  8
0
  6
Continuous
 62
     8
100
AcDbLine
 10
215.465412
 20
223.200903
 30
0.0
 11
215.465412
 21
233.700142
 31
0.0
  0
ENDBLK
  5
DF
100
AcDbEntity
  8
0
100
AcDbBlockEnd
  0
BLOCK
  5
E2
100
AcDbEntity
  8
0
100
AcDbBlockBegin
  2
*B17
 70
     0
 10
0.0
 20
0.0
 30
0.0
  3
*B17
  1

  0
LINE
  5
E3
100
AcDbEntity
  8
0
  6
Continuous
 62
     8
100
AcDbLine
 10
215.465412
 20
135.041542
 30
0.0
 11
215.465412
 21
139.041467
 31
0.0
  0
LINE
  5
E4
100
AcDbEntity
  8
0
  6
Continuous
 62
     8
100
AcDbLine
 10
215.465412
 20
94.845529
 30
0.0
 11
215.465412
 21
104.59465
 31
0.0
  0
LINE
  5
E5
100
AcDbEntity
  8
0
  6
Continuous
 62
     8
100
AcDbLine
 10
215.465412
 20
110.594387
 30
0.0
 11
215.465412
 21
120.318274
 31
0.0
  0
LINE
  5
E6
100
AcDbEntity
  8
0
  6
Continuous
 62
     8
100
AcDbLine
 10
215.465412
 20
122.318087
 30
0.0
 11
215.465412
 21
123.317842
 31
0.0
  0
LINE
  5
E7
100
AcDbEntity
  8
0
  6
Continuous
 62
     8
100
AcDbLine
 10
215.465412
 20
125.317655
 30
0.0
 11
215.465412
 21
135.041542
 31
0.0
  0
ENDBLK
  5
E8
100
AcDbEntity
  8
0
100
AcDbBlockEnd
  0
BLOCK
  5
EB
100
AcDbEntity
  8
0
100
AcDbBlockBegin
  2
*B18
 70
     0
 10
0.0
 20
0.0
 30
0.0
  3
*B18
  1

  0
LINE
  5
EC
100
AcDbEntity
  8
0
  6
Continuous
 62
     8
100
AcDbLine
 10
245.465598
 20
165.705028
 30
0.0
 11
245.465598
 21
175.304246
 31
0.0
  0
LINE
  5
ED
100
AcDbEntity
  8
0
  6
Continuous
 62
     8
100
AcDbLine
 10
245.465598
 20
177.304058
 30
0.0
 11
245.465598
 21
178.304114
 31
0.0
  0
LINE
  5
EE
100
AcDbEntity
  8
0
  6
Continuous
 62
     8
100
AcDbLine
 10
245.465598
 20
180.303926
 30
0.0
 11
245.465598
 21
189.903145
 31
0.0
  0
LINE
  5
EF
100
AcDbEntity
  8
0
  6
Continuous
 62
     8
100
AcDbLine
 10
245.465598
 20
191.902957
 30
0.0
 11
245.465598
 21
192.903013
 31
0.0
  0
LINE
  5
F0
100
AcDbEntity
  8
0
  6
Continuous
 62
     8
100
AcDbLine
 10
245.465598
 20
194.902825
 30
0.0
 11
245.465598
 21
204.502044
 31
0.0
  0
LINE
  5
F1
100
AcDbEntity
  8
0
  6
Continuous
 62
     8
100
AcDbLine
 10
245.465598
 20
206.501856
 30
0.0
 11
245.465598
 21
207.501912
 31
0.0
  0
LINE
  5
F2
100
AcDbEntity
  8
0
  6
Continuous
 62
     8
100
AcDbLine
 10
245.465598
 20
209.501724
 30
0.0
 11
245.465598
 21
219.100943
 31
0.0
  0
LINE
  5
F3
100
AcDbEntity
  8
0
  6
Continuous
 62
     8
100
AcDbLine
 10
245.465598
 20
221.101055
 30
0.0
 11
245.465598
 21
222.100811
 31
0.0
  0
LINE
  5
F4
100
AcDbEntity
  8
0
  6
Continuous
 62
     8
100
AcDbLine
 10
245.465598
 20
224.100623
 30
0.0
 11
245.465598
 21
233.700142
 31
0.0
  0
ENDBLK
  5
F5
100
AcDbEntity
  8
0
100
AcDbBlockEnd
  0
BLOCK
  5
F8
100
AcDbEntity
  8
0
100
AcDbBlockBegin
  2
*B19
 70
     0
 10
0.0
 20
0.0
 30
0.0
  3
*B19
  1

  0
LINE
  5
F9
100
AcDbEntity
  8
0
  6
Continuous
 62
     8
100
AcDbLine
 10
245.465598
 20
149.040527
 30
0.0
 11
245.465598
 21
153.040452
 31
0.0
  0
LINE
  5
FA
100
AcDbEntity
  8
0
  6
Continuous
 62
     8
100
AcDbLine
 10
245.465598
 20
102.09496
 30
0.0
 11
245.465598
 21
110.594387
 31
0.0
  0
LINE
  5
FB
100
AcDbEntity
  8
0
  6
Continuous
 62
     8
100
AcDbLine
 10
245.465598
 20
116.593823
 30
0.0
 11
245.465598
 21
130.317335
 31
0.0
  0
LINE
  5
FC
100
AcDbEntity
  8
0
  6
Continuous
 62
     8
100
AcDbLine
 10
245.465598
 20
132.317147
 30
0.0
 11
245.465598
 21
133.317204
 31
0.0
  0
LINE
  5
FD
100
AcDbEntity
  8
0
  6
Continuous
 62
     8
100
AcDbLine
 10
245.465598
 20
135.317016
 30
0.0
 11
245.465598
 21
149.040527
 31
0.0
  0
ENDBLK
  5
FE
100
AcDbEntity
  8
0
100
AcDbBlockEnd
  0
BLOCK
  5
101
100
AcDbEntity
  8
0
100
AcDbBlockBegin
  2
*B20
 70
     0
 10
0.0
 20
0.0
 30
0.0
  3
*B20
  1

  0
LINE
  5
102
100
AcDbEntity
  8
0
  6
Continuous
 62
     8
100
AcDbLine
 10
153.465528
 20
231.700029
 30
0.0
 11
153.465528
 21
262.032466
 31
0.0
  0
ENDBLK
  5
103
100
AcDbEntity
  8
0
100
AcDbBlockEnd
  0
BLOCK
  5
106
100
AcDbEntity
  8
0
100
AcDbBlockBegin
  2
*B21
 70
     0
 10
0.0
 20
0.0
 30
0.0
  3
*B21
  1

  0
LINE
  5
107
100
AcDbEntity
  8
0
  6
Continuous
 62
     8
100
AcDbLine
 10
153.465528
 20
46.04795
 30
0.0
 11
153.465528
 21
61.597939
 31
0.0
  0
LINE
  5
108
100
AcDbEntity
  8
0
  6
Continuous
 62
     8
100
AcDbLine
 10
153.465528
 20
125.593128
 30
0.0
 11
153.465528
 21
153.040452
 31
0.0
  0
ENDBLK
  5
109
100
AcDbEntity
  8
0
100
AcDbBlockEnd
  0
BLOCK
  5
10C
100
AcDbEntity
  8
0
100
AcDbBlockBegin
  2
*B22
 70
     0
 10
0.0
 20
0.0
 30
0.0
  3
*B22
  1

  0
LINE
  5
10D
100
AcDbEntity
  8
0
  6
Continuous
 62
     8
100
AcDbLine
 10
263.465409
 20
63.597751
 30
0.0
 11
298.025479
 21
63.597751
 31
0.0
  0
ENDBLK
  5
10E
100
AcDbEntity
  8
0
100
AcDbBlockEnd
  0
BLOCK
  5
111
100
AcDbEntity
  8
0
100
AcDbBlockBegin
  2
*B23
 70
     0
 10
0.0
 20
0.0
 30
0.0
  3
*B23
  1

  0
LINE
  5
112
100
AcDbEntity
  8
0
  6
Continuous
 62
     8
100
AcDbLine
 10
149.465604
 20
93.595533
 30
0.0
 11
166.465659
 21
93.595533
 31
0.0
  0
LINE
  5
113
100
AcDbEntity
  8
0
  6
Continuous
 62
     8
100
AcDbLine
 10
172.465696
 20
93.595533
 30
0.0
 11
181.465602
 21
93.595533
 31
0.0
  0
LINE
  5
114
100
AcDbEntity
  8
0
  6
Continuous
 62
     8
100
AcDbLine
 10
183.465414
 20
93.595533
 30
0.0
 11
184.46547
 21
93.595533
 31
0.0
  0
LINE
  5
115
100
AcDbEntity
  8
0
  6
Continuous
 62
     8
100
AcDbLine
 10
186.465583
 20
93.595533
 30
0.0
 11
195.465488
 21
93.595533
 31
0.0
  0
LINE
  5
116
100
AcDbEntity
  8
0
  6
Continuous
 62
     8
100
AcDbLine
 10
197.465601
 20
93.595533
 30
0.0
 11
198.465657
 21
93.595533
 31
0.0
  0
LINE
  5
117
100
AcDbEntity
  8
0
  6
Continuous
 62
     8
100
AcDbLine
 10
200.465469
 20
93.595533
 30
0.0
 11
209.465675
 21
93.595533
 31
0.0
  0
LINE
  5
118
100
AcDbEntity
  8
0
  6
Continuous
 62
     8
100
AcDbLine
 10
211.465487
 20
93.595533
 30
0.0
 11
212.465544
 21
93.595533
 31
0.0
  0
LINE
  5
119
100
AcDbEntity
  8
0
  6
Continuous
 62
     8
100
AcDbLine
 10
214.465656
 20
93.595533
 30
0.0
 11
223.465562
 21
93.595533
 31
0.0
  0
LINE
  5
11A
100
AcDbEntity
  8
0
  6
Continuous
 62
     8
100
AcDbLine
 10
225.465374
 20
93.595533
 30
0.0
 11
226.46543
 21
93.595533
 31
0.0
  0
LINE
  5
11B
100
AcDbEntity
  8
0
  6
Continuous
 62
     8
100
AcDbLine
 10
228.465543
 20
93.595533
 30
0.0
 11
237.465448
 21
93.595533
 31
0.0
  0
LINE
  5
11C
100
AcDbEntity
  8
0
  6
Continuous
 62
     8
100
AcDbLine
 10
239.465561
 20
93.595533
 30
0.0
 11
240.465617
 21
93.595533
 31
0.0
  0
LINE
  5
11D
100
AcDbEntity
  8
0
  6
Continuous
 62
     8
100
AcDbLine
 10
242.465429
 20
93.595533
 30
0.0
 11
251.465635
 21
93.595533
 31
0.0
  0
LINE
  5
11E
100
AcDbEntity
  8
0
  6
Continuous
 62
     8
100
AcDbLine
 10
253.465447
 20
93.595533
 30
0.0
 11
254.465504
 21
93.595533
 31
0.0
  0
LINE
  5
11F
100
AcDbEntity
  8
0
  6
Continuous
 62
     8
100
AcDbLine
 10
256.465616
 20
93.595533
 30
0.0
 11
265.465522
 21
93.595533
 31
0.0
  0
ENDBLK
  5
120
100
AcDbEntity
  8
0
100
AcDbBlockEnd
  0
BLOCK
  5
123
100
AcDbEntity
  8
0
100
AcDbBlockBegin
  2
*B24
 70
     0
 10
0.0
 20
0.0
 30
0.0
  3
*B24
  1

  0
LINE
  5
124
100
AcDbEntity
  8
0
  6
Continuous
 62
     8
100
AcDbLine
 10
278.025556
 20
113.593955
 30
0.0
 11
282.02548
 21
113.593955
 31
0.0
  0
LINE
  5
125
100
AcDbEntity
  8
0
  6
Continuous
 62
     8
100
AcDbLine
 10
169.965405
 20
113.593955
 30
0.0
 11
178.465433
 21
113.593955
 31
0.0
  0
LINE
  5
126
100
AcDbEntity
  8
0
  6
Continuous
 62
     8
100
AcDbLine
 10
184.46547
 20
113.593955
 30
0.0
 11
195.215549
 21
113.593955
 31
0.0
  0
LINE
  5
127
100
AcDbEntity
  8
0
  6
Continuous
 62
     8
100
AcDbLine
 10
197.215662
 20
113.593955
 30
0.0
 11
198.215418
 21
113.593955
 31
0.0
  0
LINE
  5
128
100
AcDbEntity
  8
0
  6
Continuous
 62
     8
100
AcDbLine
 10
200.21553
 20
113.593955
 30
0.0
 11
210.96561
 21
113.593955
 31
0.0
  0
LINE
  5
129
100
AcDbEntity
  8
0
  6
Continuous
 62
     8
100
AcDbLine
 10
212.965422
 20
113.593955
 30
0.0
 11
213.965478
 21
113.593955
 31
0.0
  0
LINE
  5
12A
100
AcDbEntity
  8
0
  6
Continuous
 62
     8
100
AcDbLine
 10
215.96559
 20
113.593955
 30
0.0
 11
226.715369
 21
113.593955
 31
0.0
  0
LINE
  5
12B
100
AcDbEntity
  8
0
  6
Continuous
 62
     8
100
AcDbLine
 10
228.715482
 20
113.593955
 30
0.0
 11
229.715538
 21
113.593955
 31
0.0
  0
LINE
  5
12C
100
AcDbEntity
  8
0
  6
Continuous
 62
     8
100
AcDbLine
 10
231.715651
 20
113.593955
 30
0.0
 11
242.465429
 21
113.593955
 31
0.0
  0
LINE
  5
12D
100
AcDbEntity
  8
0
  6
Continuous
 62
     8
100
AcDbLine
 10
248.465466
 20
113.593955
 30
0.0
 11
260.745521
 21
113.593955
 31
0.0
  0
LINE
  5
12E
100
AcDbEntity
  8
0
  6
Continuous
 62
     8
100
AcDbLine
 10
262.745633
 20
113.593955
 30
0.0
 11
263.745689
 21
113.593955
 31
0.0
  0
LINE
  5
12F
100
AcDbEntity
  8
0
  6
Continuous
 62
     8
100
AcDbLine
 10
265.745502
 20
113.593955
 30
0.0
 11
278.025556
 21
113.593955
 31
0.0
  0
ENDBLK
  5
130
100
AcDbEntity
  8
0
100
AcDbBlockEnd
  0
BLOCK
  5
133
100
AcDbEntity
  8
0
100
AcDbBlockBegin
  2
*B25
 70
     0
 10
0.0
 20
0.0
 30
0.0
  3
*B25
  1

  0
LINE
  5
134
100
AcDbEntity
  8
0
  6
Continuous
 62
     8
100
AcDbLine
 10
263.465409
 20
123.593316
 30
0.0
 11
298.025479
 21
123.593316
 31
0.0
  0
ENDBLK
  5
135
100
AcDbEntity
  8
0
100
AcDbBlockEnd
  0
BLOCK
  5
138
100
AcDbEntity
  8
0
100
AcDbBlockBegin
  2
*B26
 70
     0
 10
0.0
 20
0.0
 30
0.0
  3
*B26
  1

  0
LINE
  5
139
100
AcDbEntity
  8
0
  6
Continuous
 62
     8
100
AcDbLine
 10
233.465524
 20
46.04795
 30
0.0
 11
233.465524
 21
50.047874
 31
0.0
  0
LINE
  5
13A
100
AcDbEntity
  8
0
  6
Continuous
 62
     8
100
AcDbLine
 10
233.465524
 20
50.047874
 30
0.0
 11
233.465524
 21
60.822287
 31
0.0
  0
LINE
  5
13B
100
AcDbEntity
  8
0
  6
Continuous
 62
     8
100
AcDbLine
 10
233.465524
 20
62.822399
 30
0.0
 11
233.465524
 21
63.822155
 31
0.0
  0
LINE
  5
13C
100
AcDbEntity
  8
0
  6
Continuous
 62
     8
100
AcDbLine
 10
233.465524
 20
65.821967
 30
0.0
 11
233.465524
 21
76.59668
 31
0.0
  0
LINE
  5
13D
100
AcDbEntity
  8
0
  6
Continuous
 62
     8
100
AcDbLine
 10
233.465524
 20
82.596416
 30
0.0
 11
233.465524
 21
92.345538
 31
0.0
  0
ENDBLK
  5
13E
100
AcDbEntity
  8
0
100
AcDbBlockEnd
  0
BLOCK
  5
141
100
AcDbEntity
  8
0
100
AcDbBlockBegin
  2
*B27
 70
     0
 10
0.0
 20
0.0
 30
0.0
  3
*B27
  1

  0
LINE
  5
142
100
AcDbEntity
  8
0
  6
Continuous
 62
     8
100
AcDbLine
 10
206.715446
 20
231.700029
 30
0.0
 11
206.715446
 21
246.733618
 31
0.0
  0
ENDBLK
  5
143
100
AcDbEntity
  8
0
100
AcDbBlockEnd
  0
BLOCK
  5
146
100
AcDbEntity
  8
0
100
AcDbBlockBegin
  2
*B28
 70
     0
 10
0.0
 20
0.0
 30
0.0
  3
*B28
  1

  0
LINE
  5
147
100
AcDbEntity
  8
0
  6
Continuous
 62
     8
100
AcDbLine
 10
181.465602
 20
165.705028
 30
0.0
 11
181.465602
 21
175.304246
 31
0.0
  0
LINE
  5
148
100
AcDbEntity
  8
0
  6
Continuous
 62
     8
100
AcDbLine
 10
181.465602
 20
177.304058
 30
0.0
 11
181.465602
 21
178.304114
 31
0.0
  0
LINE
  5
149
100
AcDbEntity
  8
0
  6
Continuous
 62
     8
100
AcDbLine
 10
181.465602
 20
180.303926
 30
0.0
 11
181.465602
 21
189.903145
 31
0.0
  0
LINE
  5
14A
100
AcDbEntity
  8
0
  6
Continuous
 62
     8
100
AcDbLine
 10
181.465602
 20
191.902957
 30
0.0
 11
181.465602
 21
192.903013
 31
0.0
  0
LINE
  5
14B
100
AcDbEntity
  8
0
  6
Continuous
 62
     8
100
AcDbLine
 10
181.465602
 20
194.902825
 30
0.0
 11
181.465602
 21
204.502044
 31
0.0
  0
LINE
  5
14C
100
AcDbEntity
  8
0
  6
Continuous
 62
     8
100
AcDbLine
 10
181.465602
 20
206.501856
 30
0.0
 11
181.465602
 21
207.501912
 31
0.0
  0
LINE
  5
14D
100
AcDbEntity
  8
0
  6
Continuous
 62
     8
100
AcDbLine
 10
181.465602
 20
209.501724
 30
0.0
 11
181.465602
 21
219.100943
 31
0.0
  0
LINE
  5
14E
100
AcDbEntity
  8
0
  6
Continuous
 62
     8
100
AcDbLine
 10
181.465602
 20
221.101055
 30
0.0
 11
181.465602
 21
222.100811
 31
0.0
  0
LINE
  5
14F
100
AcDbEntity
  8
0
  6
Continuous
 62
     8
100
AcDbLine
 10
181.465602
 20
224.100623
 30
0.0
 11
181.465602
 21
233.700142
 31
0.0
  0
ENDBLK
  5
150
100
AcDbEntity
  8
0
100
AcDbBlockEnd
  0
BLOCK
  5
153
100
AcDbEntity
  8
0
100
AcDbBlockBegin
  2
*B29
 70
     0
 10
0.0
 20
0.0
 30
0.0
  3
*B29
  1

  0
LINE
  5
154
100
AcDbEntity
  8
0
  6
Continuous
 62
     8
100
AcDbLine
 10
138.025789
 20
107.594519
 30
0.0
 11
142.025714
 21
107.594519
 31
0.0
  0
LINE
  5
155
100
AcDbEntity
  8
0
  6
Continuous
 62
     8
100
AcDbLine
 10
142.025714
 20
107.594519
 30
0.0
 11
152.113695
 21
107.594519
 31
0.0
  0
LINE
  5
156
100
AcDbEntity
  8
0
  6
Continuous
 62
     8
100
AcDbLine
 10
154.113507
 20
107.594519
 30
0.0
 11
155.113564
 21
107.594519
 31
0.0
  0
LINE
  5
157
100
AcDbEntity
  8
0
  6
Continuous
 62
     8
100
AcDbLine
 10
157.113676
 20
107.594519
 30
0.0
 11
167.201657
 21
107.594519
 31
0.0
  0
LINE
  5
158
100
AcDbEntity
  8
0
  6
Continuous
 62
     8
100
AcDbLine
 10
169.201469
 20
107.594519
 30
0.0
 11
170.201526
 21
107.594519
 31
0.0
  0
LINE
  5
159
100
AcDbEntity
  8
0
  6
Continuous
 62
     8
100
AcDbLine
 10
172.201638
 20
107.594519
 30
0.0
 11
182.289619
 21
107.594519
 31
0.0
  0
LINE
  5
15A
100
AcDbEntity
  8
0
  6
Continuous
 62
     8
100
AcDbLine
 10
184.289432
 20
107.594519
 30
0.0
 11
185.289488
 21
107.594519
 31
0.0
  0
LINE
  5
15B
100
AcDbEntity
  8
0
  6
Continuous
 62
     8
100
AcDbLine
 10
187.2896
 20
107.594519
 30
0.0
 11
197.377582
 21
107.594519
 31
0.0
  0
LINE
  5
15C
100
AcDbEntity
  8
0
  6
Continuous
 62
     8
100
AcDbLine
 10
199.377694
 20
107.594519
 30
0.0
 11
200.37745
 21
107.594519
 31
0.0
  0
LINE
  5
15D
100
AcDbEntity
  8
0
  6
Continuous
 62
     8
100
AcDbLine
 10
202.377563
 20
107.594519
 30
0.0
 11
212.465544
 21
107.594519
 31
0.0
  0
LINE
  5
15E
100
AcDbEntity
  8
0
  6
Continuous
 62
     8
100
AcDbLine
 10
218.465581
 20
107.594519
 30
0.0
 11
228.215604
 21
107.594519
 31
0.0
  0
ENDBLK
  5
15F
100
AcDbEntity
  8
0
100
AcDbBlockEnd
  0
BLOCK
  5
162
100
AcDbEntity
  8
0
100
AcDbBlockBegin
  2
*B30
 70
     0
 10
0.0
 20
0.0
 30
0.0
  3
*B30
  1

  0
LINE
  5
163
100
AcDbEntity
  8
0
  6
Continuous
 62
     8
100
AcDbLine
 10
169.465528
 20
46.04795
 30
0.0
 11
169.465528
 21
50.047874
 31
0.0
  0
LINE
  5
164
100
AcDbEntity
  8
0
  6
Continuous
 62
     8
100
AcDbLine
 10
169.465528
 20
50.047874
 30
0.0
 11
169.465528
 21
60.230784
 31
0.0
  0
LINE
  5
165
100
AcDbEntity
  8
0
  6
Continuous
 62
     8
100
AcDbLine
 10
169.465528
 20
62.230597
 30
0.0
 11
169.465528
 21
63.230352
 31
0.0
  0
LINE
  5
166
100
AcDbEntity
  8
0
  6
Continuous
 62
     8
100
AcDbLine
 10
169.465528
 20
65.230165
 30
0.0
 11
169.465528
 21
75.413074
 31
0.0
  0
LINE
  5
167
100
AcDbEntity
  8
0
  6
Continuous
 62
     8
100
AcDbLine
 10
169.465528
 20
77.413187
 30
0.0
 11
169.465528
 21
78.412943
 31
0.0
  0
LINE
  5
168
100
AcDbEntity
  8
0
  6
Continuous
 62
     8
100
AcDbLine
 10
169.465528
 20
80.412755
 30
0.0
 11
169.465528
 21
90.595665
 31
0.0
  0
LINE
  5
169
100
AcDbEntity
  8
0
  6
Continuous
 62
     8
100
AcDbLine
 10
169.465528
 20
96.595402
 30
0.0
 11
169.465528
 21
106.344523
 31
0.0
  0
ENDBLK
  5
16A
100
AcDbEntity
  8
0
100
AcDbBlockEnd
  0
BLOCK
  5
16D
100
AcDbEntity
  8
0
100
AcDbBlockBegin
  2
*B31
 70
     0
 10
0.0
 20
0.0
 30
0.0
  3
*B31
  1

  0
LINE
  5
16E
100
AcDbEntity
  8
0
  6
Continuous
 62
     8
100
AcDbLine
 10
138.025789
 20
79.596548
 30
0.0
 11
142.025714
 21
79.596548
 31
0.0
  0
LINE
  5
16F
100
AcDbEntity
  8
0
  6
Continuous
 62
     8
100
AcDbLine
 10
142.025714
 20
79.596548
 30
0.0
 11
151.385508
 21
79.596548
 31
0.0
  0
LINE
  5
170
100
AcDbEntity
  8
0
  6
Continuous
 62
     8
100
AcDbLine
 10
153.38562
 20
79.596548
 30
0.0
 11
154.385676
 21
79.596548
 31
0.0
  0
LINE
  5
171
100
AcDbEntity
  8
0
  6
Continuous
 62
     8
100
AcDbLine
 10
156.385489
 20
79.596548
 30
0.0
 11
165.745583
 21
79.596548
 31
0.0
  0
LINE
  5
172
100
AcDbEntity
  8
0
  6
Continuous
 62
     8
100
AcDbLine
 10
167.745695
 20
79.596548
 30
0.0
 11
168.745451
 21
79.596548
 31
0.0
  0
LINE
  5
173
100
AcDbEntity
  8
0
  6
Continuous
 62
     8
100
AcDbLine
 10
170.745564
 20
79.596548
 30
0.0
 11
180.105658
 21
79.596548
 31
0.0
  0
LINE
  5
174
100
AcDbEntity
  8
0
  6
Continuous
 62
     8
100
AcDbLine
 10
182.10547
 20
79.596548
 30
0.0
 11
183.105526
 21
79.596548
 31
0.0
  0
LINE
  5
175
100
AcDbEntity
  8
0
  6
Continuous
 62
     8
100
AcDbLine
 10
185.105639
 20
79.596548
 30
0.0
 11
194.465432
 21
79.596548
 31
0.0
  0
LINE
  5
176
100
AcDbEntity
  8
0
  6
Continuous
 62
     8
100
AcDbLine
 10
200.465469
 20
79.596548
 30
0.0
 11
212.965422
 21
79.596548
 31
0.0
  0
LINE
  5
177
100
AcDbEntity
  8
0
  6
Continuous
 62
     8
100
AcDbLine
 10
214.965534
 20
79.596548
 30
0.0
 11
215.96559
 21
79.596548
 31
0.0
  0
LINE
  5
178
100
AcDbEntity
  8
0
  6
Continuous
 62
     8
100
AcDbLine
 10
217.965403
 20
79.596548
 30
0.0
 11
230.465655
 21
79.596548
 31
0.0
  0
LINE
  5
179
100
AcDbEntity
  8
0
  6
Continuous
 62
     8
100
AcDbLine
 10
236.465392
 20
79.596548
 30
0.0
 11
246.215415
 21
79.596548
 31
0.0
  0
ENDBLK
  5
17A
100
AcDbEntity
  8
0
100
AcDbBlockEnd
  0
BLOCK
  5
17D
100
AcDbEntity
  8
0
100
AcDbBlockBegin
  2
*B32
 70
     0
 10
0.0
 20
0.0
 30
0.0
  3
*B32
  1

  0
LINE
  5
17E
100
AcDbEntity
  8
0
  6
Continuous
 62
     8
100
AcDbLine
 10
197.465601
 20
46.04795
 30
0.0
 11
197.465601
 21
50.047874
 31
0.0
  0
LINE
  5
17F
100
AcDbEntity
  8
0
  6
Continuous
 62
     8
100
AcDbLine
 10
197.465601
 20
50.047874
 30
0.0
 11
197.465601
 21
60.822287
 31
0.0
  0
LINE
  5
180
100
AcDbEntity
  8
0
  6
Continuous
 62
     8
100
AcDbLine
 10
197.465601
 20
62.822399
 30
0.0
 11
197.465601
 21
63.822155
 31
0.0
  0
LINE
  5
181
100
AcDbEntity
  8
0
  6
Continuous
 62
     8
100
AcDbLine
 10
197.465601
 20
65.821967
 30
0.0
 11
197.465601
 21
76.59668
 31
0.0
  0
LINE
  5
182
100
AcDbEntity
  8
0
  6
Continuous
 62
     8
100
AcDbLine
 10
197.465601
 20
82.596416
 30
0.0
 11
197.465601
 21
92.345538
 31
0.0
  0
ENDBLK
  5
183
100
AcDbEntity
  8
0
100
AcDbBlockEnd
  0
BLOCK
  5
186
100
AcDbEntity
  8
0
100
AcDbBlockBegin
  2
*B33
 70
     0
 10
0.0
 20
0.0
 30
0.0
  3
*B33
  1

  0
LINE
  5
187
100
AcDbEntity
  8
0
  6
Continuous
 62
     8
100
AcDbLine
 10
263.465409
 20
169.704652
 30
0.0
 11
297.025723
 21
169.704652
 31
0.0
  0
ENDBLK
  5
188
100
AcDbEntity
  8
0
100
AcDbBlockEnd
  0
BLOCK
  5
18B
100
AcDbEntity
  8
0
100
AcDbBlockBegin
  2
*B34
 70
     0
 10
0.0
 20
0.0
 30
0.0
  3
*B34
  1

  0
LINE
  5
18C
100
AcDbEntity
  8
0
  6
Continuous
 62
     8
100
AcDbLine
 10
224.215379
 20
231.700029
 30
0.0
 11
224.215379
 21
246.733618
 31
0.0
  0
ENDBLK
  5
18D
100
AcDbEntity
  8
0
100
AcDbBlockEnd
  0
BLOCK
  5
190
100
AcDbEntity
  8
0
100
AcDbBlockBegin
  2
*B35
 70
     0
 10
0.0
 20
0.0
 30
0.0
  3
*B35
  1

  0
LINE
  5
191
100
AcDbEntity
  8
0
  6
Continuous
 62
     8
100
AcDbLine
 10
263.465409
 20
229.700217
 30
0.0
 11
297.025723
 21
229.700217
 31
0.0
  0
ENDBLK
  5
192
100
AcDbEntity
  8
0
100
AcDbBlockEnd
  0
BLOCK
  5
195
100
AcDbEntity
  8
0
100
AcDbBlockBegin
  2
*B36
 70
     0
 10
0.0
 20
0.0
 30
0.0
  3
*B36
  1

  0
LINE
  5
196
100
AcDbEntity
  8
0
  6
Continuous
 62
     8
100
AcDbLine
 10
181.465602
 20
149.040527
 30
0.0
 11
181.465602
 21
153.040452
 31
0.0
  0
LINE
  5
197
100
AcDbEntity
  8
0
  6
Continuous
 62
     8
100
AcDbLine
 10
181.465602
 20
102.09496
 30
0.0
 11
181.465602
 21
110.594387
 31
0.0
  0
LINE
  5
198
100
AcDbEntity
  8
0
  6
Continuous
 62
     8
100
AcDbLine
 10
181.465602
 20
116.593823
 30
0.0
 11
181.465602
 21
130.317335
 31
0.0
  0
LINE
  5
199
100
AcDbEntity
  8
0
  6
Continuous
 62
     8
100
AcDbLine
 10
181.465602
 20
132.317147
 30
0.0
 11
181.465602
 21
133.317204
 31
0.0
  0
LINE
  5
19A
100
AcDbEntity
  8
0
  6
Continuous
 62
     8
100
AcDbLine
 10
181.465602
 20
135.317016
 30
0.0
 11
181.465602
 21
149.040527
 31
0.0
  0
ENDBLK
  5
19B
100
AcDbEntity
  8
0
100
AcDbBlockEnd
  0
BLOCK
  5
19E
100
AcDbEntity
  8
0
100
AcDbBlockBegin
  2
*B37
 70
     0
 10
0.0
 20
0.0
 30
0.0
  3
*B37
  1

  0
LINE
  5
19F
100
AcDbEntity
  8
0
  6
Continuous
 62
     8
100
AcDbLine
 10
261.465597
 20
231.700029
 30
0.0
 11
261.465597
 21
262.032466
 31
0.0
  0
ENDBLK
  5
1A0
100
AcDbEntity
  8
0
100
AcDbBlockEnd
  0
BLOCK
  5
1A3
100
AcDbEntity
  8
0
100
AcDbBlockBegin
  2
*B38
 70
     0
 10
0.0
 20
0.0
 30
0.0
  3
*B38
  1

  0
LINE
  5
1A4
100
AcDbEntity
  8
0
  6
Continuous
 62
     6
100
AcDbLine
 10
233.465524
 20
78.596492
 30
0.0
 11
233.465524
 21
80.596304
 31
0.0
  0
LINE
  5
1A5
100
AcDbEntity
  8
0
  6
Continuous
 62
     6
100
AcDbLine
 10
232.465467
 20
79.596548
 30
0.0
 11
234.46558
 21
79.596548
 31
0.0
  0
ENDBLK
  5
1A6
100
AcDbEntity
  8
0
100
AcDbBlockEnd
  0
BLOCK
  5
1A9
100
AcDbEntity
  8
0
100
AcDbBlockBegin
  2
*B39
 70
     0
 10
0.0
 20
0.0
 30
0.0
  3
*B39
  1

  0
LINE
  5
1AA
100
AcDbEntity
  8
0
  6
Continuous
 62
     6
100
AcDbLine
 10
215.465412
 20
106.594462
 30
0.0
 11
215.465412
 21
108.594575
 31
0.0
  0
LINE
  5
1AB
100
AcDbEntity
  8
0
  6
Continuous
 62
     6
100
AcDbLine
 10
214.465656
 20
107.594519
 30
0.0
 11
216.465468
 21
107.594519
 31
0.0
  0
ENDBLK
  5
1AC
100
AcDbEntity
  8
0
100
AcDbBlockEnd
  0
BLOCK
  5
1AF
100
AcDbEntity
  8
0
100
AcDbBlockBegin
  2
*B40
 70
     0
 10
0.0
 20
0.0
 30
0.0
  3
*B40
  1

  0
LINE
  5
1B0
100
AcDbEntity
  8
0
  6
Continuous
 62
     6
100
AcDbLine
 10
196.465545
 20
79.596548
 30
0.0
 11
198.465657
 21
79.596548
 31
0.0
  0
LINE
  5
1B1
100
AcDbEntity
  8
0
  6
Continuous
 62
     6
100
AcDbLine
 10
197.465601
 20
78.596492
 30
0.0
 11
197.465601
 21
80.596304
 31
0.0
  0
ENDBLK
  5
1B2
100
AcDbEntity
  8
0
100
AcDbBlockEnd
  0
BLOCK
  5
1B5
100
AcDbEntity
  8
0
100
AcDbBlockBegin
  2
*B41
 70
     0
 10
0.0
 20
0.0
 30
0.0
  3
*B41
  1

  0
LINE
  5
1B6
100
AcDbEntity
  8
0
  6
Continuous
 62
     6
100
AcDbLine
 10
245.465598
 20
112.594199
 30
0.0
 11
245.465598
 21
114.594011
 31
0.0
  0
LINE
  5
1B7
100
AcDbEntity
  8
0
  6
Continuous
 62
     6
100
AcDbLine
 10
244.465542
 20
113.593955
 30
0.0
 11
246.465654
 21
113.593955
 31
0.0
  0
ENDBLK
  5
1B8
100
AcDbEntity
  8
0
100
AcDbBlockEnd
  0
BLOCK
  5
1BB
100
AcDbEntity
  8
0
100
AcDbBlockBegin
  2
*B42
 70
     0
 10
0.0
 20
0.0
 30
0.0
  3
*B42
  1

  0
LINE
  5
1BC
100
AcDbEntity
  8
0
  6
Continuous
 62
     6
100
AcDbLine
 10
181.465602
 20
112.594199
 30
0.0
 11
181.465602
 21
114.594011
 31
0.0
  0
LINE
  5
1BD
100
AcDbEntity
  8
0
  6
Continuous
 62
     6
100
AcDbLine
 10
180.465546
 20
113.593955
 30
0.0
 11
182.465658
 21
113.593955
 31
0.0
  0
ENDBLK
  5
1BE
100
AcDbEntity
  8
0
100
AcDbBlockEnd
  0
BLOCK
  5
1C1
100
AcDbEntity
  8
0
100
AcDbBlockBegin
  2
*B43
 70
     0
 10
0.0
 20
0.0
 30
0.0
  3
*B43
  1

  0
LINE
  5
1C2
100
AcDbEntity
  8
0
  6
Continuous
 62
     6
100
AcDbLine
 10
168.465471
 20
93.595533
 30
0.0
 11
170.465584
 21
93.595533
 31
0.0
  0
LINE
  5
1C3
100
AcDbEntity
  8
0
  6
Continuous
 62
     6
100
AcDbLine
 10
169.465528
 20
92.595477
 30
0.0
 11
169.465528
 21
94.595289
 31
0.0
  0
ENDBLK
  5
1C4
100
AcDbEntity
  8
0
100
AcDbBlockEnd
  0
BLOCK
  5
1C7
100
AcDbEntity
  8
0
100
AcDbBlockBegin
  2
*B44
 70
     0
 10
0.0
 20
0.0
 30
0.0
  3
*B44
  1

  0
TEXT
  5
1C8
100
AcDbEntity
  8
TEXT
  6
Continuous
 62
     0
100
AcDbText
 10
173.765799
 20
75.0
 30
0.0
 40
6.0
  1
12
100
AcDbText
  0
ENDBLK
  5
1C9
100
AcDbEntity
  8
0
100
AcDbBlockEnd
  0
BLOCK
  5
1CC
100
AcDbEntity
  8
0
100
AcDbBlockBegin
  2
*B45
 70
     0
 10
0.0
 20
0.0
 30
0.0
  3
*B45
  1

  0
TEXT
  5
1CD
100
AcDbEntity
  8
TEXT
  6
Continuous
 62
     0
100
AcDbText
 10
231.8829
 20
93.0
 30
0.0
 40
6.0
  1
1
100
AcDbText
  0
ENDBLK
  5
1CE
100
AcDbEntity
  8
0
100
AcDbBlockEnd
  0
BLOCK
  5
1D1
100
AcDbEntity
  8
0
100
AcDbBlockBegin
  2
*B46
 70
     0
 10
0.0
 20
0.0
 30
0.0
  3
*B46
  1

  0
TEXT
  5
1D2
100
AcDbEntity
  8
TEXT
  6
Continuous
 62
     0
100
AcDbText
 10
213.23575
 20
88.0
 30
0.0
 40
6.0
  1
2
100
AcDbText
  0
ENDBLK
  5
1D3
100
AcDbEntity
  8
0
100
AcDbBlockEnd
  0
BLOCK
  5
1D6
100
AcDbEntity
  8
0
100
AcDbBlockBegin
  2
*B47
 70
     0
 10
0.0
 20
0.0
 30
0.0
  3
*B47
  1

  0
TEXT
  5
1D7
100
AcDbEntity
  8
TEXT
  6
Continuous
 62
     0
100
AcDbText
 10
195.8829
 20
93.0
 30
0.0
 40
6.0
  1
3
100
AcDbText
  0
ENDBLK
  5
1D8
100
AcDbEntity
  8
0
100
AcDbBlockEnd
  0
BLOCK
  5
1DB
100
AcDbEntity
  8
0
100
AcDbBlockBegin
  2
*B48
 70
     0
 10
0.0
 20
0.0
 30
0.0
  3
*B48
  1

  0
TEXT
  5
1DC
100
AcDbEntity
  8
TEXT
  6
Continuous
 62
     0
100
AcDbText
 10
294.25
 20
90.217563
 30
0.0
 40
3.5
  1
30
 50
90.0
100
AcDbText
  0
ENDBLK
  5
1DD
100
AcDbEntity
  8
0
100
AcDbBlockEnd
  0
BLOCK
  5
1E0
100
AcDbEntity
  8
0
100
AcDbBlockBegin
  2
*B49
 70
     0
 10
0.0
 20
0.0
 30
0.0
  3
*B49
  1

  0
TEXT
  5
1E1
100
AcDbEntity
  8
TEXT
  6
Continuous
 62
     0
100
AcDbText
 10
138.25
 20
90.217563
 30
0.0
 40
3.5
  1
14
 50
90.0
100
AcDbText
  0
ENDBLK
  5
1E2
100
AcDbEntity
  8
0
100
AcDbBlockEnd
  0
BLOCK
  5
1E5
100
AcDbEntity
  8
0
100
AcDbBlockBegin
  2
*B50
 70
     0
 10
0.0
 20
0.0
 30
0.0
  3
*B50
  1

  0
TEXT
  5
1E6
100
AcDbEntity
  8
TEXT
  6
Continuous
 62
     0
100
AcDbText
 10
212.10656
 20
49.75
 30
0.0
 40
3.5
  1
18
100
AcDbText
  0
ENDBLK
  5
1E7
100
AcDbEntity
  8
0
100
AcDbBlockEnd
  0
BLOCK
  5
1EA
100
AcDbEntity
  8
0
100
AcDbBlockBegin
  2
*B51
 70
     0
 10
0.0
 20
0.0
 30
0.0
  3
*B51
  1

  0
TEXT
  5
1EB
100
AcDbEntity
  8
TEXT
  6
Continuous
 62
     0
100
AcDbText
 10
180.10656
 20
49.75
 30
0.0
 40
3.5
  1
14
100
AcDbText
  0
ENDBLK
  5
1EC
100
AcDbEntity
  8
0
100
AcDbBlockEnd
  0
BLOCK
  5
1EF
100
AcDbEntity
  8
0
100
AcDbBlockBegin
  2
*B52
 70
     0
 10
0.0
 20
0.0
 30
0.0
  3
*B52
  1

  0
TEXT
  5
1F0
100
AcDbEntity
  8
TEXT
  6
Continuous
 62
     0
100
AcDbText
 10
159.773227
 20
49.75
 30
0.0
 40
3.5
  1
8
100
AcDbText
  0
ENDBLK
  5
1F1
100
AcDbEntity
  8
0
100
AcDbBlockEnd
  0
BLOCK
  5
1F4
100
AcDbEntity
  8
0
100
AcDbBlockBegin
  2
*B53
 70
     0
 10
0.0
 20
0.0
 30
0.0
  3
*B53
  1

  0
TEXT
  5
1F5
100
AcDbEntity
  8
TEXT
  6
Continuous
 62
     0
100
AcDbText
 10
204.10656
 20
261.75
 30
0.0
 40
3.5
  1
54
100
AcDbText
  0
ENDBLK
  5
1F6
100
AcDbEntity
  8
0
100
AcDbBlockEnd
  0
BLOCK
  5
1F9
100
AcDbEntity
  8
0
100
AcDbBlockBegin
  2
*B54
 70
     0
 10
0.0
 20
0.0
 30
0.0
  3
*B54
  1

  0
TEXT
  5
1FA
100
AcDbEntity
  8
TEXT
  6
Continuous
 62
     0
100
AcDbText
 10
210.10656
 20
152.75
 30
0.0
 40
3.5
  1
32
100
AcDbText
  0
ENDBLK
  5
1FB
100
AcDbEntity
  8
0
100
AcDbBlockEnd
  0
BLOCK
  5
1FE
100
AcDbEntity
  8
0
100
AcDbBlockBegin
  2
*B55
 70
     0
 10
0.0
 20
0.0
 30
0.0
  3
*B55
  1

  0
TEXT
  5
1FF
100
AcDbEntity
  8
TEXT
  6
Continuous
 62
     0
100
AcDbText
 10
195.383333
 20
193.823095
 30
0.0
 40
3.5
  1
%%c4,5
100
AcDbText
  0
ENDBLK
  5
200
100
AcDbEntity
  8
0
100
AcDbBlockEnd
  0
BLOCK
  5
203
100
AcDbEntity
  8
0
100
AcDbBlockBegin
  2
*B56
 70
     0
 10
0.0
 20
0.0
 30
0.0
  3
*B56
  1

  0
TEXT
  5
204
100
AcDbEntity
  8
TEXT
  6
Continuous
 62
     0
100
AcDbText
 10
278.25
 20
116.884229
 30
0.0
 40
3.5
  1
5
 50
90.0
100
AcDbText
  0
ENDBLK
  5
205
100
AcDbEntity
  8
0
100
AcDbBlockEnd
  0
BLOCK
  5
208
100
AcDbEntity
  8
0
100
AcDbBlockBegin
  2
*B57
 70
     0
 10
0.0
 20
0.0
 30
0.0
  3
*B57
  1

  0
TEXT
  5
209
100
AcDbEntity
  8
TEXT
  6
Continuous
 62
     0
100
AcDbText
 10
293.25
 20
196.332184
 30
0.0
 40
3.5
  1
30
 50
90.0
100
AcDbText
  0
ENDBLK
  5
20A
100
AcDbEntity
  8
0
100
AcDbBlockEnd
  0
BLOCK
  5
20D
100
AcDbEntity
  8
0
100
AcDbBlockBegin
  2
*B58
 70
     0
 10
0.0
 20
0.0
 30
0.0
  3
*B58
  1

  0
TEXT
  5
20E
100
AcDbEntity
  8
TEXT
  6
Continuous
 62
     0
100
AcDbText
 10
232.416667
 20
246.450212
 30
0.0
 40
3.5
  1
G 1/8"
100
AcDbText
  0
ENDBLK
  5
20F
100
AcDbEntity
  8
0
100
AcDbBlockEnd
  0
BLOCK
  5
212
100
AcDbEntity
  8
0
100
AcDbBlockBegin
  2
*B59
 70
     0
 10
0.0
 20
0.0
 30
0.0
  3
*B59
  1

  0
TEXT
  5
213
100
AcDbEntity
  8
TEXT
  6
Continuous
 62
     0
100
AcDbText
 10
164.10656
 20
152.75
 30
0.0
 40
3.5
  1
14
100
AcDbText
  0
ENDBLK
  5
214
100
AcDbEntity
  8
0
100
AcDbBlockEnd
  0
BLOCK
  5
217
100
AcDbEntity
  8
0
100
AcDbBlockBegin
  2
*B60
 70
     0
 10
0.0
 20
0.0
 30
0.0
  3
*B60
  1

  0
TEXT
  5
218
100
AcDbEntity
  8
TEXT
  6
Continuous
 62
     0
100
AcDbText
 10
187.666667
 20
138.75
 30
0.0
 40
3.5
  1
31
100
AcDbText
  0
ENDBLK
  5
219
100
AcDbEntity
  8
0
100
AcDbBlockEnd
  0
ENDSEC
  0
SECTION
  2
ENTITIES
  0
INSERT
  5
4B
100
AcDbEntity
  8
0
  6
Continuous
 62
   174
100
AcDbBlockReference
  2
*B1
 10
0.0
 20
0.0
 30
0.0
  0
INSERT
  5
7E
100
AcDbEntity
  8
0
  6
HIDDEN
 62
   174
100
AcDbBlockReference
  2
*B2
 10
0.0
 20
0.0
 30
0.0
  0
INSERT
  5
85
100
AcDbEntity
  8
0
  6
Continuous
 62
     0
100
AcDbBlockReference
  2
*B3
 10
0.0
 20
0.0
 30
0.0
  0
INSERT
  5
8C
100
AcDbEntity
  8
0
  6
Continuous
 62
     0
100
AcDbBlockReference
  2
*B4
 10
0.0
 20
0.0
 30
0.0
  0
INSERT
  5
93
100
AcDbEntity
  8
0
  6
Continuous
 62
     0
100
AcDbBlockReference
  2
*B5
 10
0.0
 20
0.0
 30
0.0
  0
INSERT
  5
9A
100
AcDbEntity
  8
0
  6
Continuous
 62
     0
100
AcDbBlockReference
  2
*B6
 10
0.0
 20
0.0
 30
0.0
  0
INSERT
  5
A1
100
AcDbEntity
  8
0
  6
Continuous
 62
     0
100
AcDbBlockReference
  2
*B7
 10
0.0
 20
0.0
 30
0.0
  0
INSERT
  5
A8
100
AcDbEntity
  8
0
  6
Continuous
 62
     0
100
AcDbBlockReference
  2
*B8
 10
0.0
 20
0.0
 30
0.0
  0
INSERT
  5
AF
100
AcDbEntity
  8
0
  6
Continuous
 62
     0
100
AcDbBlockReference
  2
*B9
 10
0.0
 20
0.0
 30
0.0
  0
INSERT
  5
B6
100
AcDbEntity
  8
0
  6
Continuous
 62
     0
100
AcDbBlockReference
  2
*B10
 10
0.0
 20
0.0
 30
0.0
  0
INSERT
  5
BD
100
AcDbEntity
  8
0
  6
Continuous
 62
     0
100
AcDbBlockReference
  2
*B11
 10
0.0
 20
0.0
 30
0.0
  0
INSERT
  5
C4
100
AcDbEntity
  8
0
  6
Continuous
 62
     0
100
AcDbBlockReference
  2
*B12
 10
0.0
 20
0.0
 30
0.0
  0
INSERT
  5
CB
100
AcDbEntity
  8
0
  6
Continuous
 62
     0
100
AcDbBlockReference
  2
*B13
 10
0.0
 20
0.0
 30
0.0
  0
INSERT
  5
D2
100
AcDbEntity
  8
0
  6
Continuous
 62
     0
100
AcDbBlockReference
  2
*B14
 10
0.0
 20
0.0
 30
0.0
  0
INSERT
  5
D9
100
AcDbEntity
  8
0
  6
Continuous
 62
     0
100
AcDbBlockReference
  2
*B15
 10
0.0
 20
0.0
 30
0.0
  0
INSERT
  5
E0
100
AcDbEntity
  8
0
  6
Continuous
 62
     8
100
AcDbBlockReference
  2
*B16
 10
0.0
 20
0.0
 30
0.0
  0
INSERT
  5
E9
100
AcDbEntity
  8
0
  6
Continuous
 62
     8
100
AcDbBlockReference
  2
*B17
 10
0.0
 20
0.0
 30
0.0
  0
INSERT
  5
F6
100
AcDbEntity
  8
0
  6
Continuous
 62
     8
100
AcDbBlockReference
  2
*B18
 10
0.0
 20
0.0
 30
0.0
  0
INSERT
  5
FF
100
AcDbEntity
  8
0
  6
Continuous
 62
     8
100
AcDbBlockReference
  2
*B19
 10
0.0
 20
0.0
 30
0.0
  0
INSERT
  5
104
100
AcDbEntity
  8
0
  6
Continuous
 62
     8
100
AcDbBlockReference
  2
*B20
 10
0.0
 20
0.0
 30
0.0
  0
INSERT
  5
10A
100
AcDbEntity
  8
0
  6
Continuous
 62
     8
100
AcDbBlockReference
  2
*B21
 10
0.0
 20
0.0
 30
0.0
  0
INSERT
  5
10F
100
AcDbEntity
  8
0
  6
Continuous
 62
     8
100
AcDbBlockReference
  2
*B22
 10
0.0
 20
0.0
 30
0.0
  0
INSERT
  5
121
100
AcDbEntity
  8
0
  6
Continuous
 62
     8
100
AcDbBlockReference
  2
*B23
 10
0.0
 20
0.0
 30
0.0
  0
INSERT
  5
131
100
AcDbEntity
  8
0
  6
Continuous
 62
     8
100
AcDbBlockReference
  2
*B24
 10
0.0
 20
0.0
 30
0.0
  0
INSERT
  5
136
100
AcDbEntity
  8
0
  6
Continuous
 62
     8
100
AcDbBlockReference
  2
*B25
 10
0.0
 20
0.0
 30
0.0
  0
INSERT
  5
13F
100
AcDbEntity
  8
0
  6
Continuous
 62
     8
100
AcDbBlockReference
  2
*B26
 10
0.0
 20
0.0
 30
0.0
  0
INSERT
  5
144
100
AcDbEntity
  8
0
  6
Continuous
 62
     8
100
AcDbBlockReference
  2
*B27
 10
0.0
 20
0.0
 30
0.0
  0
INSERT
  5
151
100
AcDbEntity
  8
0
  6
Continuous
 62
     8
100
AcDbBlockReference
  2
*B28
 10
0.0
 20
0.0
 30
0.0
  0
INSERT
  5
160
100
AcDbEntity
  8
0
  6
Continuous
 62
     8
100
AcDbBlockReference
  2
*B29
 10
0.0
 20
0.0
 30
0.0
  0
INSERT
  5
16B
100
AcDbEntity
  8
0
  6
Continuous
 62
     8
100
AcDbBlockReference
  2
*B30
 10
0.0
 20
0.0
 30
0.0
  0
INSERT
  5
17B
100
AcDbEntity
  8
0
  6
Continuous
 62
     8
100
AcDbBlockReference
  2
*B31
 10
0.0
 20
0.0
 30
0.0
  0
INSERT
  5
184
100
AcDbEntity
  8
0
  6
Continuous
 62
     8
100
AcDbBlockReference
  2
*B32
 10
0.0
 20
0.0
 30
0.0
  0
INSERT
  5
189
100
AcDbEntity
  8
0
  6
Continuous
 62
     8
100
AcDbBlockReference
  2
*B33
 10
0.0
 20
0.0
 30
0.0
  0
INSERT
  5
18E
100
AcDbEntity
  8
0
  6
Continuous
 62
     8
100
AcDbBlockReference
  2
*B34
 10
0.0
 20
0.0
 30
0.0
  0
INSERT
  5
193
100
AcDbEntity
  8
0
  6
Continuous
 62
     8
100
AcDbBlockReference
  2
*B35
 10
0.0
 20
0.0
 30
0.0
  0
INSERT
  5
19C
100
AcDbEntity
  8
0
  6
Continuous
 62
     8
100
AcDbBlockReference
  2
*B36
 10
0.0
 20
0.0
 30
0.0
  0
INSERT
  5
1A1
100
AcDbEntity
  8
0
  6
Continuous
 62
     8
100
AcDbBlockReference
  2
*B37
 10
0.0
 20
0.0
 30
0.0
  0
INSERT
  5
1A7
100
AcDbEntity
  8
0
  6
Continuous
 62
     6
100
AcDbBlockReference
  2
*B38
 10
0.0
 20
0.0
 30
0.0
  0
INSERT
  5
1AD
100
AcDbEntity
  8
0
  6
Continuous
 62
     6
100
AcDbBlockReference
  2
*B39
 10
0.0
 20
0.0
 30
0.0
  0
INSERT
  5
1B3
100
AcDbEntity
  8
0
  6
Continuous
 62
     6
100
AcDbBlockReference
  2
*B40
 10
0.0
 20
0.0
 30
0.0
  0
INSERT
  5
1B9
100
AcDbEntity
  8
0
  6
Continuous
 62
     6
100
AcDbBlockReference
  2
*B41
 10
0.0
 20
0.0
 30
0.0
  0
INSERT
  5
1BF
100
AcDbEntity
  8
0
  6
Continuous
 62
     6
100
AcDbBlockReference
  2
*B42
 10
0.0
 20
0.0
 30
0.0
  0
INSERT
  5
1C5
100
AcDbEntity
  8
0
  6
Continuous
 62
     6
100
AcDbBlockReference
  2
*B43
 10
0.0
 20
0.0
 30
0.0
  0
INSERT
  5
1CA
100
AcDbEntity
  8
TEXT
  6
Continuous
 62
     0
100
AcDbBlockReference
  2
*B44
 10
0.0
 20
0.0
 30
0.0
  0
INSERT
  5
1CF
100
AcDbEntity
  8
TEXT
  6
Continuous
 62
     0
100
AcDbBlockReference
  2
*B45
 10
0.0
 20
0.0
 30
0.0
  0
INSERT
  5
1D4
100
AcDbEntity
  8
TEXT
  6
Continuous
 62
     0
100
AcDbBlockReference
  2
*B46
 10
0.0
 20
0.0
 30
0.0
  0
INSERT
  5
1D9
100
AcDbEntity
  8
TEXT
  6
Continuous
 62
     0
100
AcDbBlockReference
  2
*B47
 10
0.0
 20
0.0
 30
0.0
  0
INSERT
  5
1DE
100
AcDbEntity
  8
TEXT
  6
Continuous
 62
     0
100
AcDbBlockReference
  2
*B48
 10
0.0
 20
0.0
 30
0.0
  0
INSERT
  5
1E3
100
AcDbEntity
  8
TEXT
  6
Continuous
 62
     0
100
AcDbBlockReference
  2
*B49
 10
0.0
 20
0.0
 30
0.0
  0
INSERT
  5
1E8
100
AcDbEntity
  8
TEXT
  6
Continuous
 62
     0
100
AcDbBlockReference
  2
*B50
 10
0.0
 20
0.0
 30
0.0
  0
INSERT
  5
1ED
100
AcDbEntity
  8
TEXT
  6
Continuous
 62
     0
100
AcDbBlockReference
  2
*B51
 10
0.0
 20
0.0
 30
0.0
  0
INSERT
  5
1F2
100
AcDbEntity
  8
TEXT
  6
Continuous
 62
     0
100
AcDbBlockReference
  2
*B52
 10
0.0
 20
0.0
 30
0.0
  0
INSERT
  5
1F7
100
AcDbEntity
  8
TEXT
  6
Continuous
 62
     0
100
AcDbBlockReference
  2
*B53
 10
0.0
 20
0.0
 30
0.0
  0
INSERT
  5
1FC
100
AcDbEntity
  8
TEXT
  6
Continuous
 62
     0
100
AcDbBlockReference
  2
*B54
 10
0.0
 20
0.0
 30
0.0
  0
INSERT
  5
201
100
AcDbEntity
  8
TEXT
  6
Continuous
 62
     0
100
AcDbBlockReference
  2
*B55
 10
0.0
 20
0.0
 30
0.0
  0
INSERT
  5
206
100
AcDbEntity
  8
TEXT
  6
Continuous
 62
     0
100
AcDbBlockReference
  2
*B56
 10
0.0
 20
0.0
 30
0.0
  0
INSERT
  5
20B
100
AcDbEntity
  8
TEXT
  6
Continuous
 62
     0
100
AcDbBlockReference
  2
*B57
 10
0.0
 20
0.0
 30
0.0
  0
INSERT
  5
210
100
AcDbEntity
  8
TEXT
  6
Continuous
 62
     0
100
AcDbBlockReference
  2
*B58
 10
0.0
 20
0.0
 30
0.0
  0
INSERT
  5
215
100
AcDbEntity
  8
TEXT
  6
Continuous
 62
     0
100
AcDbBlockReference
  2
*B59
 10
0.0
 20
0.0
 30
0.0
  0
INSERT
  5
21A
100
AcDbEntity
  8
TEXT
  6
Continuous
 62
     0
100
AcDbBlockReference
  2
*B60
 10
0.0
 20
0.0
 30
0.0
  0
ENDSEC
  0
SECTION
  2
OBJECTS
  0
DICTIONARY
  5
19
100
AcDbDictionary
280
     0
281
     1
  3
ACAD_GROUP
350
1A
  3
ACAD_MLINESTYLE
350
1B
  3
ACAD_LAYOUT
350
1E
  3
ACAD_PLOTSETTINGS
350
22
  3
ACAD_PLOTSTYLENAME
350
1F
  3
ACAD_WIPEOUT_VARS
350
23
  0
DICTIONARY
  5
1A
102
{ACAD_REACTORS
330
19
102
}
100
AcDbDictionary
280
     0
281
     1
  0
DICTIONARY
  5
1B
102
{ACAD_REACTORS
330
19
102
}
100
AcDbDictionary
280
     0
281
     1
  3
Standard
350
1C
  0
MLINESTYLE
  5
1C
102
{ACAD_REACTORS
330
1B
102
}
100
AcDbMlineStyle
  2
Standard
 70
     0
  3

 62
     0
 51
90.0
 52
90.0
 71
     2
 49
0.5
 62
   256
  6
BYLAYER
 49
-0.5
 62
   256
  6
BYLAYER
  0
ACDBDICTIONARYWDFLT
  5
1F
102
{ACAD_REACTORS
330
19
102
}
100
AcDbDictionary
281
     1
  3
Normal
350
1D
100
AcDbDictionaryWithDefault
340
1D
  0
ACDBPLACEHOLDER
  5
1D
102
{ACAD_REACTORS
330
1F
102
}
  0
LAYOUT
  5
20
102
{ACAD_REACTORS
330
1E
102
}
100
AcDbPlotSettings
  1

  2

  4

  6

 40
0.0
 41
0.0
 42
0.0
 43
0.0
 44
0.0
 45
0.0
 46
0.0
 47
0.0
 48
0.0
 49
0.0
140
0.0
141
0.0
142
1.0
143
1.0
 70
     0
 72
     0
 73
     0
 74
     0
  7

 75
     0
147
1.0
148
0.0
149
0.0
100
AcDbLayout
  1
Model
 70
     0
 71
     0
 10
0.0
 20
0.0
 11
0.0
 21
0.0
 12
0.0
 22
0.0
 32
0.0
 14
0.0
 24
0.0
 34
0.0
 15
0.0
 25
0.0
 35
0.0
146
0.0
 13
0.0
 23
0.0
 33
0.0
 16
0.0
 26
0.0
 36
0.0
 17
0.0
 27
0.0
 37
0.0
 76
     0
330
A
331
0
345
0
346
0
  0
LAYOUT
  5
21
102
{ACAD_REACTORS
330
1E
102
}
100
AcDbPlotSettings
  1

  2

  4

  6

 40
0.0
 41
0.0
 42
0.0
 43
0.0
 44
0.0
 45
0.0
 46
0.0
 47
0.0
 48
0.0
 49
0.0
140
0.0
141
0.0
142
1.0
143
1.0
 70
     0
 72
     0
 73
     0
 74
     0
  7

 75
     0
147
1.0
148
0.0
149
0.0
100
AcDbLayout
  1
Layout1
 70
     0
 71
     0
 10
0.0
 20
0.0
 11
0.0
 21
0.0
 12
0.0
 22
0.0
 32
0.0
 14
0.0
 24
0.0
 34
0.0
 15
0.0
 25
0.0
 35
0.0
146
0.0
 13
0.0
 23
0.0
 33
0.0
 16
0.0
 26
0.0
 36
0.0
 17
0.0
 27
0.0
 37
0.0
 76
     0
330
B
331
0
345
0
346
0
  0
DICTIONARY
  5
1E
102
{ACAD_REACTORS
330
19
102
}
100
AcDbDictionary
280
     0
281
     1
  3
Layout1
350
21
  3
Model
350
20
  0
DICTIONARY
  5
22
102
{ACAD_REACTORS
330
19
102
}
100
AcDbDictionary
280
     0
281
     1
  0
WIPEOUTVARIABLES
  5
23
100
AcDbWipeoutVariables
 70
     1
  0
ENDSEC
  0
EOF
