  0
SECTION
  2
HEADER
  9
$ACADVER
  1
AC1015
  9
$ACADMAINTVER
 70
     6
  9
$DWGCODEPAGE
  3
DOS850
  9
$INSBASE
 10
0.0
 20
0.0
 30
0.0
  9
$EXTMIN
 10
0.0
 20
0.0
 30
0.0
  9
$EXTMAX
 10
420.0
 20
297.0
 30
0.0
  9
$LIMMIN
 10
0.0
 20
0.0
  9
$LIMMAX
 10
420.0
 20
297.0
  9
$ORTHOMODE
 70
     0
  9
$REGENMODE
 70
     1
  9
$FILLMODE
 70
     1
  9
$QTEXTMODE
 70
     0
  9
$MIRRTEXT
 70
     1
  9
$LTSCALE
 40
25.4
  9
$ATTMODE
 70
     1
  9
$TEXTSIZE
 40
3.5
  9
$TRACEWID
 40
0.05
  9
$TEXTSTYLE
  7
Standard
  9
$CLAYER
  8
0
  9
$CELTYPE
  6
Continuous
  9
$CECOLOR
 62
   256
  9
$CELTSCALE
 40
1.0
  9
$DISPSILH
 70
     0
  9
$DIMSCALE
 40
1.0
  9
$DIMASZ
 40
5.0
  9
$DIMEXO
 40
3.0
  9
$DIMDLI
 40
0.38
  9
$DIMRND
 40
0.0
  9
$DIMDLE
 40
0.0
  9
$DIMEXE
 40
2.0
  9
$DIMTP
 40
0.0
  9
$DIMTM
 40
0.0
  9
$DIMTXT
 40
3.5
  9
$DIMCEN
 40
4.0
  9
$DIMTSZ
 40
0.0
  9
$DIMTOL
 70
     0
  9
$DIMLIM
 70
     0
  9
$DIMTIH
 70
     1
  9
$DIMTOH
 70
     1
  9
$DIMSE1
 70
     0
  9
$DIMSE2
 70
     0
  9
$DIMTAD
 70
     0
  9
$DIMZIN
 70
     0
  9
$DIMBLK
  1

  9
$DIMASO
 70
     1
  9
$DIMSHO
 70
     1
  9
$DIMPOST
  1

  9
$DIMAPOST
  1

  9
$DIMALT
 70
     0
  9
$DIMALTD
 70
     2
  9
$DIMALTF
 40
25.4
  9
$DIMLFAC
 40
1.0
  9
$DIMTOFL
 70
     0
  9
$DIMTVP
 40
0.0
  9
$DIMTIX
 70
     0
  9
$DIMSOXD
 70
     0
  9
$DIMSAH
 70
     0
  9
$DIMBLK1
  1

  9
$DIMBLK2
  1

  9
$DIMSTYLE
  2
Standard
  9
$DIMCLRD
 70
     0
  9
$DIMCLRE
 70
     0
  9
$DIMCLRT
 70
     0
  9
$DIMTFAC
 40
1.0
  9
$DIMGAP
 40
1.0
  9
$DIMJUST
 70
     0
  9
$DIMSD1
 70
     0
  9
$DIMSD2
 70
     0
  9
$DIMTOLJ
 70
     1
  9
$DIMTZIN
 70
     0
  9
$DIMALTZ
 70
     0
  9
$DIMALTTZ
 70
     0
  9
$DIMUPT
 70
     0
  9
$DIMDEC
 70
     4
  9
$DIMTDEC
 70
     4
  9
$DIMALTU
 70
     2
  9
$DIMALTTD
 70
     2
  9
$DIMTXSTY
  7
Standard
  9
$DIMAUNIT
 70
     0
  9
$DIMADEC
 70
     0
  9
$DIMALTRND
 40
0.0
  9
$DIMAZIN
 70
     0
  9
$DIMDSEP
 70
     0
  9
$DIMATFIT
 70
     3
  9
$DIMFRAC
 70
     0
  9
$DIMLDRBLK
  1

  9
$DIMLUNIT
 70
     2
  9
$DIMLWD
 70
     0
  9
$DIMLWE
 70
     0
  9
$DIMTMOVE
 70
     0
  9
$LUNITS
 70
     2
  9
$LUPREC
 70
     4
  9
$SKETCHINC
 40
0.1
  9
$FILLETRAD
 40
0.0
  9
$AUNITS
 70
     0
  9
$AUPREC
 70
     0
  9
$MENU
  1
acad
  9
$ELEVATION
 40
0.0
  9
$PELEVATION
 40
0.0
  9
$THICKNESS
 40
0.0
  9
$LIMCHECK
 70
     0
  9
$CHAMFERA
 40
0.0
  9
$CHAMFERB
 40
0.0
  9
$CHAMFERC
 40
0.0
  9
$CHAMFERD
 40
0.0
  9
$SKPOLY
 70
     0
  9
$TDCREATE
 40
0.000000000
  9
$TDUCREATE
 40
0.000000000
  9
$TDUPDATE
 40
0.000000000
  9
$TDUUPDATE
 40
0.000000000
  9
$TDINDWG
 40
0.0000000000
  9
$TDUSRTIMER
 40
0.0000000000
  9
$USRTIMER
 70
     1
  9
$ANGBASE
 50
0.0
  9
$ANGDIR
 70
     0
  9
$PDMODE
 70
     0
  9
$PDSIZE
 40
0.0
  9
$PLINEWID
 40
0.0
  9
$SPLFRAME
 70
     0
  9
$SPLINETYPE
 70
     6
  9
$SPLINESEGS
 70
     8
  9
$HANDSEED
  5
41F
  9
$SURFTAB1
 70
     6
  9
$SURFTAB2
 70
     6
  9
$SURFTYPE
 70
     6
  9
$SURFU
 70
     6
  9
$SURFV
 70
     6
  9
$UCSBASE
  2

  9
$UCSNAME
  2

  9
$UCSORG
 10
0.0
 20
0.0
 30
0.0
  9
$UCSXDIR
 10
1.0
 20
0.0
 30
0.0
  9
$UCSYDIR
 10
0.0
 20
1.0
 30
0.0
  9
$UCSORTHOREF
  2

  9
$UCSORTHOVIEW
 70
     0
  9
$UCSORGTOP
 10
0.0
 20
0.0
 30
0.0
  9
$UCSORGBOTTOM
 10
0.0
 20
0.0
 30
0.0
  9
$UCSORGLEFT
 10
0.0
 20
0.0
 30
0.0
  9
$UCSORGRIGHT
 10
0.0
 20
0.0
 30
0.0
  9
$UCSORGFRONT
 10
0.0
 20
0.0
 30
0.0
  9
$UCSORGBACK
 10
0.0
 20
0.0
 30
0.0
  9
$PUCSBASE
  2

  9
$PUCSNAME
  2

  9
$PUCSORG
 10
0.0
 20
0.0
 30
0.0
  9
$PUCSXDIR
 10
1.0
 20
0.0
 30
0.0
  9
$PUCSYDIR
 10
0.0
 20
1.0
 30
0.0
  9
$PUCSORTHOREF
  2

  9
$PUCSORTHOVIEW
 70
     0
  9
$PUCSORGTOP
 10
0.0
 20
0.0
 30
0.0
  9
$PUCSORGBOTTOM
 10
0.0
 20
0.0
 30
0.0
  9
$PUCSORGLEFT
 10
0.0
 20
0.0
 30
0.0
  9
$PUCSORGRIGHT
 10
0.0
 20
0.0
 30
0.0
  9
$PUCSORGFRONT
 10
0.0
 20
0.0
 30
0.0
  9
$PUCSORGBACK
 10
0.0
 20
0.0
 30
0.0
  9
$USERI1
 70
     0
  9
$USERI2
 70
     0
  9
$USERI3
 70
     0
  9
$USERI4
 70
     0
  9
$USERI5
 70
     0
  9
$USERR1
 40
0.0
  9
$USERR2
 40
0.0
  9
$USERR3
 40
0.0
  9
$USERR4
 40
0.0
  9
$USERR5
 40
0.0
  9
$WORLDVIEW
 70
     1
  9
$SHADEDGE
 70
     3
  9
$SHADEDIF
 70
    70
  9
$TILEMODE
 70
     1
  9
$MAXACTVP
 70
    16
  9
$PINSBASE
 10
0.0
 20
0.0
 30
0.0
  9
$PLIMCHECK
 70
     0
  9
$PEXTMIN
 10
1.000000E+20
 20
1.000000E+20
 30
1.000000E+20
  9
$PEXTMAX
 10
-1.000000E+20
 20
-1.000000E+20
 30
-1.000000E+20
  9
$PLIMMIN
 10
0.0
 20
0.0
  9
$PLIMMAX
 10
420.0
 20
297.0
  9
$UNITMODE
 70
     0
  9
$VISRETAIN
 70
     0
  9
$PLINEGEN
 70
     1
  9
$PSLTSCALE
 70
     0
  9
$TREEDEPTH
 70
  3020
  9
$CMLSTYLE
  2
Standard
  9
$CMLJUST
 70
     0
  9
$CMLSCALE
 40
1.0
  9
$PROXYGRAPHICS
 70
     0
  9
$MEASUREMENT
 70
     0
  9
$CELWEIGHT
370
     0
  9
$ENDCAPS
280
     0
  9
$JOINSTYLE
280
     0
  9
$LWDISPLAY
290
     0
  9
$INSUNITS
 70
     0
  9
$HYPERLINKBASE
  1

  9
$XEDIT
290
     1
  9
$CEPSNTYPE
380
     0
  9
$PSTYLEMODE
290
     0
  9
$FINGERPRINTGUID
  2

  9
$VERSIONGUID
  2

  9
$EXTNAMES
290
     1
  9
$PSVPSCALE
 40
0.0
  0
ENDSEC
  0
SECTION
  2
CLASSES
  0
CLASS
  1
LWPOLYLINE
  2
AcDbPolyline
  3
"AutoCAD"
 90
        0
280
     0
281
     1
  0
CLASS
  1
IMAGE
  2
AcDbRasterImage
  3
ISM
 90
      127
280
     0
281
     1
  0
CLASS
  1
OLE2FRAME
  2
AcDbOle2Frame
  3
""
 90
        0
280
     0
281
     1
  0
CLASS
  1
HATCH
  2
AcDbHatch
  3
"ACAD_SEDONA"
 90
        0
280
     0
281
     1
  0
CLASS
  1
DICTIONARYVAR
  2
AcDbDictionaryVar
  3
"AutoCAD"
 90
        0
280
     0
281
     0
  0
CLASS
  1
RASTERVARIABLES
  2
AcDbRasterVariables
  3
ISM
 90
        0
280
     0
281
     0
  0
CLASS
  1
IMAGEDEF
  2
AcDbRasterImageDef
  3
ISM
 90
        0
280
     0
281
     0
  0
CLASS
  1
IMAGEDEF_REACTOR
  2
AcDbRasterImageDefReactor
  3
ISM
 90
        1
280
     0
281
     0
  0
CLASS
  1
IDBUFFER
  2
AcDbIdBuffer
  3
"Acad"
 90
        0
280
     0
281
     0
  0
CLASS
  1
SPATIAL_FILTER
  2
AcDbSpatialFilter
  3
"Acad"
 90
        0
280
     0
281
     0
  0
CLASS
  1
XRECORD
  2
AcDbXrecord
  3
"<Built In>"
 90
        0
280
     0
281
     0
  0
CLASS
  1
SORTENTSTABLE
  2
AcDbSortentsTable
  3
"AutoCAD"
 90
        0
280
     0
281
     0
  0
CLASS
  1
LAYER_INDEX
  2
AcDbLayerIndex
  3
"Acad"
 90
        0
280
     0
281
     0
  0
CLASS
  1
SPATIAL_INDEX
  2
AcDbSpatialIndex
  3
"Acad"
 90
        0
280
     0
281
     0
  0
CLASS
  1
OBJECT_PTR
  2
CAseDLPNTableRecord
  3
"ASE-LPNTableRecord"
 90
        1
280
     0
281
     0
  0
CLASS
  1
LAYOUT
  2
AcDbLayout
  3
"AutoCAD 2000"
 90
        1
280
     0
281
     0
  0
CLASS
  1
PLOTSETTINGS
  2
AcDbPlotSettings
  3
"AutoCAD 2000"
 90
        1
280
     0
281
     0
  0
CLASS
  1
ACDBDICTIONARYWDFLT
  2
AcDbDictionaryWithDefault
  3
"AutoCAD 2000"
 90
        1
280
     0
281
     0
  0
CLASS
  1
ACDBPLACEHOLDER
  2
AcDbPlaceHolder
  3
"AutoCAD 2000"
 90
        1
280
     0
281
     0
  0
CLASS
  1
VBA_PROJECT
  2
AcDbVbaProject
  3
"acadvba"
 90
        1
280
     0
281
     0
  0
CLASS
  1
WIPEOUT
  2
AcDbWipeout
  3
WipeOut|AutoCAD Express Tool|expresstools@autodesk.com
 90
      127
280
     0
281
     1
  0
CLASS
  1
WIPEOUTVARIABLES
  2
AcDbWipeoutVariables
  3
WipeOut|AutoCAD Express Tool|expresstools@autodesk.com
 90
        0
280
     0
281
     0
  0
CLASS
  1
RTEXT
  2
RText
  3
RText|AutoCAD Express Tool|expresstools@autodesk.com
 90
        0
280
     0
281
     1
  0
CLASS
  1
ARCALIGNEDTEXT
  2
AcDbArcAlignedText
  3
ATEXT|AutoCAD Express Tool|expresstools@autodesk.com
 90
        0
280
     0
281
     1
  0
ENDSEC
  0
SECTION
  2
TABLES
  0
TABLE
  2
VPORT
  5
7
100
AcDbSymbolTable
 70
     1
  0
VPORT
  5
15
100
AcDbSymbolTableRecord
100
AcDbViewportTableRecord
  2
*ACTIVE
 70
     0
 10
0.0
 20
0.0
 11
1.0
 21
1.0
 12
6.591288
 22
4.579184
 13
0.0
 23
0.0
 14
1.0
 24
1.0
 15
0.0
 25
0.0
 16
0.0
 26
0.0
 36
1.0
 17
0.0
 27
0.0
 37
0.0
 40
9.158369
 41
0.688564
 42
50.0
 43
0.0
 44
0.0
 50
0.0
 51
0.0
 71
     0
 72
   100
 73
     1
 74
     1
 75
     0
 76
     0
 77
     0
 78
     0
281
     0
 65
     0
110
0.0
120
0.0
130
0.0
111
1.0
121
0.0
131
0.0
112
0.0
122
1.0
132
0.0
345
0
346
0
 79
     0
146
0.0
  0
ENDTAB
  0
TABLE
  2
LTYPE
  5
4
100
AcDbSymbolTable
 70
     7
  0
LTYPE
  5
11
100
AcDbSymbolTableRecord
100
AcDbLinetypeTableRecord
  2
ByBlock
 70
    64
  3

 72
    65
 73
     0
 40
0.0
  0
LTYPE
  5
12
100
AcDbSymbolTableRecord
100
AcDbLinetypeTableRecord
  2
ByLayer
 70
    64
  3

 72
    65
 73
     0
 40
0.0
  0
LTYPE
  5
13
100
AcDbSymbolTableRecord
100
AcDbLinetypeTableRecord
  2
Continuous
 70
    64
  3
Solid line
 72
    65
 73
     0
 40
0.0
  0
LTYPE
  5
24
100
AcDbSymbolTableRecord
100
AcDbLinetypeTableRecord
  2
HIDDEN
 70
    64
  3
_ _ _ _ _ _ _ _ _ _ _ _ _ _ _ _ _ _ _ _ _ _ _ _
 72
    65
 73
     2
 40
0.1875
 49
0.125
 74
     0
 49
-0.0625
 74
     0
  0
LTYPE
  5
25
100
AcDbSymbolTableRecord
100
AcDbLinetypeTableRecord
  2
DOTTED
 70
    64
  3
...............................................
 72
    65
 73
     2
 40
0.125
 49
0.0
 74
     0
 49
-0.125
 74
     0
  0
LTYPE
  5
26
100
AcDbSymbolTableRecord
100
AcDbLinetypeTableRecord
  2
CENTER
 70
    64
  3
____ _ ____ _ ____ _ ____ _ ____ _ ____ _ ____ 
 72
    65
 73
     4
 40
1.125
 49
0.75
 74
     0
 49
-0.125
 74
     0
 49
0.125
 74
     0
 49
-0.125
 74
     0
  0
LTYPE
  5
27
100
AcDbSymbolTableRecord
100
AcDbLinetypeTableRecord
  2
PHANTOM
 70
    64
  3
______  __  __  ______  __  __  ______  __  __ 
 72
    65
 73
     6
 40
1.25
 49
0.625
 74
     0
 49
-0.125
 74
     0
 49
0.125
 74
     0
 49
-0.125
 74
     0
 49
0.125
 74
     0
 49
-0.125
 74
     0
  0
ENDTAB
  0
TABLE
  2
LAYER
  5
2
100
AcDbSymbolTable
 70
     2
  0
LAYER
  5
14
100
AcDbSymbolTableRecord
100
AcDbLayerTableRecord
  2
0
 70
     0
 62
     7
  6
Continuous
290
     1
370
    -3
390
1D
  0
LAYER
  5
28
100
AcDbSymbolTableRecord
100
AcDbLayerTableRecord
  2
TEXT
 70
     0
 62
     8
  6
Continuous
290
     1
370
    -3
390
1F
  0
ENDTAB
  0
TABLE
  2
STYLE
  5
3
100
AcDbSymbolTable
 70
     1
  0
STYLE
  5
17
100
AcDbSymbolTableRecord
100
AcDbTextStyleTableRecord
  2
Standard
 70
     0
 40
0.0
 41
1.0
 50
0.0
 71
     0
 42
0.0
  3
txt
  4

  0
ENDTAB
  0
TABLE
  2
VIEW
  5
5
100
AcDbSymbolTable
 70
     0
  0
ENDTAB
  0
TABLE
  2
UCS
  5
6
100
AcDbSymbolTable
 70
     0
  0
ENDTAB
  0
TABLE
  2
APPID
  5
8
100
AcDbSymbolTable
 70
     1
  0
APPID
  5
16
100
AcDbSymbolTableRecord
100
AcDbRegAppTableRecord
  2
ACAD
 70
     0
  0
ENDTAB
  0
TABLE
  2
DIMSTYLE
  5
9
100
AcDbSymbolTable
 70
     1
100
AcDbDimStyleTable
 71
     0
  0
DIMSTYLE
105
18
100
AcDbSymbolTableRecord
100
AcDbDimStyleTableRecord
  2
Standard
 70
     0
  3

  4

 40
1.0
 41
0.18
 42
0.0625
 43
0.38
 44
0.18
 45
0.0
 46
0.0
 47
0.0
 48
0.0
 71
     0
 72
     0
 73
     1
 74
     1
 75
     0
 76
     0
 77
     0
 78
     0
 79
     0
140
0.18
141
0.09
142
0.0
143
25.4
144
1.0
145
0.0
146
1.0
147
0.09
148
0.0
170
     0
171
     2
172
     0
173
     0
174
     0
175
     0
176
     0
177
     0
178
     0
179
     0
271
     4
272
     4
273
     2
274
     2
275
     0
276
     0
277
     2
278
    46
279
     0
280
     0
281
     0
282
     0
283
     1
284
     0
285
     0
286
     0
288
     0
340
17
341
0
342
0
343
0
344
0
371
    -2
372
    -2
  0
ENDTAB
  0
TABLE
  2
BLOCK_RECORD
  5
1
100
AcDbSymbolTable
 70
    82
  0
BLOCK_RECORD
  5
A
100
AcDbSymbolTableRecord
100
AcDbBlockTableRecord
  2
*MODEL_SPACE
340
20
  0
BLOCK_RECORD
  5
B
100
AcDbSymbolTableRecord
100
AcDbBlockTableRecord
  2
*PAPER_SPACE
340
21
  0
BLOCK_RECORD
  5
29
100
AcDbSymbolTableRecord
100
AcDbBlockTableRecord
  2
*B0
340
0
  0
BLOCK_RECORD
  5
2C
100
AcDbSymbolTableRecord
100
AcDbBlockTableRecord
  2
*B1
340
0
  0
BLOCK_RECORD
  5
140
100
AcDbSymbolTableRecord
100
AcDbBlockTableRecord
  2
*B2
340
0
  0
BLOCK_RECORD
  5
1FB
100
AcDbSymbolTableRecord
100
AcDbBlockTableRecord
  2
*B3
340
0
  0
BLOCK_RECORD
  5
202
100
AcDbSymbolTableRecord
100
AcDbBlockTableRecord
  2
*B4
340
0
  0
BLOCK_RECORD
  5
209
100
AcDbSymbolTableRecord
100
AcDbBlockTableRecord
  2
*B5
340
0
  0
BLOCK_RECORD
  5
210
100
AcDbSymbolTableRecord
100
AcDbBlockTableRecord
  2
*B6
340
0
  0
BLOCK_RECORD
  5
217
100
AcDbSymbolTableRecord
100
AcDbBlockTableRecord
  2
*B7
340
0
  0
BLOCK_RECORD
  5
21E
100
AcDbSymbolTableRecord
100
AcDbBlockTableRecord
  2
*B8
340
0
  0
BLOCK_RECORD
  5
225
100
AcDbSymbolTableRecord
100
AcDbBlockTableRecord
  2
*B9
340
0
  0
BLOCK_RECORD
  5
22C
100
AcDbSymbolTableRecord
100
AcDbBlockTableRecord
  2
*B10
340
0
  0
BLOCK_RECORD
  5
233
100
AcDbSymbolTableRecord
100
AcDbBlockTableRecord
  2
*B11
340
0
  0
BLOCK_RECORD
  5
23A
100
AcDbSymbolTableRecord
100
AcDbBlockTableRecord
  2
*B12
340
0
  0
BLOCK_RECORD
  5
241
100
AcDbSymbolTableRecord
100
AcDbBlockTableRecord
  2
*B13
340
0
  0
BLOCK_RECORD
  5
248
100
AcDbSymbolTableRecord
100
AcDbBlockTableRecord
  2
*B14
340
0
  0
BLOCK_RECORD
  5
24F
100
AcDbSymbolTableRecord
100
AcDbBlockTableRecord
  2
*B15
340
0
  0
BLOCK_RECORD
  5
256
100
AcDbSymbolTableRecord
100
AcDbBlockTableRecord
  2
*B16
340
0
  0
BLOCK_RECORD
  5
25D
100
AcDbSymbolTableRecord
100
AcDbBlockTableRecord
  2
*B17
340
0
  0
BLOCK_RECORD
  5
264
100
AcDbSymbolTableRecord
100
AcDbBlockTableRecord
  2
*B18
340
0
  0
BLOCK_RECORD
  5
26B
100
AcDbSymbolTableRecord
100
AcDbBlockTableRecord
  2
*B19
340
0
  0
BLOCK_RECORD
  5
276
100
AcDbSymbolTableRecord
100
AcDbBlockTableRecord
  2
*B20
340
0
  0
BLOCK_RECORD
  5
27C
100
AcDbSymbolTableRecord
100
AcDbBlockTableRecord
  2
*B21
340
0
  0
BLOCK_RECORD
  5
282
100
AcDbSymbolTableRecord
100
AcDbBlockTableRecord
  2
*B22
340
0
  0
BLOCK_RECORD
  5
287
100
AcDbSymbolTableRecord
100
AcDbBlockTableRecord
  2
*B23
340
0
  0
BLOCK_RECORD
  5
28C
100
AcDbSymbolTableRecord
100
AcDbBlockTableRecord
  2
*B24
340
0
  0
BLOCK_RECORD
  5
297
100
AcDbSymbolTableRecord
100
AcDbBlockTableRecord
  2
*B25
340
0
  0
BLOCK_RECORD
  5
2A2
100
AcDbSymbolTableRecord
100
AcDbBlockTableRecord
  2
*B26
340
0
  0
BLOCK_RECORD
  5
2AE
100
AcDbSymbolTableRecord
100
AcDbBlockTableRecord
  2
*B27
340
0
  0
BLOCK_RECORD
  5
2B5
100
AcDbSymbolTableRecord
100
AcDbBlockTableRecord
  2
*B28
340
0
  0
BLOCK_RECORD
  5
2C0
100
AcDbSymbolTableRecord
100
AcDbBlockTableRecord
  2
*B29
340
0
  0
BLOCK_RECORD
  5
2C9
100
AcDbSymbolTableRecord
100
AcDbBlockTableRecord
  2
*B30
340
0
  0
BLOCK_RECORD
  5
2DC
100
AcDbSymbolTableRecord
100
AcDbBlockTableRecord
  2
*B31
340
0
  0
BLOCK_RECORD
  5
2E1
100
AcDbSymbolTableRecord
100
AcDbBlockTableRecord
  2
*B32
340
0
  0
BLOCK_RECORD
  5
2E6
100
AcDbSymbolTableRecord
100
AcDbBlockTableRecord
  2
*B33
340
0
  0
BLOCK_RECORD
  5
2F7
100
AcDbSymbolTableRecord
100
AcDbBlockTableRecord
  2
*B34
340
0
  0
BLOCK_RECORD
  5
2FE
100
AcDbSymbolTableRecord
100
AcDbBlockTableRecord
  2
*B35
340
0
  0
BLOCK_RECORD
  5
305
100
AcDbSymbolTableRecord
100
AcDbBlockTableRecord
  2
*B36
340
0
  0
BLOCK_RECORD
  5
30E
100
AcDbSymbolTableRecord
100
AcDbBlockTableRecord
  2
*B37
340
0
  0
BLOCK_RECORD
  5
313
100
AcDbSymbolTableRecord
100
AcDbBlockTableRecord
  2
*B38
340
0
  0
BLOCK_RECORD
  5
31E
100
AcDbSymbolTableRecord
100
AcDbBlockTableRecord
  2
*B39
340
0
  0
BLOCK_RECORD
  5
324
100
AcDbSymbolTableRecord
100
AcDbBlockTableRecord
  2
*B40
340
0
  0
BLOCK_RECORD
  5
32D
100
AcDbSymbolTableRecord
100
AcDbBlockTableRecord
  2
*B41
340
0
  0
BLOCK_RECORD
  5
334
100
AcDbSymbolTableRecord
100
AcDbBlockTableRecord
  2
*B42
340
0
  0
BLOCK_RECORD
  5
33B
100
AcDbSymbolTableRecord
100
AcDbBlockTableRecord
  2
*B43
340
0
  0
BLOCK_RECORD
  5
342
100
AcDbSymbolTableRecord
100
AcDbBlockTableRecord
  2
*B44
340
0
  0
BLOCK_RECORD
  5
347
100
AcDbSymbolTableRecord
100
AcDbBlockTableRecord
  2
*B45
340
0
  0
BLOCK_RECORD
  5
34C
100
AcDbSymbolTableRecord
100
AcDbBlockTableRecord
  2
*B46
340
0
  0
BLOCK_RECORD
  5
360
100
AcDbSymbolTableRecord
100
AcDbBlockTableRecord
  2
*B47
340
0
  0
BLOCK_RECORD
  5
365
100
AcDbSymbolTableRecord
100
AcDbBlockTableRecord
  2
*B48
340
0
  0
BLOCK_RECORD
  5
36B
100
AcDbSymbolTableRecord
100
AcDbBlockTableRecord
  2
*B49
340
0
  0
BLOCK_RECORD
  5
374
100
AcDbSymbolTableRecord
100
AcDbBlockTableRecord
  2
*B50
340
0
  0
BLOCK_RECORD
  5
37B
100
AcDbSymbolTableRecord
100
AcDbBlockTableRecord
  2
*B51
340
0
  0
BLOCK_RECORD
  5
380
100
AcDbSymbolTableRecord
100
AcDbBlockTableRecord
  2
*B52
340
0
  0
BLOCK_RECORD
  5
386
100
AcDbSymbolTableRecord
100
AcDbBlockTableRecord
  2
*B53
340
0
  0
BLOCK_RECORD
  5
38C
100
AcDbSymbolTableRecord
100
AcDbBlockTableRecord
  2
*B54
340
0
  0
BLOCK_RECORD
  5
392
100
AcDbSymbolTableRecord
100
AcDbBlockTableRecord
  2
*B55
340
0
  0
BLOCK_RECORD
  5
398
100
AcDbSymbolTableRecord
100
AcDbBlockTableRecord
  2
*B56
340
0
  0
BLOCK_RECORD
  5
39E
100
AcDbSymbolTableRecord
100
AcDbBlockTableRecord
  2
*B57
340
0
  0
BLOCK_RECORD
  5
3A4
100
AcDbSymbolTableRecord
100
AcDbBlockTableRecord
  2
*B58
340
0
  0
BLOCK_RECORD
  5
3AA
100
AcDbSymbolTableRecord
100
AcDbBlockTableRecord
  2
*B59
340
0
  0
BLOCK_RECORD
  5
3B1
100
AcDbSymbolTableRecord
100
AcDbBlockTableRecord
  2
*B60
340
0
  0
BLOCK_RECORD
  5
3B6
100
AcDbSymbolTableRecord
100
AcDbBlockTableRecord
  2
*B61
340
0
  0
BLOCK_RECORD
  5
3BB
100
AcDbSymbolTableRecord
100
AcDbBlockTableRecord
  2
*B62
340
0
  0
BLOCK_RECORD
  5
3C0
100
AcDbSymbolTableRecord
100
AcDbBlockTableRecord
  2
*B63
340
0
  0
BLOCK_RECORD
  5
3C5
100
AcDbSymbolTableRecord
100
AcDbBlockTableRecord
  2
*B64
340
0
  0
BLOCK_RECORD
  5
3CA
100
AcDbSymbolTableRecord
100
AcDbBlockTableRecord
  2
*B65
340
0
  0
BLOCK_RECORD
  5
3CF
100
AcDbSymbolTableRecord
100
AcDbBlockTableRecord
  2
*B66
340
0
  0
BLOCK_RECORD
  5
3D4
100
AcDbSymbolTableRecord
100
AcDbBlockTableRecord
  2
*B67
340
0
  0
BLOCK_RECORD
  5
3D9
100
AcDbSymbolTableRecord
100
AcDbBlockTableRecord
  2
*B68
340
0
  0
BLOCK_RECORD
  5
3DE
100
AcDbSymbolTableRecord
100
AcDbBlockTableRecord
  2
*B69
340
0
  0
BLOCK_RECORD
  5
3E3
100
AcDbSymbolTableRecord
100
AcDbBlockTableRecord
  2
*B70
340
0
  0
BLOCK_RECORD
  5
3E8
100
AcDbSymbolTableRecord
100
AcDbBlockTableRecord
  2
*B71
340
0
  0
BLOCK_RECORD
  5
3ED
100
AcDbSymbolTableRecord
100
AcDbBlockTableRecord
  2
*B72
340
0
  0
BLOCK_RECORD
  5
3F2
100
AcDbSymbolTableRecord
100
AcDbBlockTableRecord
  2
*B73
340
0
  0
BLOCK_RECORD
  5
3F7
100
AcDbSymbolTableRecord
100
AcDbBlockTableRecord
  2
*B74
340
0
  0
BLOCK_RECORD
  5
3FC
100
AcDbSymbolTableRecord
100
AcDbBlockTableRecord
  2
*B75
340
0
  0
BLOCK_RECORD
  5
401
100
AcDbSymbolTableRecord
100
AcDbBlockTableRecord
  2
*B76
340
0
  0
BLOCK_RECORD
  5
406
100
AcDbSymbolTableRecord
100
AcDbBlockTableRecord
  2
*B77
340
0
  0
BLOCK_RECORD
  5
40B
100
AcDbSymbolTableRecord
100
AcDbBlockTableRecord
  2
*B78
340
0
  0
BLOCK_RECORD
  5
410
100
AcDbSymbolTableRecord
100
AcDbBlockTableRecord
  2
*B79
340
0
  0
BLOCK_RECORD
  5
415
100
AcDbSymbolTableRecord
100
AcDbBlockTableRecord
  2
*B80
340
0
  0
BLOCK_RECORD
  5
41A
100
AcDbSymbolTableRecord
100
AcDbBlockTableRecord
  2
*B81
340
0
  0
ENDTAB
  0
ENDSEC
  0
SECTION
  2
BLOCKS
  0
BLOCK
  5
D
100
AcDbEntity
  8
0
100
AcDbBlockBegin
  2
*MODEL_SPACE
 70
     0
 10
0.0
 20
0.0
 30
0.0
  3
*MODEL_SPACE
  1

  0
ENDBLK
  5
E
100
AcDbEntity
  8
0
100
AcDbBlockEnd
  0
BLOCK
  5
F
100
AcDbEntity
 67
     1
  8
0
100
AcDbBlockBegin
  2
*PAPER_SPACE
 70
     0
 10
0.0
 20
0.0
 30
0.0
  3
*PAPER_SPACE
  1

  0
ENDBLK
  5
10
100
AcDbEntity
 67
     1
  8
0
100
AcDbBlockEnd
  0
BLOCK
  5
2A
100
AcDbEntity
  8
0
100
AcDbBlockBegin
  2
*B0
 70
     0
 10
0.0
 20
0.0
 30
0.0
  3
*B0
  1

  0
ENDBLK
  5
2B
100
AcDbEntity
  8
0
100
AcDbBlockEnd
  0
BLOCK
  5
2D
100
AcDbEntity
  8
0
100
AcDbBlockBegin
  2
*B1
 70
     0
 10
0.0
 20
0.0
 30
0.0
  3
*B1
  1

  0
LINE
  5
2E
100
AcDbEntity
  8
0
  6
HIDDEN
 62
   174
100
AcDbLine
 10
256.720132
 20
73.475642
 30
0.0
 11
256.720132
 21
91.725642
 31
0.0
  0
LINE
  5
2F
100
AcDbEntity
  8
0
  6
HIDDEN
 62
   174
100
AcDbLine
 10
249.220132
 20
73.475642
 30
0.0
 11
249.220132
 21
91.725642
 31
0.0
  0
LINE
  5
30
100
AcDbEntity
  8
0
  6
HIDDEN
 62
   174
100
AcDbLine
 10
256.720132
 20
73.475642
 30
0.0
 11
256.720132
 21
91.725642
 31
0.0
  0
LINE
  5
31
100
AcDbEntity
  8
0
  6
HIDDEN
 62
   174
100
AcDbLine
 10
249.220132
 20
73.475642
 30
0.0
 11
249.220132
 21
91.725642
 31
0.0
  0
LINE
  5
32
100
AcDbEntity
  8
0
  6
HIDDEN
 62
   174
100
AcDbLine
 10
249.245625
 20
73.475642
 30
0.0
 11
256.745596
 21
73.475642
 31
0.0
  0
LINE
  5
33
100
AcDbEntity
  8
0
  6
HIDDEN
 62
   174
100
AcDbLine
 10
256.745596
 20
91.725642
 30
0.0
 11
249.245625
 21
91.725642
 31
0.0
  0
LINE
  5
34
100
AcDbEntity
  8
0
  6
HIDDEN
 62
   174
100
AcDbLine
 10
260.495582
 20
73.475642
 30
0.0
 11
245.495639
 21
73.475642
 31
0.0
  0
LINE
  5
35
100
AcDbEntity
  8
0
  6
HIDDEN
 62
   174
100
AcDbLine
 10
211.720132
 20
73.475642
 30
0.0
 11
211.720132
 21
91.725642
 31
0.0
  0
LINE
  5
36
100
AcDbEntity
  8
0
  6
HIDDEN
 62
   174
100
AcDbLine
 10
204.220132
 20
73.475642
 30
0.0
 11
204.220132
 21
91.725642
 31
0.0
  0
LINE
  5
37
100
AcDbEntity
  8
0
  6
HIDDEN
 62
   174
100
AcDbLine
 10
211.720132
 20
73.475642
 30
0.0
 11
211.720132
 21
91.725642
 31
0.0
  0
LINE
  5
38
100
AcDbEntity
  8
0
  6
HIDDEN
 62
   174
100
AcDbLine
 10
204.220132
 20
73.475642
 30
0.0
 11
204.220132
 21
91.725642
 31
0.0
  0
LINE
  5
39
100
AcDbEntity
  8
0
  6
Continuous
 62
   174
100
AcDbLine
 10
147.970132
 20
91.770258
 30
0.0
 11
147.970132
 21
80.521202
 31
0.0
  0
LINE
  5
3A
100
AcDbEntity
  8
0
  6
Continuous
 62
   174
100
AcDbLine
 10
147.970132
 20
103.019614
 30
0.0
 11
147.970132
 21
91.770258
 31
0.0
  0
LINE
  5
3B
100
AcDbEntity
  8
0
  6
HIDDEN
 62
   174
100
AcDbLine
 10
150.470132
 20
91.770258
 30
0.0
 11
150.470132
 21
80.521202
 31
0.0
  0
LINE
  5
3C
100
AcDbEntity
  8
0
  6
HIDDEN
 62
   174
100
AcDbLine
 10
196.720132
 20
73.475642
 30
0.0
 11
196.720132
 21
91.725642
 31
0.0
  0
ARC
  5
3D
100
AcDbEntity
  8
0
  6
HIDDEN
 62
   174
100
AcDbCircle
 10
258.5949
 20
71.600642
 30
0.0
 40
1.875
100
AcDbArc
 50
-38.183766
 51
0.0
  0
ARC
  5
3E
100
AcDbEntity
  8
0
  6
HIDDEN
 62
   174
100
AcDbCircle
 10
258.5949
 20
71.600642
 30
0.0
 40
1.875
100
AcDbArc
 50
0.0
 51
90.0
  0
ARC
  5
3F
100
AcDbEntity
  8
0
  6
HIDDEN
 62
   174
100
AcDbCircle
 10
247.3449
 20
71.600642
 30
0.0
 40
1.875
100
AcDbArc
 50
0.0
 51
90.0
  0
ARC
  5
40
100
AcDbEntity
  8
0
  6
HIDDEN
 62
   174
100
AcDbCircle
 10
228.5949
 20
71.600642
 30
0.0
 40
1.875
100
AcDbArc
 50
270.0
 51
321.816234
  0
ARC
  5
41
100
AcDbEntity
  8
0
  6
HIDDEN
 62
   174
100
AcDbCircle
 10
228.5949
 20
71.600642
 30
0.0
 40
1.875
100
AcDbArc
 50
-38.183766
 51
0.0
  0
LINE
  5
42
100
AcDbEntity
  8
0
  6
HIDDEN
 62
   174
100
AcDbLine
 10
219.200978
 20
73.475642
 30
0.0
 11
226.790471
 21
73.475642
 31
0.0
  0
LINE
  5
43
100
AcDbEntity
  8
0
  6
HIDDEN
 62
   174
100
AcDbLine
 10
226.790471
 20
73.475642
 30
0.0
 11
228.620553
 21
73.475642
 31
0.0
  0
ARC
  5
44
100
AcDbEntity
  8
0
  6
HIDDEN
 62
   174
100
AcDbCircle
 10
228.5949
 20
71.600642
 30
0.0
 40
1.875
100
AcDbArc
 50
-38.183766
 51
0.0
  0
ARC
  5
45
100
AcDbEntity
  8
0
  6
HIDDEN
 62
   174
100
AcDbCircle
 10
217.3449
 20
71.600642
 30
0.0
 40
1.875
100
AcDbArc
 50
-270.0
 51
-180.0
  0
LINE
  5
46
100
AcDbEntity
  8
0
  6
HIDDEN
 62
   174
100
AcDbLine
 10
217.370596
 20
73.475642
 30
0.0
 11
219.200978
 21
73.475642
 31
0.0
  0
ARC
  5
47
100
AcDbEntity
  8
0
  6
HIDDEN
 62
   174
100
AcDbCircle
 10
217.3449
 20
71.600642
 30
0.0
 40
1.875
100
AcDbArc
 50
0.0
 51
90.0
  0
ARC
  5
48
100
AcDbEntity
  8
0
  6
HIDDEN
 62
   174
100
AcDbCircle
 10
198.5949
 20
71.600642
 30
0.0
 40
1.875
100
AcDbArc
 50
180.0
 51
270.0
  0
ARC
  5
49
100
AcDbEntity
  8
0
  6
HIDDEN
 62
   174
100
AcDbCircle
 10
198.5949
 20
71.600642
 30
0.0
 40
1.875
100
AcDbArc
 50
270.0
 51
321.816234
  0
ARC
  5
4A
100
AcDbEntity
  8
0
  6
HIDDEN
 62
   174
100
AcDbCircle
 10
187.3449
 20
71.600642
 30
0.0
 40
1.875
100
AcDbArc
 50
-180.0
 51
-141.816234
  0
LINE
  5
4B
100
AcDbEntity
  8
0
  6
HIDDEN
 62
   174
100
AcDbLine
 10
196.790586
 20
73.475642
 30
0.0
 11
198.620667
 21
73.475642
 31
0.0
  0
ARC
  5
4C
100
AcDbEntity
  8
0
  6
HIDDEN
 62
   174
100
AcDbCircle
 10
198.5949
 20
71.600642
 30
0.0
 40
1.875
100
AcDbArc
 50
90.0
 51
180.0
  0
LINE
  5
4D
100
AcDbEntity
  8
0
  6
HIDDEN
 62
   174
100
AcDbLine
 10
189.245853
 20
73.475642
 30
0.0
 11
196.745825
 21
73.475642
 31
0.0
  0
ARC
  5
4E
100
AcDbEntity
  8
0
  6
HIDDEN
 62
   174
100
AcDbCircle
 10
247.3449
 20
71.600642
 30
0.0
 40
1.875
100
AcDbArc
 50
-90.0
 51
0.0
  0
LINE
  5
4F
100
AcDbEntity
  8
0
  6
HIDDEN
 62
   174
100
AcDbLine
 10
219.200978
 20
73.475642
 30
0.0
 11
226.790471
 21
73.475642
 31
0.0
  0
ARC
  5
50
100
AcDbEntity
  8
0
  6
HIDDEN
 62
   174
100
AcDbCircle
 10
228.5949
 20
71.600642
 30
0.0
 40
1.875
100
AcDbArc
 50
90.0
 51
180.0
  0
LINE
  5
51
100
AcDbEntity
  8
0
  6
HIDDEN
 62
   174
100
AcDbLine
 10
187.37041
 20
69.725642
 30
0.0
 11
198.620667
 21
69.725642
 31
0.0
  0
ARC
  5
52
100
AcDbEntity
  8
0
  6
HIDDEN
 62
   174
100
AcDbCircle
 10
198.5949
 20
71.600642
 30
0.0
 40
1.875
100
AcDbArc
 50
0.0
 51
90.0
  0
ARC
  5
53
100
AcDbEntity
  8
0
  6
HIDDEN
 62
   174
100
AcDbCircle
 10
247.3449
 20
71.600642
 30
0.0
 40
1.875
100
AcDbArc
 50
-270.0
 51
-180.0
  0
LINE
  5
54
100
AcDbEntity
  8
0
  6
HIDDEN
 62
   174
100
AcDbLine
 10
247.370481
 20
69.725642
 30
0.0
 11
258.620439
 21
69.725642
 31
0.0
  0
LINE
  5
55
100
AcDbEntity
  8
0
  6
HIDDEN
 62
   174
100
AcDbLine
 10
247.370481
 20
73.475642
 30
0.0
 11
249.200864
 21
73.475642
 31
0.0
  0
LINE
  5
56
100
AcDbEntity
  8
0
  6
HIDDEN
 62
   174
100
AcDbLine
 10
217.370596
 20
69.725642
 30
0.0
 11
228.620553
 21
69.725642
 31
0.0
  0
LINE
  5
57
100
AcDbEntity
  8
0
  6
Continuous
 62
   174
100
AcDbLine
 10
187.37041
 20
69.725642
 30
0.0
 11
198.620667
 21
69.725642
 31
0.0
  0
ARC
  5
58
100
AcDbEntity
  8
0
  6
HIDDEN
 62
   174
100
AcDbCircle
 10
198.5949
 20
71.600642
 30
0.0
 40
1.875
100
AcDbArc
 50
0.0
 51
90.0
  0
LINE
  5
59
100
AcDbEntity
  8
0
  6
HIDDEN
 62
   174
100
AcDbLine
 10
187.37041
 20
73.475642
 30
0.0
 11
189.200792
 21
73.475642
 31
0.0
  0
ARC
  5
5A
100
AcDbEntity
  8
0
  6
HIDDEN
 62
   174
100
AcDbCircle
 10
187.3449
 20
71.600642
 30
0.0
 40
1.875
100
AcDbArc
 50
-90.0
 51
0.0
  0
LINE
  5
5B
100
AcDbEntity
  8
0
  6
Continuous
 62
   174
100
AcDbLine
 10
202.370653
 20
69.725642
 30
0.0
 11
213.62061
 21
69.725642
 31
0.0
  0
LINE
  5
5C
100
AcDbEntity
  8
0
  6
HIDDEN
 62
   174
100
AcDbLine
 10
211.745768
 20
91.725642
 30
0.0
 11
204.245796
 21
91.725642
 31
0.0
  0
ARC
  5
5D
100
AcDbEntity
  8
0
  6
HIDDEN
 62
   174
100
AcDbCircle
 10
258.5949
 20
71.600642
 30
0.0
 40
1.875
100
AcDbArc
 50
180.0
 51
270.0
  0
ARC
  5
5E
100
AcDbEntity
  8
0
  6
HIDDEN
 62
   174
100
AcDbCircle
 10
247.3449
 20
71.600642
 30
0.0
 40
1.875
100
AcDbArc
 50
-141.816234
 51
-90.0
  0
LINE
  5
5F
100
AcDbEntity
  8
0
  6
HIDDEN
 62
   174
100
AcDbLine
 10
247.370481
 20
73.475642
 30
0.0
 11
249.200864
 21
73.475642
 31
0.0
  0
LINE
  5
60
100
AcDbEntity
  8
0
  6
HIDDEN
 62
   174
100
AcDbLine
 10
256.790657
 20
73.475642
 30
0.0
 11
258.620439
 21
73.475642
 31
0.0
  0
ARC
  5
61
100
AcDbEntity
  8
0
  6
HIDDEN
 62
   174
100
AcDbCircle
 10
247.3449
 20
71.600642
 30
0.0
 40
1.875
100
AcDbArc
 50
-141.816234
 51
-90.0
  0
ARC
  5
62
100
AcDbEntity
  8
0
  6
HIDDEN
 62
   174
100
AcDbCircle
 10
247.3449
 20
71.600642
 30
0.0
 40
1.875
100
AcDbArc
 50
-180.0
 51
-141.816234
  0
ARC
  5
63
100
AcDbEntity
  8
0
  6
HIDDEN
 62
   174
100
AcDbCircle
 10
258.5949
 20
71.600642
 30
0.0
 40
1.875
100
AcDbArc
 50
180.0
 51
270.0
  0
ARC
  5
64
100
AcDbEntity
  8
0
  6
HIDDEN
 62
   174
100
AcDbCircle
 10
258.5949
 20
71.600642
 30
0.0
 40
1.875
100
AcDbArc
 50
90.0
 51
180.0
  0
ARC
  5
65
100
AcDbEntity
  8
0
  6
HIDDEN
 62
   174
100
AcDbCircle
 10
247.3449
 20
71.600642
 30
0.0
 40
1.875
100
AcDbArc
 50
0.0
 51
90.0
  0
LINE
  5
66
100
AcDbEntity
  8
0
  6
Continuous
 62
   174
100
AcDbLine
 10
217.370596
 20
69.725642
 30
0.0
 11
228.620553
 21
69.725642
 31
0.0
  0
ARC
  5
67
100
AcDbEntity
  8
0
  6
HIDDEN
 62
   174
100
AcDbCircle
 10
217.3449
 20
71.600642
 30
0.0
 40
1.875
100
AcDbArc
 50
-270.0
 51
-180.0
  0
ARC
  5
68
100
AcDbEntity
  8
0
  6
HIDDEN
 62
   174
100
AcDbCircle
 10
217.3449
 20
71.600642
 30
0.0
 40
1.875
100
AcDbArc
 50
-90.0
 51
0.0
  0
LINE
  5
69
100
AcDbEntity
  8
0
  6
HIDDEN
 62
   174
100
AcDbLine
 10
189.200792
 20
73.475642
 30
0.0
 11
196.790586
 21
73.475642
 31
0.0
  0
LINE
  5
6A
100
AcDbEntity
  8
0
  6
HIDDEN
 62
   174
100
AcDbLine
 10
189.220132
 20
73.475642
 30
0.0
 11
189.220132
 21
91.725642
 31
0.0
  0
ARC
  5
6B
100
AcDbEntity
  8
0
  6
HIDDEN
 62
   174
100
AcDbCircle
 10
247.3449
 20
71.600642
 30
0.0
 40
1.875
100
AcDbArc
 50
-270.0
 51
-180.0
  0
LINE
  5
6C
100
AcDbEntity
  8
0
  6
HIDDEN
 62
   174
100
AcDbLine
 10
256.790657
 20
73.475642
 30
0.0
 11
258.620439
 21
73.475642
 31
0.0
  0
ARC
  5
6D
100
AcDbEntity
  8
0
  6
HIDDEN
 62
   174
100
AcDbCircle
 10
228.5949
 20
71.600642
 30
0.0
 40
1.875
100
AcDbArc
 50
0.0
 51
90.0
  0
LINE
  5
6E
100
AcDbEntity
  8
0
  6
HIDDEN
 62
   174
100
AcDbLine
 10
226.790471
 20
73.475642
 30
0.0
 11
228.620553
 21
73.475642
 31
0.0
  0
ARC
  5
6F
100
AcDbEntity
  8
0
  6
HIDDEN
 62
   174
100
AcDbCircle
 10
187.3449
 20
71.600642
 30
0.0
 40
1.875
100
AcDbArc
 50
-141.816234
 51
-90.0
  0
ARC
  5
70
100
AcDbEntity
  8
0
  6
HIDDEN
 62
   174
100
AcDbCircle
 10
187.3449
 20
71.600642
 30
0.0
 40
1.875
100
AcDbArc
 50
-270.0
 51
-180.0
  0
LINE
  5
71
100
AcDbEntity
  8
0
  6
HIDDEN
 62
   174
100
AcDbLine
 10
189.200792
 20
73.475642
 30
0.0
 11
196.790586
 21
73.475642
 31
0.0
  0
LINE
  5
72
100
AcDbEntity
  8
0
  6
HIDDEN
 62
   174
100
AcDbLine
 10
187.37041
 20
73.475642
 30
0.0
 11
189.200792
 21
73.475642
 31
0.0
  0
ARC
  5
73
100
AcDbEntity
  8
0
  6
HIDDEN
 62
   174
100
AcDbCircle
 10
198.5949
 20
71.600642
 30
0.0
 40
1.875
100
AcDbArc
 50
180.0
 51
270.0
  0
ARC
  5
74
100
AcDbEntity
  8
0
  6
HIDDEN
 62
   174
100
AcDbCircle
 10
213.5949
 20
71.600642
 30
0.0
 40
1.875
100
AcDbArc
 50
270.0
 51
321.816234
  0
LINE
  5
75
100
AcDbEntity
  8
0
  6
HIDDEN
 62
   174
100
AcDbLine
 10
215.495753
 20
73.475642
 30
0.0
 11
200.495811
 21
73.475642
 31
0.0
  0
LINE
  5
76
100
AcDbEntity
  8
0
  6
HIDDEN
 62
   174
100
AcDbLine
 10
189.220132
 20
73.475642
 30
0.0
 11
189.220132
 21
91.725642
 31
0.0
  0
ARC
  5
77
100
AcDbEntity
  8
0
  6
HIDDEN
 62
   174
100
AcDbCircle
 10
258.5949
 20
71.600642
 30
0.0
 40
1.875
100
AcDbArc
 50
270.0
 51
321.816234
  0
ARC
  5
78
100
AcDbEntity
  8
0
  6
HIDDEN
 62
   174
100
AcDbCircle
 10
258.5949
 20
71.600642
 30
0.0
 40
1.875
100
AcDbArc
 50
90.0
 51
180.0
  0
ARC
  5
79
100
AcDbEntity
  8
0
  6
HIDDEN
 62
   174
100
AcDbCircle
 10
217.3449
 20
71.600642
 30
0.0
 40
1.875
100
AcDbArc
 50
-180.0
 51
-141.816234
  0
ARC
  5
7A
100
AcDbEntity
  8
0
  6
HIDDEN
 62
   174
100
AcDbCircle
 10
217.3449
 20
71.600642
 30
0.0
 40
1.875
100
AcDbArc
 50
-180.0
 51
-141.816234
  0
ARC
  5
7B
100
AcDbEntity
  8
0
  6
HIDDEN
 62
   174
100
AcDbCircle
 10
228.5949
 20
71.600642
 30
0.0
 40
1.875
100
AcDbArc
 50
90.0
 51
180.0
  0
ARC
  5
7C
100
AcDbEntity
  8
0
  6
HIDDEN
 62
   174
100
AcDbCircle
 10
187.3449
 20
71.600642
 30
0.0
 40
1.875
100
AcDbArc
 50
-141.816234
 51
-90.0
  0
ARC
  5
7D
100
AcDbEntity
  8
0
  6
HIDDEN
 62
   174
100
AcDbCircle
 10
187.3449
 20
71.600642
 30
0.0
 40
1.875
100
AcDbArc
 50
0.0
 51
90.0
  0
ARC
  5
7E
100
AcDbEntity
  8
0
  6
HIDDEN
 62
   174
100
AcDbCircle
 10
187.3449
 20
71.600642
 30
0.0
 40
1.875
100
AcDbArc
 50
0.0
 51
90.0
  0
ARC
  5
7F
100
AcDbEntity
  8
0
  6
HIDDEN
 62
   174
100
AcDbCircle
 10
198.5949
 20
71.600642
 30
0.0
 40
1.875
100
AcDbArc
 50
90.0
 51
180.0
  0
ARC
  5
80
100
AcDbEntity
  8
0
  6
HIDDEN
 62
   174
100
AcDbCircle
 10
213.5949
 20
71.600642
 30
0.0
 40
1.875
100
AcDbArc
 50
180.0
 51
270.0
  0
LINE
  5
81
100
AcDbEntity
  8
0
  6
HIDDEN
 62
   174
100
AcDbLine
 10
204.245796
 20
73.475642
 30
0.0
 11
211.745768
 21
73.475642
 31
0.0
  0
ARC
  5
82
100
AcDbEntity
  8
0
  6
HIDDEN
 62
   174
100
AcDbCircle
 10
258.5949
 20
71.600642
 30
0.0
 40
1.875
100
AcDbArc
 50
-38.183766
 51
0.0
  0
LINE
  5
83
100
AcDbEntity
  8
0
  6
HIDDEN
 62
   174
100
AcDbLine
 10
249.200864
 20
73.475642
 30
0.0
 11
256.790657
 21
73.475642
 31
0.0
  0
ARC
  5
84
100
AcDbEntity
  8
0
  6
HIDDEN
 62
   174
100
AcDbCircle
 10
228.5949
 20
71.600642
 30
0.0
 40
1.875
100
AcDbArc
 50
180.0
 51
270.0
  0
ARC
  5
85
100
AcDbEntity
  8
0
  6
HIDDEN
 62
   174
100
AcDbCircle
 10
228.5949
 20
71.600642
 30
0.0
 40
1.875
100
AcDbArc
 50
0.0
 51
90.0
  0
LINE
  5
86
100
AcDbEntity
  8
0
  6
HIDDEN
 62
   174
100
AcDbLine
 10
217.370596
 20
73.475642
 30
0.0
 11
219.200978
 21
73.475642
 31
0.0
  0
ARC
  5
87
100
AcDbEntity
  8
0
  6
HIDDEN
 62
   174
100
AcDbCircle
 10
217.3449
 20
71.600642
 30
0.0
 40
1.875
100
AcDbArc
 50
-141.816234
 51
-90.0
  0
ARC
  5
88
100
AcDbEntity
  8
0
  6
HIDDEN
 62
   174
100
AcDbCircle
 10
228.5949
 20
71.600642
 30
0.0
 40
1.875
100
AcDbArc
 50
180.0
 51
270.0
  0
ARC
  5
89
100
AcDbEntity
  8
0
  6
HIDDEN
 62
   174
100
AcDbCircle
 10
217.3449
 20
71.600642
 30
0.0
 40
1.875
100
AcDbArc
 50
0.0
 51
90.0
  0
ARC
  5
8A
100
AcDbEntity
  8
0
  6
HIDDEN
 62
   174
100
AcDbCircle
 10
198.5949
 20
71.600642
 30
0.0
 40
1.875
100
AcDbArc
 50
270.0
 51
321.816234
  0
ARC
  5
8B
100
AcDbEntity
  8
0
  6
HIDDEN
 62
   174
100
AcDbCircle
 10
187.3449
 20
71.600642
 30
0.0
 40
1.875
100
AcDbArc
 50
-180.0
 51
-141.816234
  0
ARC
  5
8C
100
AcDbEntity
  8
0
  6
HIDDEN
 62
   174
100
AcDbCircle
 10
187.3449
 20
71.600642
 30
0.0
 40
1.875
100
AcDbArc
 50
-270.0
 51
-180.0
  0
ARC
  5
8D
100
AcDbEntity
  8
0
  6
HIDDEN
 62
   174
100
AcDbCircle
 10
198.5949
 20
71.600642
 30
0.0
 40
1.875
100
AcDbArc
 50
-38.183766
 51
0.0
  0
ARC
  5
8E
100
AcDbEntity
  8
0
  6
HIDDEN
 62
   174
100
AcDbCircle
 10
187.3449
 20
71.600642
 30
0.0
 40
1.875
100
AcDbArc
 50
-90.0
 51
0.0
  0
LINE
  5
8F
100
AcDbEntity
  8
0
  6
HIDDEN
 62
   174
100
AcDbLine
 10
150.470132
 20
103.019614
 30
0.0
 11
150.470132
 21
91.770258
 31
0.0
  0
LINE
  5
90
100
AcDbEntity
  8
0
  6
HIDDEN
 62
   174
100
AcDbLine
 10
196.720132
 20
73.475642
 30
0.0
 11
196.720132
 21
91.725642
 31
0.0
  0
LINE
  5
91
100
AcDbEntity
  8
0
  6
Continuous
 62
   174
100
AcDbLine
 10
247.370481
 20
69.725642
 30
0.0
 11
258.620439
 21
69.725642
 31
0.0
  0
ARC
  5
92
100
AcDbEntity
  8
0
  6
HIDDEN
 62
   174
100
AcDbCircle
 10
258.5949
 20
71.600642
 30
0.0
 40
1.875
100
AcDbArc
 50
270.0
 51
321.816234
  0
ARC
  5
93
100
AcDbEntity
  8
0
  6
HIDDEN
 62
   174
100
AcDbCircle
 10
247.3449
 20
71.600642
 30
0.0
 40
1.875
100
AcDbArc
 50
-180.0
 51
-141.816234
  0
ARC
  5
94
100
AcDbEntity
  8
0
  6
HIDDEN
 62
   174
100
AcDbCircle
 10
258.5949
 20
71.600642
 30
0.0
 40
1.875
100
AcDbArc
 50
0.0
 51
90.0
  0
LINE
  5
95
100
AcDbEntity
  8
0
  6
HIDDEN
 62
   174
100
AcDbLine
 10
249.200864
 20
73.475642
 30
0.0
 11
256.790657
 21
73.475642
 31
0.0
  0
ARC
  5
96
100
AcDbEntity
  8
0
  6
HIDDEN
 62
   174
100
AcDbCircle
 10
247.3449
 20
71.600642
 30
0.0
 40
1.875
100
AcDbArc
 50
-90.0
 51
0.0
  0
ARC
  5
97
100
AcDbEntity
  8
0
  6
HIDDEN
 62
   174
100
AcDbCircle
 10
217.3449
 20
71.600642
 30
0.0
 40
1.875
100
AcDbArc
 50
-141.816234
 51
-90.0
  0
ARC
  5
98
100
AcDbEntity
  8
0
  6
HIDDEN
 62
   174
100
AcDbCircle
 10
228.5949
 20
71.600642
 30
0.0
 40
1.875
100
AcDbArc
 50
270.0
 51
321.816234
  0
ARC
  5
99
100
AcDbEntity
  8
0
  6
HIDDEN
 62
   174
100
AcDbCircle
 10
217.3449
 20
71.600642
 30
0.0
 40
1.875
100
AcDbArc
 50
-90.0
 51
0.0
  0
ARC
  5
9A
100
AcDbEntity
  8
0
  6
HIDDEN
 62
   174
100
AcDbCircle
 10
198.5949
 20
71.600642
 30
0.0
 40
1.875
100
AcDbArc
 50
-38.183766
 51
0.0
  0
LINE
  5
9B
100
AcDbEntity
  8
0
  6
HIDDEN
 62
   174
100
AcDbLine
 10
196.790586
 20
73.475642
 30
0.0
 11
198.620667
 21
73.475642
 31
0.0
  0
LINE
  5
9C
100
AcDbEntity
  8
0
  6
HIDDEN
 62
   174
100
AcDbLine
 10
241.220132
 20
122.225642
 30
0.0
 11
241.220132
 21
70.475642
 31
0.0
  0
LINE
  5
9D
100
AcDbEntity
  8
0
  6
Continuous
 62
   174
100
AcDbLine
 10
265.470132
 20
80.475642
 30
0.0
 11
267.970132
 21
80.475642
 31
0.0
  0
LINE
  5
9E
100
AcDbEntity
  8
0
  6
HIDDEN
 62
   174
100
AcDbLine
 10
185.470132
 20
70.475642
 30
0.0
 11
185.470132
 21
73.475642
 31
0.0
  0
LINE
  5
9F
100
AcDbEntity
  8
0
  6
HIDDEN
 62
   174
100
AcDbLine
 10
181.220132
 20
122.225642
 30
0.0
 11
181.220132
 21
70.475642
 31
0.0
  0
LINE
  5
A0
100
AcDbEntity
  8
0
  6
Continuous
 62
   174
100
AcDbLine
 10
267.970132
 20
91.770258
 30
0.0
 11
267.970132
 21
103.019614
 31
0.0
  0
LINE
  5
A1
100
AcDbEntity
  8
0
  6
HIDDEN
 62
   174
100
AcDbLine
 10
232.370839
 20
125.475642
 30
0.0
 11
234.018273
 21
125.475642
 31
0.0
  0
ARC
  5
A2
100
AcDbEntity
  8
0
  6
HIDDEN
 62
   174
100
AcDbCircle
 10
202.3449
 20
71.600642
 30
0.0
 40
1.875
100
AcDbArc
 50
0.0
 51
90.0
  0
ARC
  5
A3
100
AcDbEntity
  8
0
  6
HIDDEN
 62
   174
100
AcDbCircle
 10
157.3449
 20
71.600642
 30
0.0
 40
1.875
100
AcDbArc
 50
-90.0
 51
0.0
  0
LINE
  5
A4
100
AcDbEntity
  8
0
  6
HIDDEN
 62
   174
100
AcDbLine
 10
230.378537
 20
70.475642
 30
0.0
 11
228.299117
 21
70.475642
 31
0.0
  0
ARC
  5
A5
100
AcDbEntity
  8
0
  6
HIDDEN
 62
   174
100
AcDbCircle
 10
202.3449
 20
71.600642
 30
0.0
 40
1.875
100
AcDbArc
 50
-180.0
 51
-141.816234
  0
LINE
  5
A6
100
AcDbEntity
  8
0
  6
HIDDEN
 62
   174
100
AcDbLine
 10
240.900908
 20
122.225642
 30
0.0
 11
239.620872
 21
122.225642
 31
0.0
  0
LINE
  5
A7
100
AcDbEntity
  8
0
  6
HIDDEN
 62
   174
100
AcDbLine
 10
215.495753
 20
70.475642
 30
0.0
 11
215.378594
 21
70.475642
 31
0.0
  0
LINE
  5
A8
100
AcDbEntity
  8
0
  6
HIDDEN
 62
   174
100
AcDbLine
 10
170.470132
 20
70.475642
 30
0.0
 11
170.470132
 21
73.475642
 31
0.0
  0
ARC
  5
A9
100
AcDbEntity
  8
0
  6
HIDDEN
 62
   174
100
AcDbCircle
 10
202.3449
 20
71.600642
 30
0.0
 40
1.875
100
AcDbArc
 50
-270.0
 51
-180.0
  0
LINE
  5
AA
100
AcDbEntity
  8
0
  6
HIDDEN
 62
   174
100
AcDbLine
 10
200.470132
 20
70.475642
 30
0.0
 11
200.470132
 21
73.475642
 31
0.0
  0
LINE
  5
AB
100
AcDbEntity
  8
0
  6
HIDDEN
 62
   174
100
AcDbLine
 10
174.720132
 20
122.225642
 30
0.0
 11
174.720132
 21
70.475642
 31
0.0
  0
ARC
  5
AC
100
AcDbEntity
  8
0
  6
HIDDEN
 62
   174
100
AcDbCircle
 10
168.5949
 20
71.600642
 30
0.0
 40
1.875
100
AcDbArc
 50
-38.183766
 51
0.0
  0
LINE
  5
AD
100
AcDbEntity
  8
0
  6
HIDDEN
 62
   174
100
AcDbLine
 10
159.220132
 20
73.475642
 30
0.0
 11
159.220132
 21
91.725642
 31
0.0
  0
LINE
  5
AE
100
AcDbEntity
  8
0
  6
HIDDEN
 62
   174
100
AcDbLine
 10
159.245667
 20
73.475642
 30
0.0
 11
166.745939
 21
73.475642
 31
0.0
  0
LINE
  5
AF
100
AcDbEntity
  8
0
  6
HIDDEN
 62
   174
100
AcDbLine
 10
235.090427
 20
122.225642
 30
0.0
 11
234.74586
 21
122.225642
 31
0.0
  0
ARC
  5
B0
100
AcDbEntity
  8
0
  6
HIDDEN
 62
   174
100
AcDbCircle
 10
157.3449
 20
71.600642
 30
0.0
 40
1.875
100
AcDbArc
 50
-141.816234
 51
-90.0
  0
LINE
  5
B1
100
AcDbEntity
  8
0
  6
HIDDEN
 62
   174
100
AcDbLine
 10
247.692518
 20
70.475642
 30
0.0
 11
245.612798
 21
70.475642
 31
0.0
  0
LINE
  5
B2
100
AcDbEntity
  8
0
  6
HIDDEN
 62
   174
100
AcDbLine
 10
215.470132
 20
70.475642
 30
0.0
 11
215.470132
 21
73.475642
 31
0.0
  0
LINE
  5
B3
100
AcDbEntity
  8
0
  6
HIDDEN
 62
   174
100
AcDbLine
 10
204.200735
 20
73.475642
 30
0.0
 11
211.790528
 21
73.475642
 31
0.0
  0
LINE
  5
B4
100
AcDbEntity
  8
0
  6
HIDDEN
 62
   174
100
AcDbLine
 10
170.495625
 20
70.475642
 30
0.0
 11
170.378466
 21
70.475642
 31
0.0
  0
LINE
  5
B5
100
AcDbEntity
  8
0
  6
HIDDEN
 62
   174
100
AcDbLine
 10
202.370653
 20
69.725642
 30
0.0
 11
213.62061
 21
69.725642
 31
0.0
  0
LINE
  5
B6
100
AcDbEntity
  8
0
  6
HIDDEN
 62
   174
100
AcDbLine
 10
211.790528
 20
73.475642
 30
0.0
 11
213.62061
 21
73.475642
 31
0.0
  0
LINE
  5
B7
100
AcDbEntity
  8
0
  6
HIDDEN
 62
   174
100
AcDbLine
 10
215.378594
 20
70.475642
 30
0.0
 11
213.299174
 21
70.475642
 31
0.0
  0
LINE
  5
B8
100
AcDbEntity
  8
0
  6
HIDDEN
 62
   174
100
AcDbLine
 10
230.470132
 20
70.475642
 30
0.0
 11
230.470132
 21
73.475642
 31
0.0
  0
LINE
  5
B9
100
AcDbEntity
  8
0
  6
HIDDEN
 62
   174
100
AcDbLine
 10
239.620872
 20
122.225642
 30
0.0
 11
236.370764
 21
122.225642
 31
0.0
  0
LINE
  5
BA
100
AcDbEntity
  8
0
  6
Continuous
 62
   174
100
AcDbLine
 10
150.470132
 20
125.475642
 30
0.0
 11
235.393191
 21
125.475642
 31
0.0
  0
LINE
  5
BB
100
AcDbEntity
  8
0
  6
HIDDEN
 62
   174
100
AcDbLine
 10
172.370768
 20
122.225642
 30
0.0
 11
183.620725
 21
122.225642
 31
0.0
  0
ARC
  5
BC
100
AcDbEntity
  8
0
  6
HIDDEN
 62
   174
100
AcDbCircle
 10
168.5949
 20
71.600642
 30
0.0
 40
1.875
100
AcDbArc
 50
-38.183766
 51
0.0
  0
LINE
  5
BD
100
AcDbEntity
  8
0
  6
Continuous
 62
   174
100
AcDbLine
 10
150.470132
 20
102.975642
 30
0.0
 11
147.970132
 21
102.975642
 31
0.0
  0
LINE
  5
BE
100
AcDbEntity
  8
0
  6
HIDDEN
 62
   174
100
AcDbLine
 10
200.470132
 20
70.475642
 30
0.0
 11
200.470132
 21
73.475642
 31
0.0
  0
LINE
  5
BF
100
AcDbEntity
  8
0
  6
HIDDEN
 62
   174
100
AcDbLine
 10
258.299003
 20
70.475642
 30
0.0
 11
247.692518
 21
70.475642
 31
0.0
  0
LINE
  5
C0
100
AcDbEntity
  8
0
  6
HIDDEN
 62
   174
100
AcDbLine
 10
155.612841
 20
70.475642
 30
0.0
 11
155.495682
 21
70.475642
 31
0.0
  0
LINE
  5
C1
100
AcDbEntity
  8
0
  6
Continuous
 62
   174
100
AcDbLine
 10
235.393191
 20
125.475642
 30
0.0
 11
235.393191
 21
122.225642
 31
0.0
  0
LINE
  5
C2
100
AcDbEntity
  8
0
  6
HIDDEN
 62
   174
100
AcDbLine
 10
215.470132
 20
70.475642
 30
0.0
 11
215.470132
 21
73.475642
 31
0.0
  0
ARC
  5
C3
100
AcDbEntity
  8
0
  6
HIDDEN
 62
   174
100
AcDbCircle
 10
168.5949
 20
71.600642
 30
0.0
 40
1.875
100
AcDbArc
 50
0.0
 51
90.0
  0
LINE
  5
C4
100
AcDbEntity
  8
0
  6
Continuous
 62
   174
100
AcDbLine
 10
240.547073
 20
125.475642
 30
0.0
 11
265.470132
 21
125.475642
 31
0.0
  0
LINE
  5
C5
100
AcDbEntity
  8
0
  6
HIDDEN
 62
   174
100
AcDbLine
 10
217.692332
 20
70.475642
 30
0.0
 11
215.612912
 21
70.475642
 31
0.0
  0
ARC
  5
C6
100
AcDbEntity
  8
0
  6
HIDDEN
 62
   174
100
AcDbCircle
 10
202.3449
 20
71.600642
 30
0.0
 40
1.875
100
AcDbArc
 50
-141.816234
 51
-90.0
  0
LINE
  5
C7
100
AcDbEntity
  8
0
  6
HIDDEN
 62
   174
100
AcDbLine
 10
166.745939
 20
91.725642
 30
0.0
 11
159.245667
 21
91.725642
 31
0.0
  0
LINE
  5
C8
100
AcDbEntity
  8
0
  6
HIDDEN
 62
   174
100
AcDbLine
 10
234.74586
 20
70.475642
 30
0.0
 11
241.245775
 21
70.475642
 31
0.0
  0
LINE
  5
C9
100
AcDbEntity
  8
0
  6
HIDDEN
 62
   174
100
AcDbLine
 10
180.572791
 20
125.475642
 30
0.0
 11
183.620725
 21
125.475642
 31
0.0
  0
ARC
  5
CA
100
AcDbEntity
  8
0
  6
HIDDEN
 62
   174
100
AcDbCircle
 10
168.5949
 20
71.600642
 30
0.0
 40
1.875
100
AcDbArc
 50
270.0
 51
321.816234
  0
ARC
  5
CB
100
AcDbEntity
  8
0
  6
HIDDEN
 62
   174
100
AcDbCircle
 10
157.3449
 20
71.600642
 30
0.0
 40
1.875
100
AcDbArc
 50
0.0
 51
90.0
  0
LINE
  5
CC
100
AcDbEntity
  8
0
  6
HIDDEN
 62
   174
100
AcDbLine
 10
196.745825
 20
91.725642
 30
0.0
 11
189.245853
 21
91.725642
 31
0.0
  0
ARC
  5
CD
100
AcDbEntity
  8
0
  6
HIDDEN
 62
   174
100
AcDbCircle
 10
202.3449
 20
71.600642
 30
0.0
 40
1.875
100
AcDbArc
 50
-90.0
 51
0.0
  0
LINE
  5
CE
100
AcDbEntity
  8
0
  6
HIDDEN
 62
   174
100
AcDbLine
 10
200.470132
 20
70.475642
 30
0.0
 11
200.470132
 21
73.475642
 31
0.0
  0
LINE
  5
CF
100
AcDbEntity
  8
0
  6
HIDDEN
 62
   174
100
AcDbLine
 10
230.470132
 20
70.475642
 30
0.0
 11
230.470132
 21
73.475642
 31
0.0
  0
LINE
  5
D0
100
AcDbEntity
  8
0
  6
Continuous
 62
   174
100
AcDbLine
 10
235.393191
 20
122.225642
 30
0.0
 11
240.547073
 21
122.225642
 31
0.0
  0
LINE
  5
D1
100
AcDbEntity
  8
0
  6
HIDDEN
 62
   174
100
AcDbLine
 10
200.495811
 20
73.475642
 30
0.0
 11
185.495868
 21
73.475642
 31
0.0
  0
LINE
  5
D2
100
AcDbEntity
  8
0
  6
HIDDEN
 62
   174
100
AcDbLine
 10
230.495696
 20
73.475642
 30
0.0
 11
215.495753
 21
73.475642
 31
0.0
  0
LINE
  5
D3
100
AcDbEntity
  8
0
  6
HIDDEN
 62
   174
100
AcDbLine
 10
260.378423
 20
70.475642
 30
0.0
 11
258.299003
 21
70.475642
 31
0.0
  0
LINE
  5
D4
100
AcDbEntity
  8
0
  6
HIDDEN
 62
   174
100
AcDbLine
 10
202.370653
 20
73.475642
 30
0.0
 11
204.200735
 21
73.475642
 31
0.0
  0
LINE
  5
D5
100
AcDbEntity
  8
0
  6
HIDDEN
 62
   174
100
AcDbLine
 10
240.750103
 20
125.475642
 30
0.0
 11
241.973362
 21
125.475642
 31
0.0
  0
LINE
  5
D6
100
AcDbEntity
  8
0
  6
HIDDEN
 62
   174
100
AcDbLine
 10
200.378351
 20
70.475642
 30
0.0
 11
198.298931
 21
70.475642
 31
0.0
  0
LINE
  5
D7
100
AcDbEntity
  8
0
  6
HIDDEN
 62
   174
100
AcDbLine
 10
226.74571
 20
91.725642
 30
0.0
 11
219.245739
 21
91.725642
 31
0.0
  0
LINE
  5
D8
100
AcDbEntity
  8
0
  6
HIDDEN
 62
   174
100
AcDbLine
 10
260.495582
 20
70.475642
 30
0.0
 11
260.378423
 21
70.475642
 31
0.0
  0
LINE
  5
D9
100
AcDbEntity
  8
0
  6
HIDDEN
 62
   174
100
AcDbLine
 10
181.220132
 20
122.225642
 30
0.0
 11
181.220132
 21
70.475642
 31
0.0
  0
ARC
  5
DA
100
AcDbEntity
  8
0
  6
HIDDEN
 62
   174
100
AcDbCircle
 10
213.5949
 20
71.600642
 30
0.0
 40
1.875
100
AcDbArc
 50
-38.183766
 51
0.0
  0
LINE
  5
DB
100
AcDbEntity
  8
0
  6
HIDDEN
 62
   174
100
AcDbLine
 10
166.7907
 20
73.475642
 30
0.0
 11
168.620481
 21
73.475642
 31
0.0
  0
LINE
  5
DC
100
AcDbEntity
  8
0
  6
HIDDEN
 62
   174
100
AcDbLine
 10
185.612726
 20
70.475642
 30
0.0
 11
185.495868
 21
70.475642
 31
0.0
  0
LINE
  5
DD
100
AcDbEntity
  8
0
  6
HIDDEN
 62
   174
100
AcDbLine
 10
265.470132
 20
91.770258
 30
0.0
 11
265.470132
 21
103.019614
 31
0.0
  0
LINE
  5
DE
100
AcDbEntity
  8
0
  6
HIDDEN
 62
   174
100
AcDbLine
 10
157.370524
 20
73.475642
 30
0.0
 11
159.200907
 21
73.475642
 31
0.0
  0
LINE
  5
DF
100
AcDbEntity
  8
0
  6
HIDDEN
 62
   174
100
AcDbLine
 10
215.612912
 20
70.475642
 30
0.0
 11
215.495753
 21
70.475642
 31
0.0
  0
ARC
  5
E0
100
AcDbEntity
  8
0
  6
HIDDEN
 62
   174
100
AcDbCircle
 10
168.5949
 20
71.600642
 30
0.0
 40
1.875
100
AcDbArc
 50
180.0
 51
270.0
  0
ARC
  5
E1
100
AcDbEntity
  8
0
  6
HIDDEN
 62
   174
100
AcDbCircle
 10
202.3449
 20
71.600642
 30
0.0
 40
1.875
100
AcDbArc
 50
-180.0
 51
-141.816234
  0
ARC
  5
E2
100
AcDbEntity
  8
0
  6
HIDDEN
 62
   174
100
AcDbCircle
 10
168.5949
 20
71.600642
 30
0.0
 40
1.875
100
AcDbArc
 50
0.0
 51
90.0
  0
LINE
  5
E3
100
AcDbEntity
  8
0
  6
HIDDEN
 62
   174
100
AcDbLine
 10
236.370764
 20
122.225642
 30
0.0
 11
235.090427
 21
122.225642
 31
0.0
  0
LINE
  5
E4
100
AcDbEntity
  8
0
  6
HIDDEN
 62
   174
100
AcDbLine
 10
157.692561
 20
70.475642
 30
0.0
 11
155.612841
 21
70.475642
 31
0.0
  0
LINE
  5
E5
100
AcDbEntity
  8
0
  6
Continuous
 62
   174
100
AcDbLine
 10
150.470132
 20
80.475642
 30
0.0
 11
147.970132
 21
80.475642
 31
0.0
  0
ARC
  5
E6
100
AcDbEntity
  8
0
  6
HIDDEN
 62
   174
100
AcDbCircle
 10
157.3449
 20
71.600642
 30
0.0
 40
1.875
100
AcDbArc
 50
0.0
 51
90.0
  0
LINE
  5
E7
100
AcDbEntity
  8
0
  6
HIDDEN
 62
   174
100
AcDbLine
 10
230.495696
 20
70.475642
 30
0.0
 11
230.378537
 21
70.475642
 31
0.0
  0
LINE
  5
E8
100
AcDbEntity
  8
0
  6
HIDDEN
 62
   174
100
AcDbLine
 10
175.393191
 20
125.475642
 30
0.0
 11
175.393191
 21
122.225642
 31
0.0
  0
ARC
  5
E9
100
AcDbEntity
  8
0
  6
HIDDEN
 62
   174
100
AcDbCircle
 10
213.5949
 20
71.600642
 30
0.0
 40
1.875
100
AcDbArc
 50
90.0
 51
180.0
  0
LINE
  5
EA
100
AcDbEntity
  8
0
  6
HIDDEN
 62
   174
100
AcDbLine
 10
241.973362
 20
125.475642
 30
0.0
 11
243.620796
 21
125.475642
 31
0.0
  0
LINE
  5
EB
100
AcDbEntity
  8
0
  6
HIDDEN
 62
   174
100
AcDbLine
 10
202.370653
 20
73.475642
 30
0.0
 11
204.200735
 21
73.475642
 31
0.0
  0
LINE
  5
EC
100
AcDbEntity
  8
0
  6
Continuous
 62
   174
100
AcDbLine
 10
150.470132
 20
70.475642
 30
0.0
 11
150.470132
 21
125.475642
 31
0.0
  0
LINE
  5
ED
100
AcDbEntity
  8
0
  6
HIDDEN
 62
   174
100
AcDbLine
 10
181.245704
 20
122.225642
 30
0.0
 11
174.745789
 21
122.225642
 31
0.0
  0
ARC
  5
EE
100
AcDbEntity
  8
0
  6
HIDDEN
 62
   174
100
AcDbCircle
 10
202.3449
 20
71.600642
 30
0.0
 40
1.875
100
AcDbArc
 50
-270.0
 51
-180.0
  0
LINE
  5
EF
100
AcDbEntity
  8
0
  6
HIDDEN
 62
   174
100
AcDbLine
 10
180.547073
 20
125.475642
 30
0.0
 11
180.547073
 21
122.225642
 31
0.0
  0
LINE
  5
F0
100
AcDbEntity
  8
0
  6
HIDDEN
 62
   174
100
AcDbLine
 10
159.200907
 20
73.475642
 30
0.0
 11
166.7907
 21
73.475642
 31
0.0
  0
LINE
  5
F1
100
AcDbEntity
  8
0
  6
HIDDEN
 62
   174
100
AcDbLine
 10
170.495625
 20
73.475642
 30
0.0
 11
155.495682
 21
73.475642
 31
0.0
  0
ARC
  5
F2
100
AcDbEntity
  8
0
  6
HIDDEN
 62
   174
100
AcDbCircle
 10
213.5949
 20
71.600642
 30
0.0
 40
1.875
100
AcDbArc
 50
180.0
 51
270.0
  0
LINE
  5
F3
100
AcDbEntity
  8
0
  6
HIDDEN
 62
   174
100
AcDbLine
 10
200.612969
 20
70.475642
 30
0.0
 11
200.495811
 21
70.475642
 31
0.0
  0
LINE
  5
F4
100
AcDbEntity
  8
0
  6
HIDDEN
 62
   174
100
AcDbLine
 10
157.370524
 20
73.475642
 30
0.0
 11
159.200907
 21
73.475642
 31
0.0
  0
ARC
  5
F5
100
AcDbEntity
  8
0
  6
HIDDEN
 62
   174
100
AcDbCircle
 10
157.3449
 20
71.600642
 30
0.0
 40
1.875
100
AcDbArc
 50
-180.0
 51
-141.816234
  0
LINE
  5
F6
100
AcDbEntity
  8
0
  6
HIDDEN
 62
   174
100
AcDbLine
 10
243.620796
 20
122.225642
 30
0.0
 11
240.572562
 21
122.225642
 31
0.0
  0
LINE
  5
F7
100
AcDbEntity
  8
0
  6
HIDDEN
 62
   174
100
AcDbLine
 10
245.470132
 20
70.475642
 30
0.0
 11
245.470132
 21
73.475642
 31
0.0
  0
LINE
  5
F8
100
AcDbEntity
  8
0
  6
HIDDEN
 62
   174
100
AcDbLine
 10
187.692447
 20
70.475642
 30
0.0
 11
185.612726
 21
70.475642
 31
0.0
  0
LINE
  5
F9
100
AcDbEntity
  8
0
  6
HIDDEN
 62
   174
100
AcDbLine
 10
232.345132
 20
125.475642
 30
0.0
 11
232.345132
 21
122.225642
 31
0.0
  0
LINE
  5
FA
100
AcDbEntity
  8
0
  6
Continuous
 62
   174
100
AcDbLine
 10
150.470132
 20
70.475642
 30
0.0
 11
265.470132
 21
70.475642
 31
0.0
  0
LINE
  5
FB
100
AcDbEntity
  8
0
  6
HIDDEN
 62
   174
100
AcDbLine
 10
219.220132
 20
73.475642
 30
0.0
 11
219.220132
 21
91.725642
 31
0.0
  0
ARC
  5
FC
100
AcDbEntity
  8
0
  6
HIDDEN
 62
   174
100
AcDbCircle
 10
168.5949
 20
71.600642
 30
0.0
 40
1.875
100
AcDbArc
 50
90.0
 51
180.0
  0
LINE
  5
FD
100
AcDbEntity
  8
0
  6
HIDDEN
 62
   174
100
AcDbLine
 10
245.612798
 20
70.475642
 30
0.0
 11
245.495639
 21
70.475642
 31
0.0
  0
LINE
  5
FE
100
AcDbEntity
  8
0
  6
HIDDEN
 62
   174
100
AcDbLine
 10
202.692389
 20
70.475642
 30
0.0
 11
200.612969
 21
70.475642
 31
0.0
  0
LINE
  5
FF
100
AcDbEntity
  8
0
  6
HIDDEN
 62
   174
100
AcDbLine
 10
200.495811
 20
70.475642
 30
0.0
 11
200.378351
 21
70.475642
 31
0.0
  0
LINE
  5
100
100
AcDbEntity
  8
0
  6
HIDDEN
 62
   174
100
AcDbLine
 10
155.470132
 20
70.475642
 30
0.0
 11
155.470132
 21
73.475642
 31
0.0
  0
LINE
  5
101
100
AcDbEntity
  8
0
  6
HIDDEN
 62
   174
100
AcDbLine
 10
183.595132
 20
125.475642
 30
0.0
 11
183.595132
 21
122.225642
 31
0.0
  0
LINE
  5
102
100
AcDbEntity
  8
0
  6
HIDDEN
 62
   174
100
AcDbLine
 10
235.418773
 20
122.225642
 30
0.0
 11
232.370839
 21
122.225642
 31
0.0
  0
LINE
  5
103
100
AcDbEntity
  8
0
  6
HIDDEN
 62
   174
100
AcDbLine
 10
260.470132
 20
70.475642
 30
0.0
 11
260.470132
 21
73.475642
 31
0.0
  0
LINE
  5
104
100
AcDbEntity
  8
0
  6
Continuous
 62
   174
100
AcDbLine
 10
265.470132
 20
70.475642
 30
0.0
 11
265.470132
 21
125.475642
 31
0.0
  0
LINE
  5
105
100
AcDbEntity
  8
0
  6
HIDDEN
 62
   174
100
AcDbLine
 10
243.595132
 20
125.475642
 30
0.0
 11
243.595132
 21
122.225642
 31
0.0
  0
LINE
  5
106
100
AcDbEntity
  8
0
  6
HIDDEN
 62
   174
100
AcDbLine
 10
211.790528
 20
73.475642
 30
0.0
 11
213.62061
 21
73.475642
 31
0.0
  0
LINE
  5
107
100
AcDbEntity
  8
0
  6
HIDDEN
 62
   174
100
AcDbLine
 10
204.200735
 20
73.475642
 30
0.0
 11
211.790528
 21
73.475642
 31
0.0
  0
ARC
  5
108
100
AcDbEntity
  8
0
  6
HIDDEN
 62
   174
100
AcDbCircle
 10
202.3449
 20
71.600642
 30
0.0
 40
1.875
100
AcDbArc
 50
0.0
 51
90.0
  0
ARC
  5
109
100
AcDbEntity
  8
0
  6
HIDDEN
 62
   174
100
AcDbCircle
 10
157.3449
 20
71.600642
 30
0.0
 40
1.875
100
AcDbArc
 50
-141.816234
 51
-90.0
  0
LINE
  5
10A
100
AcDbEntity
  8
0
  6
HIDDEN
 62
   174
100
AcDbLine
 10
174.720132
 20
122.225642
 30
0.0
 11
174.720132
 21
70.475642
 31
0.0
  0
ARC
  5
10B
100
AcDbEntity
  8
0
  6
HIDDEN
 62
   174
100
AcDbCircle
 10
213.5949
 20
71.600642
 30
0.0
 40
1.875
100
AcDbArc
 50
-38.183766
 51
0.0
  0
LINE
  5
10C
100
AcDbEntity
  8
0
  6
HIDDEN
 62
   174
100
AcDbLine
 10
157.370524
 20
69.725642
 30
0.0
 11
168.620481
 21
69.725642
 31
0.0
  0
ARC
  5
10D
100
AcDbEntity
  8
0
  6
HIDDEN
 62
   174
100
AcDbCircle
 10
168.5949
 20
71.600642
 30
0.0
 40
1.875
100
AcDbArc
 50
90.0
 51
180.0
  0
LINE
  5
10E
100
AcDbEntity
  8
0
  6
HIDDEN
 62
   174
100
AcDbLine
 10
166.720132
 20
73.475642
 30
0.0
 11
166.720132
 21
91.725642
 31
0.0
  0
LINE
  5
10F
100
AcDbEntity
  8
0
  6
HIDDEN
 62
   174
100
AcDbLine
 10
234.720132
 20
122.225642
 30
0.0
 11
234.720132
 21
70.475642
 31
0.0
  0
LINE
  5
110
100
AcDbEntity
  8
0
  6
HIDDEN
 62
   174
100
AcDbLine
 10
168.299046
 20
70.475642
 30
0.0
 11
157.692561
 21
70.475642
 31
0.0
  0
LINE
  5
111
100
AcDbEntity
  8
0
  6
HIDDEN
 62
   174
100
AcDbLine
 10
185.470132
 20
70.475642
 30
0.0
 11
185.470132
 21
73.475642
 31
0.0
  0
LINE
  5
112
100
AcDbEntity
  8
0
  6
Continuous
 62
   174
100
AcDbLine
 10
157.370524
 20
69.725642
 30
0.0
 11
168.620481
 21
69.725642
 31
0.0
  0
ARC
  5
113
100
AcDbEntity
  8
0
  6
HIDDEN
 62
   174
100
AcDbCircle
 10
157.3449
 20
71.600642
 30
0.0
 40
1.875
100
AcDbArc
 50
-180.0
 51
-141.816234
  0
LINE
  5
114
100
AcDbEntity
  8
0
  6
HIDDEN
 62
   174
100
AcDbLine
 10
174.745789
 20
70.475642
 30
0.0
 11
181.245704
 21
70.475642
 31
0.0
  0
LINE
  5
115
100
AcDbEntity
  8
0
  6
HIDDEN
 62
   174
100
AcDbLine
 10
234.720132
 20
122.225642
 30
0.0
 11
234.720132
 21
70.475642
 31
0.0
  0
ARC
  5
116
100
AcDbEntity
  8
0
  6
HIDDEN
 62
   174
100
AcDbCircle
 10
213.5949
 20
71.600642
 30
0.0
 40
1.875
100
AcDbArc
 50
90.0
 51
180.0
  0
LINE
  5
117
100
AcDbEntity
  8
0
  6
HIDDEN
 62
   174
100
AcDbLine
 10
219.245739
 20
73.475642
 30
0.0
 11
226.74571
 21
73.475642
 31
0.0
  0
LINE
  5
118
100
AcDbEntity
  8
0
  6
Continuous
 62
   174
100
AcDbLine
 10
240.547073
 20
125.475642
 30
0.0
 11
240.547073
 21
122.225642
 31
0.0
  0
LINE
  5
119
100
AcDbEntity
  8
0
  6
HIDDEN
 62
   174
100
AcDbLine
 10
215.470132
 20
70.475642
 30
0.0
 11
215.470132
 21
73.475642
 31
0.0
  0
ARC
  5
11A
100
AcDbEntity
  8
0
  6
HIDDEN
 62
   174
100
AcDbCircle
 10
168.5949
 20
71.600642
 30
0.0
 40
1.875
100
AcDbArc
 50
180.0
 51
270.0
  0
LINE
  5
11B
100
AcDbEntity
  8
0
  6
HIDDEN
 62
   174
100
AcDbLine
 10
159.220132
 20
73.475642
 30
0.0
 11
159.220132
 21
91.725642
 31
0.0
  0
LINE
  5
11C
100
AcDbEntity
  8
0
  6
Continuous
 62
   174
100
AcDbLine
 10
235.241532
 20
125.475642
 30
0.0
 11
240.750103
 21
125.475642
 31
0.0
  0
LINE
  5
11D
100
AcDbEntity
  8
0
  6
HIDDEN
 62
   174
100
AcDbLine
 10
260.470132
 20
70.475642
 30
0.0
 11
260.470132
 21
73.475642
 31
0.0
  0
LINE
  5
11E
100
AcDbEntity
  8
0
  6
Continuous
 62
   174
100
AcDbLine
 10
267.970132
 20
80.521202
 30
0.0
 11
267.970132
 21
91.770258
 31
0.0
  0
ARC
  5
11F
100
AcDbEntity
  8
0
  6
HIDDEN
 62
   174
100
AcDbCircle
 10
213.5949
 20
71.600642
 30
0.0
 40
1.875
100
AcDbArc
 50
270.0
 51
321.816234
  0
LINE
  5
120
100
AcDbEntity
  8
0
  6
HIDDEN
 62
   174
100
AcDbLine
 10
166.7907
 20
73.475642
 30
0.0
 11
168.620481
 21
73.475642
 31
0.0
  0
LINE
  5
121
100
AcDbEntity
  8
0
  6
HIDDEN
 62
   174
100
AcDbLine
 10
241.220132
 20
122.225642
 30
0.0
 11
241.220132
 21
70.475642
 31
0.0
  0
ARC
  5
122
100
AcDbEntity
  8
0
  6
HIDDEN
 62
   174
100
AcDbCircle
 10
168.5949
 20
71.600642
 30
0.0
 40
1.875
100
AcDbArc
 50
270.0
 51
321.816234
  0
LINE
  5
123
100
AcDbEntity
  8
0
  6
HIDDEN
 62
   174
100
AcDbLine
 10
213.299174
 20
70.475642
 30
0.0
 11
202.692389
 21
70.475642
 31
0.0
  0
LINE
  5
124
100
AcDbEntity
  8
0
  6
HIDDEN
 62
   174
100
AcDbLine
 10
198.298931
 20
70.475642
 30
0.0
 11
187.692447
 21
70.475642
 31
0.0
  0
LINE
  5
125
100
AcDbEntity
  8
0
  6
HIDDEN
 62
   174
100
AcDbLine
 10
265.470132
 20
80.521202
 30
0.0
 11
265.470132
 21
91.770258
 31
0.0
  0
ARC
  5
126
100
AcDbEntity
  8
0
  6
HIDDEN
 62
   174
100
AcDbCircle
 10
213.5949
 20
71.600642
 30
0.0
 40
1.875
100
AcDbArc
 50
0.0
 51
90.0
  0
ARC
  5
127
100
AcDbEntity
  8
0
  6
HIDDEN
 62
   174
100
AcDbCircle
 10
202.3449
 20
71.600642
 30
0.0
 40
1.875
100
AcDbArc
 50
-90.0
 51
0.0
  0
LINE
  5
128
100
AcDbEntity
  8
0
  6
HIDDEN
 62
   174
100
AcDbLine
 10
226.720132
 20
73.475642
 30
0.0
 11
226.720132
 21
91.725642
 31
0.0
  0
LINE
  5
129
100
AcDbEntity
  8
0
  6
HIDDEN
 62
   174
100
AcDbLine
 10
200.470132
 20
70.475642
 30
0.0
 11
200.470132
 21
73.475642
 31
0.0
  0
ARC
  5
12A
100
AcDbEntity
  8
0
  6
HIDDEN
 62
   174
100
AcDbCircle
 10
157.3449
 20
71.600642
 30
0.0
 40
1.875
100
AcDbArc
 50
-270.0
 51
-180.0
  0
LINE
  5
12B
100
AcDbEntity
  8
0
  6
HIDDEN
 62
   174
100
AcDbLine
 10
166.720132
 20
73.475642
 30
0.0
 11
166.720132
 21
91.725642
 31
0.0
  0
LINE
  5
12C
100
AcDbEntity
  8
0
  6
HIDDEN
 62
   174
100
AcDbLine
 10
245.470132
 20
70.475642
 30
0.0
 11
245.470132
 21
73.475642
 31
0.0
  0
LINE
  5
12D
100
AcDbEntity
  8
0
  6
HIDDEN
 62
   174
100
AcDbLine
 10
172.345132
 20
125.475642
 30
0.0
 11
172.345132
 21
122.225642
 31
0.0
  0
LINE
  5
12E
100
AcDbEntity
  8
0
  6
HIDDEN
 62
   174
100
AcDbLine
 10
241.245775
 20
122.225642
 30
0.0
 11
240.900908
 21
122.225642
 31
0.0
  0
LINE
  5
12F
100
AcDbEntity
  8
0
  6
HIDDEN
 62
   174
100
AcDbLine
 10
215.470132
 20
70.475642
 30
0.0
 11
215.470132
 21
73.475642
 31
0.0
  0
LINE
  5
130
100
AcDbEntity
  8
0
  6
HIDDEN
 62
   174
100
AcDbLine
 10
159.200907
 20
73.475642
 30
0.0
 11
166.7907
 21
73.475642
 31
0.0
  0
LINE
  5
131
100
AcDbEntity
  8
0
  6
HIDDEN
 62
   174
100
AcDbLine
 10
219.220132
 20
73.475642
 30
0.0
 11
219.220132
 21
91.725642
 31
0.0
  0
ARC
  5
132
100
AcDbEntity
  8
0
  6
HIDDEN
 62
   174
100
AcDbCircle
 10
157.3449
 20
71.600642
 30
0.0
 40
1.875
100
AcDbArc
 50
-270.0
 51
-180.0
  0
LINE
  5
133
100
AcDbEntity
  8
0
  6
HIDDEN
 62
   174
100
AcDbLine
 10
228.299117
 20
70.475642
 30
0.0
 11
217.692332
 21
70.475642
 31
0.0
  0
ARC
  5
134
100
AcDbEntity
  8
0
  6
HIDDEN
 62
   174
100
AcDbCircle
 10
202.3449
 20
71.600642
 30
0.0
 40
1.875
100
AcDbArc
 50
-141.816234
 51
-90.0
  0
ARC
  5
135
100
AcDbEntity
  8
0
  6
HIDDEN
 62
   174
100
AcDbCircle
 10
213.5949
 20
71.600642
 30
0.0
 40
1.875
100
AcDbArc
 50
0.0
 51
90.0
  0
LINE
  5
136
100
AcDbEntity
  8
0
  6
HIDDEN
 62
   174
100
AcDbLine
 10
170.470132
 20
70.475642
 30
0.0
 11
170.470132
 21
73.475642
 31
0.0
  0
LINE
  5
137
100
AcDbEntity
  8
0
  6
HIDDEN
 62
   174
100
AcDbLine
 10
172.370768
 20
125.475642
 30
0.0
 11
175.418701
 21
125.475642
 31
0.0
  0
ARC
  5
138
100
AcDbEntity
  8
0
  6
HIDDEN
 62
   174
100
AcDbCircle
 10
157.3449
 20
71.600642
 30
0.0
 40
1.875
100
AcDbArc
 50
-90.0
 51
0.0
  0
LINE
  5
139
100
AcDbEntity
  8
0
  6
HIDDEN
 62
   174
100
AcDbLine
 10
170.378466
 20
70.475642
 30
0.0
 11
168.299046
 21
70.475642
 31
0.0
  0
LINE
  5
13A
100
AcDbEntity
  8
0
  6
Continuous
 62
   174
100
AcDbLine
 10
265.470132
 20
102.975642
 30
0.0
 11
267.970132
 21
102.975642
 31
0.0
  0
LINE
  5
13B
100
AcDbEntity
  8
0
  6
HIDDEN
 62
   174
100
AcDbLine
 10
234.018273
 20
125.475642
 30
0.0
 11
235.241532
 21
125.475642
 31
0.0
  0
LINE
  5
13C
100
AcDbEntity
  8
0
  6
HIDDEN
 62
   174
100
AcDbLine
 10
226.720132
 20
73.475642
 30
0.0
 11
226.720132
 21
91.725642
 31
0.0
  0
LINE
  5
13D
100
AcDbEntity
  8
0
  6
HIDDEN
 62
   174
100
AcDbLine
 10
155.470132
 20
70.475642
 30
0.0
 11
155.470132
 21
73.475642
 31
0.0
  0
ENDBLK
  5
13E
100
AcDbEntity
  8
0
100
AcDbBlockEnd
  0
BLOCK
  5
141
100
AcDbEntity
  8
0
100
AcDbBlockBegin
  2
*B2
 70
     0
 10
0.0
 20
0.0
 30
0.0
  3
*B2
  1

  0
ARC
  5
142
100
AcDbEntity
  8
0
  6
Continuous
 62
   174
100
AcDbCircle
 10
252.970132
 20
201.797593
 30
0.0
 40
3.75
100
AcDbArc
 50
0.0
 51
53.899771
  0
ARC
  5
143
100
AcDbEntity
  8
0
  6
Continuous
 62
   174
100
AcDbCircle
 10
252.970132
 20
201.797593
 30
0.0
 40
3.75
100
AcDbArc
 50
-53.91074
 51
0.0
  0
ARC
  5
144
100
AcDbEntity
  8
0
  6
Continuous
 62
   174
100
AcDbCircle
 10
252.970132
 20
201.797593
 30
0.0
 40
3.75
100
AcDbArc
 50
-70.05566
 51
-53.91074
  0
ARC
  5
145
100
AcDbEntity
  8
0
  6
Continuous
 62
   174
100
AcDbCircle
 10
252.970132
 20
201.797593
 30
0.0
 40
3.75
100
AcDbArc
 50
-109.951637
 51
-70.05566
  0
ARC
  5
146
100
AcDbEntity
  8
0
  6
Continuous
 62
   174
100
AcDbCircle
 10
252.970132
 20
201.797593
 30
0.0
 40
3.75
100
AcDbArc
 50
-126.084985
 51
-109.951637
  0
ARC
  5
147
100
AcDbEntity
  8
0
  6
Continuous
 62
   174
100
AcDbCircle
 10
252.970132
 20
201.797593
 30
0.0
 40
3.75
100
AcDbArc
 50
-180.0
 51
-126.084985
  0
ARC
  5
148
100
AcDbEntity
  8
0
  6
Continuous
 62
   174
100
AcDbCircle
 10
252.970132
 20
201.797593
 30
0.0
 40
3.75
100
AcDbArc
 50
-233.904047
 51
-180.0
  0
ARC
  5
149
100
AcDbEntity
  8
0
  6
Continuous
 62
   174
100
AcDbCircle
 10
252.970132
 20
201.797593
 30
0.0
 40
3.75
100
AcDbArc
 50
-289.925619
 51
-250.067083
  0
ARC
  5
14A
100
AcDbEntity
  8
0
  6
Continuous
 62
   174
100
AcDbCircle
 10
207.970132
 20
181.797593
 30
0.0
 40
3.75
100
AcDbArc
 50
0.0
 51
53.899771
  0
ARC
  5
14B
100
AcDbEntity
  8
0
  6
Continuous
 62
   174
100
AcDbCircle
 10
207.970132
 20
181.797593
 30
0.0
 40
3.75
100
AcDbArc
 50
-53.91074
 51
0.0
  0
ARC
  5
14C
100
AcDbEntity
  8
0
  6
Continuous
 62
   174
100
AcDbCircle
 10
207.970132
 20
181.797593
 30
0.0
 40
3.75
100
AcDbArc
 50
-70.05566
 51
-53.91074
  0
ARC
  5
14D
100
AcDbEntity
  8
0
  6
Continuous
 62
   174
100
AcDbCircle
 10
207.970132
 20
181.797593
 30
0.0
 40
3.75
100
AcDbArc
 50
-109.951637
 51
-70.05566
  0
ARC
  5
14E
100
AcDbEntity
  8
0
  6
Continuous
 62
   174
100
AcDbCircle
 10
207.970132
 20
181.797593
 30
0.0
 40
3.75
100
AcDbArc
 50
-126.084985
 51
-109.951637
  0
ARC
  5
14F
100
AcDbEntity
  8
0
  6
Continuous
 62
   174
100
AcDbCircle
 10
207.970132
 20
181.797593
 30
0.0
 40
3.75
100
AcDbArc
 50
-289.925619
 51
-250.067083
  0
ARC
  5
150
100
AcDbEntity
  8
0
  6
Continuous
 62
   174
100
AcDbCircle
 10
192.970132
 20
201.797593
 30
0.0
 40
3.75
100
AcDbArc
 50
-53.91074
 51
0.0
  0
ARC
  5
151
100
AcDbEntity
  8
0
  6
Continuous
 62
   174
100
AcDbCircle
 10
192.970132
 20
201.797593
 30
0.0
 40
3.75
100
AcDbArc
 50
-180.0
 51
-126.084985
  0
ARC
  5
152
100
AcDbEntity
  8
0
  6
Continuous
 62
   174
100
AcDbCircle
 10
252.9699
 20
201.797347
 30
0.0
 40
3.75
100
AcDbArc
 50
-305.359763
 51
-290.573722
  0
ARC
  5
153
100
AcDbEntity
  8
0
  6
Continuous
 62
   174
100
AcDbCircle
 10
252.9699
 20
201.797347
 30
0.0
 40
3.75
100
AcDbArc
 50
0.0
 51
54.640237
  0
ARC
  5
154
100
AcDbEntity
  8
0
  6
Continuous
 62
   174
100
AcDbCircle
 10
252.9699
 20
201.797347
 30
0.0
 40
3.75
100
AcDbArc
 50
-69.406112
 51
-54.646576
  0
ARC
  5
155
100
AcDbEntity
  8
0
  6
Continuous
 62
   174
100
AcDbCircle
 10
222.9699
 20
201.797347
 30
0.0
 40
3.75
100
AcDbArc
 50
-305.359763
 51
-290.573722
  0
ARC
  5
156
100
AcDbEntity
  8
0
  6
Continuous
 62
   174
100
AcDbCircle
 10
222.9699
 20
201.797347
 30
0.0
 40
3.75
100
AcDbArc
 50
-54.646576
 51
0.0
  0
ARC
  5
157
100
AcDbEntity
  8
0
  6
Continuous
 62
   174
100
AcDbCircle
 10
222.9699
 20
201.797347
 30
0.0
 40
3.75
100
AcDbArc
 50
-180.0
 51
-125.343093
  0
ARC
  5
158
100
AcDbEntity
  8
0
  6
Continuous
 62
   174
100
AcDbCircle
 10
207.9699
 20
181.797347
 30
0.0
 40
3.75
100
AcDbArc
 50
-54.646576
 51
0.0
  0
ARC
  5
159
100
AcDbEntity
  8
0
  6
Continuous
 62
   174
100
AcDbCircle
 10
162.9699
 20
181.797347
 30
0.0
 40
3.75
100
AcDbArc
 50
-180.0
 51
-125.343093
  0
ARC
  5
15A
100
AcDbEntity
  8
0
  6
Continuous
 62
   174
100
AcDbCircle
 10
162.9699
 20
181.797347
 30
0.0
 40
3.75
100
AcDbArc
 50
-234.650569
 51
-180.0
  0
ARC
  5
15B
100
AcDbEntity
  8
0
  6
Continuous
 62
   174
100
AcDbCircle
 10
192.970132
 20
201.797593
 30
0.0
 40
3.75
100
AcDbArc
 50
-233.904047
 51
-180.0
  0
ARC
  5
15C
100
AcDbEntity
  8
0
  6
Continuous
 62
   174
100
AcDbCircle
 10
252.9699
 20
201.797347
 30
0.0
 40
3.75
100
AcDbArc
 50
-290.573722
 51
-249.426278
  0
ARC
  5
15D
100
AcDbEntity
  8
0
  6
Continuous
 62
   174
100
AcDbCircle
 10
252.9699
 20
201.797347
 30
0.0
 40
3.75
100
AcDbArc
 50
-234.650569
 51
-180.0
  0
ARC
  5
15E
100
AcDbEntity
  8
0
  6
Continuous
 62
   174
100
AcDbCircle
 10
252.9699
 20
201.797347
 30
0.0
 40
3.75
100
AcDbArc
 50
-305.359763
 51
-290.573722
  0
ARC
  5
15F
100
AcDbEntity
  8
0
  6
Continuous
 62
   174
100
AcDbCircle
 10
252.9699
 20
201.797347
 30
0.0
 40
3.75
100
AcDbArc
 50
-54.646576
 51
0.0
  0
ARC
  5
160
100
AcDbEntity
  8
0
  6
Continuous
 62
   174
100
AcDbCircle
 10
192.9699
 20
201.797347
 30
0.0
 40
3.75
100
AcDbArc
 50
-69.406112
 51
-54.646576
  0
ARC
  5
161
100
AcDbEntity
  8
0
  6
Continuous
 62
   174
100
AcDbCircle
 10
207.9699
 20
181.797347
 30
0.0
 40
3.75
100
AcDbArc
 50
-305.359763
 51
-290.573722
  0
ARC
  5
162
100
AcDbEntity
  8
0
  6
Continuous
 62
   174
100
AcDbCircle
 10
207.9699
 20
181.797347
 30
0.0
 40
3.75
100
AcDbArc
 50
-180.0
 51
-125.343093
  0
ARC
  5
163
100
AcDbEntity
  8
0
  6
Continuous
 62
   174
100
AcDbCircle
 10
222.9699
 20
201.797347
 30
0.0
 40
3.75
100
AcDbArc
 50
-234.650569
 51
-180.0
  0
ARC
  5
164
100
AcDbEntity
  8
0
  6
Continuous
 62
   174
100
AcDbCircle
 10
222.9699
 20
201.797347
 30
0.0
 40
3.75
100
AcDbArc
 50
-290.573722
 51
-249.426278
  0
ARC
  5
165
100
AcDbEntity
  8
0
  6
Continuous
 62
   174
100
AcDbCircle
 10
222.9699
 20
201.797347
 30
0.0
 40
3.75
100
AcDbArc
 50
-305.359763
 51
-290.573722
  0
ARC
  5
166
100
AcDbEntity
  8
0
  6
Continuous
 62
   174
100
AcDbCircle
 10
222.9699
 20
201.797347
 30
0.0
 40
3.75
100
AcDbArc
 50
-69.406112
 51
-54.646576
  0
ARC
  5
167
100
AcDbEntity
  8
0
  6
Continuous
 62
   174
100
AcDbCircle
 10
192.9699
 20
201.797347
 30
0.0
 40
3.75
100
AcDbArc
 50
-305.359763
 51
-290.573722
  0
ARC
  5
168
100
AcDbEntity
  8
0
  6
Continuous
 62
   174
100
AcDbCircle
 10
192.9699
 20
201.797347
 30
0.0
 40
3.75
100
AcDbArc
 50
0.0
 51
54.640237
  0
ARC
  5
169
100
AcDbEntity
  8
0
  6
Continuous
 62
   174
100
AcDbCircle
 10
207.9699
 20
181.797347
 30
0.0
 40
3.75
100
AcDbArc
 50
0.0
 51
54.640237
  0
ARC
  5
16A
100
AcDbEntity
  8
0
  6
Continuous
 62
   174
100
AcDbCircle
 10
207.9699
 20
181.797347
 30
0.0
 40
3.75
100
AcDbArc
 50
-69.406112
 51
-54.646576
  0
ARC
  5
16B
100
AcDbEntity
  8
0
  6
Continuous
 62
   174
100
AcDbCircle
 10
207.9699
 20
181.797347
 30
0.0
 40
3.75
100
AcDbArc
 50
-110.593888
 51
-69.406112
  0
ARC
  5
16C
100
AcDbEntity
  8
0
  6
Continuous
 62
   174
100
AcDbCircle
 10
207.9699
 20
181.797347
 30
0.0
 40
3.75
100
AcDbArc
 50
-54.646576
 51
0.0
  0
ARC
  5
16D
100
AcDbEntity
  8
0
  6
Continuous
 62
   174
100
AcDbCircle
 10
162.9699
 20
181.797347
 30
0.0
 40
3.75
100
AcDbArc
 50
-249.426278
 51
-234.650569
  0
ARC
  5
16E
100
AcDbEntity
  8
0
  6
Continuous
 62
   174
100
AcDbCircle
 10
162.9699
 20
181.797347
 30
0.0
 40
3.75
100
AcDbArc
 50
-290.573722
 51
-249.426278
  0
ARC
  5
16F
100
AcDbEntity
  8
0
  6
Continuous
 62
   174
100
AcDbCircle
 10
162.9699
 20
181.797347
 30
0.0
 40
3.75
100
AcDbArc
 50
-305.359763
 51
-290.573722
  0
ARC
  5
170
100
AcDbEntity
  8
0
  6
Continuous
 62
   174
100
AcDbCircle
 10
192.970132
 20
201.797593
 30
0.0
 40
3.75
100
AcDbArc
 50
-289.925619
 51
-250.067083
  0
ARC
  5
171
100
AcDbEntity
  8
0
  6
Continuous
 62
   174
100
AcDbCircle
 10
252.9699
 20
201.797347
 30
0.0
 40
3.75
100
AcDbArc
 50
-249.426278
 51
-234.650569
  0
ARC
  5
172
100
AcDbEntity
  8
0
  6
Continuous
 62
   174
100
AcDbCircle
 10
252.9699
 20
201.797347
 30
0.0
 40
3.75
100
AcDbArc
 50
-110.593888
 51
-69.406112
  0
ARC
  5
173
100
AcDbEntity
  8
0
  6
Continuous
 62
   174
100
AcDbCircle
 10
252.9699
 20
201.797347
 30
0.0
 40
3.75
100
AcDbArc
 50
-125.343093
 51
-110.593888
  0
ARC
  5
174
100
AcDbEntity
  8
0
  6
Continuous
 62
   174
100
AcDbCircle
 10
252.9699
 20
201.797347
 30
0.0
 40
3.75
100
AcDbArc
 50
-180.0
 51
-125.343093
  0
ARC
  5
175
100
AcDbEntity
  8
0
  6
Continuous
 62
   174
100
AcDbCircle
 10
252.9699
 20
201.797347
 30
0.0
 40
3.75
100
AcDbArc
 50
-125.343093
 51
-110.593888
  0
ARC
  5
176
100
AcDbEntity
  8
0
  6
Continuous
 62
   174
100
AcDbCircle
 10
222.9699
 20
201.797347
 30
0.0
 40
3.75
100
AcDbArc
 50
-110.593888
 51
-69.406112
  0
ARC
  5
177
100
AcDbEntity
  8
0
  6
Continuous
 62
   174
100
AcDbCircle
 10
192.9699
 20
201.797347
 30
0.0
 40
3.75
100
AcDbArc
 50
-234.650569
 51
-180.0
  0
ARC
  5
178
100
AcDbEntity
  8
0
  6
Continuous
 62
   174
100
AcDbCircle
 10
192.9699
 20
201.797347
 30
0.0
 40
3.75
100
AcDbArc
 50
-290.573722
 51
-249.426278
  0
ARC
  5
179
100
AcDbEntity
  8
0
  6
Continuous
 62
   174
100
AcDbCircle
 10
192.9699
 20
201.797347
 30
0.0
 40
3.75
100
AcDbArc
 50
-249.426278
 51
-234.650569
  0
ARC
  5
17A
100
AcDbEntity
  8
0
  6
Continuous
 62
   174
100
AcDbCircle
 10
192.9699
 20
201.797347
 30
0.0
 40
3.75
100
AcDbArc
 50
-180.0
 51
-125.343093
  0
ARC
  5
17B
100
AcDbEntity
  8
0
  6
Continuous
 62
   174
100
AcDbCircle
 10
192.9699
 20
201.797347
 30
0.0
 40
3.75
100
AcDbArc
 50
-125.343093
 51
-110.593888
  0
ARC
  5
17C
100
AcDbEntity
  8
0
  6
Continuous
 62
   174
100
AcDbCircle
 10
207.9699
 20
181.797347
 30
0.0
 40
3.75
100
AcDbArc
 50
-290.573722
 51
-249.426278
  0
ARC
  5
17D
100
AcDbEntity
  8
0
  6
Continuous
 62
   174
100
AcDbCircle
 10
207.9699
 20
181.797347
 30
0.0
 40
3.75
100
AcDbArc
 50
-234.650569
 51
-180.0
  0
ARC
  5
17E
100
AcDbEntity
  8
0
  6
Continuous
 62
   174
100
AcDbCircle
 10
207.9699
 20
181.797347
 30
0.0
 40
3.75
100
AcDbArc
 50
-125.343093
 51
-110.593888
  0
ARC
  5
17F
100
AcDbEntity
  8
0
  6
Continuous
 62
   174
100
AcDbCircle
 10
207.9699
 20
181.797347
 30
0.0
 40
3.75
100
AcDbArc
 50
-110.593888
 51
-69.406112
  0
ARC
  5
180
100
AcDbEntity
  8
0
  6
Continuous
 62
   174
100
AcDbCircle
 10
207.9699
 20
181.797347
 30
0.0
 40
3.75
100
AcDbArc
 50
-125.343093
 51
-110.593888
  0
ARC
  5
181
100
AcDbEntity
  8
0
  6
Continuous
 62
   174
100
AcDbCircle
 10
192.970132
 20
201.797593
 30
0.0
 40
3.75
100
AcDbArc
 50
-109.951637
 51
-70.05566
  0
ARC
  5
182
100
AcDbEntity
  8
0
  6
Continuous
 62
   174
100
AcDbCircle
 10
192.970132
 20
201.797593
 30
0.0
 40
3.75
100
AcDbArc
 50
-126.084985
 51
-109.951637
  0
ARC
  5
183
100
AcDbEntity
  8
0
  6
Continuous
 62
   174
100
AcDbCircle
 10
252.9699
 20
201.797347
 30
0.0
 40
3.75
100
AcDbArc
 50
-290.573722
 51
-249.426278
  0
ARC
  5
184
100
AcDbEntity
  8
0
  6
Continuous
 62
   174
100
AcDbCircle
 10
222.9699
 20
201.797347
 30
0.0
 40
3.75
100
AcDbArc
 50
-180.0
 51
-125.343093
  0
ARC
  5
185
100
AcDbEntity
  8
0
  6
Continuous
 62
   174
100
AcDbCircle
 10
207.9699
 20
181.797347
 30
0.0
 40
3.75
100
AcDbArc
 50
-249.426278
 51
-234.650569
  0
ARC
  5
186
100
AcDbEntity
  8
0
  6
Continuous
 62
   174
100
AcDbCircle
 10
252.9699
 20
201.797347
 30
0.0
 40
3.75
100
AcDbArc
 50
-249.426278
 51
-234.650569
  0
ARC
  5
187
100
AcDbEntity
  8
0
  6
Continuous
 62
   174
100
AcDbCircle
 10
252.9699
 20
201.797347
 30
0.0
 40
3.75
100
AcDbArc
 50
-69.406112
 51
-54.646576
  0
ARC
  5
188
100
AcDbEntity
  8
0
  6
Continuous
 62
   174
100
AcDbCircle
 10
252.9699
 20
201.797347
 30
0.0
 40
3.75
100
AcDbArc
 50
-110.593888
 51
-69.406112
  0
ARC
  5
189
100
AcDbEntity
  8
0
  6
Continuous
 62
   174
100
AcDbCircle
 10
222.9699
 20
201.797347
 30
0.0
 40
3.75
100
AcDbArc
 50
-249.426278
 51
-234.650569
  0
ARC
  5
18A
100
AcDbEntity
  8
0
  6
Continuous
 62
   174
100
AcDbCircle
 10
222.9699
 20
201.797347
 30
0.0
 40
3.75
100
AcDbArc
 50
-110.593888
 51
-69.406112
  0
ARC
  5
18B
100
AcDbEntity
  8
0
  6
Continuous
 62
   174
100
AcDbCircle
 10
222.9699
 20
201.797347
 30
0.0
 40
3.75
100
AcDbArc
 50
-125.343093
 51
-110.593888
  0
ARC
  5
18C
100
AcDbEntity
  8
0
  6
Continuous
 62
   174
100
AcDbCircle
 10
222.9699
 20
201.797347
 30
0.0
 40
3.75
100
AcDbArc
 50
-125.343093
 51
-110.593888
  0
ARC
  5
18D
100
AcDbEntity
  8
0
  6
Continuous
 62
   174
100
AcDbCircle
 10
192.9699
 20
201.797347
 30
0.0
 40
3.75
100
AcDbArc
 50
-180.0
 51
-125.343093
  0
ARC
  5
18E
100
AcDbEntity
  8
0
  6
Continuous
 62
   174
100
AcDbCircle
 10
192.9699
 20
201.797347
 30
0.0
 40
3.75
100
AcDbArc
 50
-54.646576
 51
0.0
  0
ARC
  5
18F
100
AcDbEntity
  8
0
  6
Continuous
 62
   174
100
AcDbCircle
 10
192.9699
 20
201.797347
 30
0.0
 40
3.75
100
AcDbArc
 50
-110.593888
 51
-69.406112
  0
ARC
  5
190
100
AcDbEntity
  8
0
  6
Continuous
 62
   174
100
AcDbCircle
 10
207.9699
 20
181.797347
 30
0.0
 40
3.75
100
AcDbArc
 50
-290.573722
 51
-249.426278
  0
ARC
  5
191
100
AcDbEntity
  8
0
  6
Continuous
 62
   174
100
AcDbCircle
 10
207.9699
 20
181.797347
 30
0.0
 40
3.75
100
AcDbArc
 50
0.0
 51
54.640237
  0
ARC
  5
192
100
AcDbEntity
  8
0
  6
Continuous
 62
   174
100
AcDbCircle
 10
207.970132
 20
181.797593
 30
0.0
 40
3.75
100
AcDbArc
 50
-180.0
 51
-126.084985
  0
ARC
  5
193
100
AcDbEntity
  8
0
  6
Continuous
 62
   174
100
AcDbCircle
 10
207.970132
 20
181.797593
 30
0.0
 40
3.75
100
AcDbArc
 50
-233.904047
 51
-180.0
  0
LINE
  5
194
100
AcDbEntity
  8
0
  6
Continuous
 62
   174
100
AcDbLine
 10
147.970132
 20
203.084421
 30
0.0
 11
147.970132
 21
180.586009
 31
0.0
  0
ARC
  5
195
100
AcDbEntity
  8
0
  6
Continuous
 62
   174
100
AcDbCircle
 10
252.9699
 20
201.797347
 30
0.0
 40
3.75
100
AcDbArc
 50
-54.646576
 51
0.0
  0
ARC
  5
196
100
AcDbEntity
  8
0
  6
Continuous
 62
   174
100
AcDbCircle
 10
222.9699
 20
201.797347
 30
0.0
 40
3.75
100
AcDbArc
 50
-290.573722
 51
-249.426278
  0
ARC
  5
197
100
AcDbEntity
  8
0
  6
Continuous
 62
   174
100
AcDbCircle
 10
222.9699
 20
201.797347
 30
0.0
 40
3.75
100
AcDbArc
 50
0.0
 51
54.640237
  0
ARC
  5
198
100
AcDbEntity
  8
0
  6
Continuous
 62
   174
100
AcDbCircle
 10
222.9699
 20
201.797347
 30
0.0
 40
3.75
100
AcDbArc
 50
-54.646576
 51
0.0
  0
ARC
  5
199
100
AcDbEntity
  8
0
  6
Continuous
 62
   174
100
AcDbCircle
 10
192.9699
 20
201.797347
 30
0.0
 40
3.75
100
AcDbArc
 50
-249.426278
 51
-234.650569
  0
ARC
  5
19A
100
AcDbEntity
  8
0
  6
Continuous
 62
   174
100
AcDbCircle
 10
192.9699
 20
201.797347
 30
0.0
 40
3.75
100
AcDbArc
 50
-290.573722
 51
-249.426278
  0
ARC
  5
19B
100
AcDbEntity
  8
0
  6
Continuous
 62
   174
100
AcDbCircle
 10
192.9699
 20
201.797347
 30
0.0
 40
3.75
100
AcDbArc
 50
0.0
 51
54.640237
  0
ARC
  5
19C
100
AcDbEntity
  8
0
  6
Continuous
 62
   174
100
AcDbCircle
 10
192.9699
 20
201.797347
 30
0.0
 40
3.75
100
AcDbArc
 50
-69.406112
 51
-54.646576
  0
ARC
  5
19D
100
AcDbEntity
  8
0
  6
Continuous
 62
   174
100
AcDbCircle
 10
192.9699
 20
201.797347
 30
0.0
 40
3.75
100
AcDbArc
 50
-110.593888
 51
-69.406112
  0
ARC
  5
19E
100
AcDbEntity
  8
0
  6
Continuous
 62
   174
100
AcDbCircle
 10
207.9699
 20
181.797347
 30
0.0
 40
3.75
100
AcDbArc
 50
-249.426278
 51
-234.650569
  0
ARC
  5
19F
100
AcDbEntity
  8
0
  6
Continuous
 62
   174
100
AcDbCircle
 10
192.970132
 20
201.797593
 30
0.0
 40
3.75
100
AcDbArc
 50
0.0
 51
53.899771
  0
ARC
  5
1A0
100
AcDbEntity
  8
0
  6
Continuous
 62
   174
100
AcDbCircle
 10
192.970132
 20
201.797593
 30
0.0
 40
3.75
100
AcDbArc
 50
-70.05566
 51
-53.91074
  0
ARC
  5
1A1
100
AcDbEntity
  8
0
  6
Continuous
 62
   174
100
AcDbCircle
 10
252.9699
 20
201.797347
 30
0.0
 40
3.75
100
AcDbArc
 50
-180.0
 51
-125.343093
  0
ARC
  5
1A2
100
AcDbEntity
  8
0
  6
Continuous
 62
   174
100
AcDbCircle
 10
252.9699
 20
201.797347
 30
0.0
 40
3.75
100
AcDbArc
 50
-234.650569
 51
-180.0
  0
ARC
  5
1A3
100
AcDbEntity
  8
0
  6
Continuous
 62
   174
100
AcDbCircle
 10
252.9699
 20
201.797347
 30
0.0
 40
3.75
100
AcDbArc
 50
0.0
 51
54.640237
  0
ARC
  5
1A4
100
AcDbEntity
  8
0
  6
Continuous
 62
   174
100
AcDbCircle
 10
222.9699
 20
201.797347
 30
0.0
 40
3.75
100
AcDbArc
 50
-249.426278
 51
-234.650569
  0
ARC
  5
1A5
100
AcDbEntity
  8
0
  6
Continuous
 62
   174
100
AcDbCircle
 10
222.9699
 20
201.797347
 30
0.0
 40
3.75
100
AcDbArc
 50
0.0
 51
54.640237
  0
ARC
  5
1A6
100
AcDbEntity
  8
0
  6
Continuous
 62
   174
100
AcDbCircle
 10
222.9699
 20
201.797347
 30
0.0
 40
3.75
100
AcDbArc
 50
-234.650569
 51
-180.0
  0
ARC
  5
1A7
100
AcDbEntity
  8
0
  6
Continuous
 62
   174
100
AcDbCircle
 10
222.9699
 20
201.797347
 30
0.0
 40
3.75
100
AcDbArc
 50
-69.406112
 51
-54.646576
  0
ARC
  5
1A8
100
AcDbEntity
  8
0
  6
Continuous
 62
   174
100
AcDbCircle
 10
192.9699
 20
201.797347
 30
0.0
 40
3.75
100
AcDbArc
 50
-234.650569
 51
-180.0
  0
ARC
  5
1A9
100
AcDbEntity
  8
0
  6
Continuous
 62
   174
100
AcDbCircle
 10
192.9699
 20
201.797347
 30
0.0
 40
3.75
100
AcDbArc
 50
-305.359763
 51
-290.573722
  0
ARC
  5
1AA
100
AcDbEntity
  8
0
  6
Continuous
 62
   174
100
AcDbCircle
 10
192.9699
 20
201.797347
 30
0.0
 40
3.75
100
AcDbArc
 50
-54.646576
 51
0.0
  0
ARC
  5
1AB
100
AcDbEntity
  8
0
  6
Continuous
 62
   174
100
AcDbCircle
 10
192.9699
 20
201.797347
 30
0.0
 40
3.75
100
AcDbArc
 50
-125.343093
 51
-110.593888
  0
ARC
  5
1AC
100
AcDbEntity
  8
0
  6
Continuous
 62
   174
100
AcDbCircle
 10
207.9699
 20
181.797347
 30
0.0
 40
3.75
100
AcDbArc
 50
-180.0
 51
-125.343093
  0
ARC
  5
1AD
100
AcDbEntity
  8
0
  6
Continuous
 62
   174
100
AcDbCircle
 10
207.9699
 20
181.797347
 30
0.0
 40
3.75
100
AcDbArc
 50
-234.650569
 51
-180.0
  0
ARC
  5
1AE
100
AcDbEntity
  8
0
  6
Continuous
 62
   174
100
AcDbCircle
 10
207.9699
 20
181.797347
 30
0.0
 40
3.75
100
AcDbArc
 50
-305.359763
 51
-290.573722
  0
ARC
  5
1AF
100
AcDbEntity
  8
0
  6
Continuous
 62
   174
100
AcDbCircle
 10
207.9699
 20
181.797347
 30
0.0
 40
3.75
100
AcDbArc
 50
-69.406112
 51
-54.646576
  0
ARC
  5
1B0
100
AcDbEntity
  8
0
  6
Continuous
 62
   174
100
AcDbCircle
 10
207.970132
 20
181.797593
 30
0.0
 40
7.5
100
AcDbArc
 50
-45.001262
 51
0.0
  0
LINE
  5
1B1
100
AcDbEntity
  8
0
  6
Continuous
 62
   174
100
AcDbLine
 10
150.470132
 20
203.047593
 30
0.0
 11
147.970132
 21
203.047593
 31
0.0
  0
ARC
  5
1B2
100
AcDbEntity
  8
0
  6
Continuous
 62
   174
100
AcDbCircle
 10
222.970132
 20
201.797593
 30
0.0
 40
3.75
100
AcDbArc
 50
-180.0
 51
-126.084985
  0
ARC
  5
1B3
100
AcDbEntity
  8
0
  6
Continuous
 62
   174
100
AcDbCircle
 10
192.970132
 20
201.797593
 30
0.0
 40
7.5
100
AcDbArc
 50
180.0
 51
314.998738
  0
LINE
  5
1B4
100
AcDbEntity
  8
0
  6
Continuous
 62
   174
100
AcDbLine
 10
265.470132
 20
171.797593
 30
0.0
 11
150.470132
 21
171.797593
 31
0.0
  0
LINE
  5
1B5
100
AcDbEntity
  8
0
  6
Continuous
 62
   174
100
AcDbLine
 10
150.470132
 20
180.547593
 30
0.0
 11
147.970132
 21
180.547593
 31
0.0
  0
ARC
  5
1B6
100
AcDbEntity
  8
0
  6
Continuous
 62
   174
100
AcDbCircle
 10
162.9699
 20
181.797347
 30
0.0
 40
3.75
100
AcDbArc
 50
0.0
 51
54.640237
  0
ARC
  5
1B7
100
AcDbEntity
  8
0
  6
Continuous
 62
   174
100
AcDbCircle
 10
162.9699
 20
181.797347
 30
0.0
 40
3.75
100
AcDbArc
 50
-69.406112
 51
-54.646576
  0
ARC
  5
1B8
100
AcDbEntity
  8
0
  6
Continuous
 62
   174
100
AcDbCircle
 10
222.970132
 20
201.797593
 30
0.0
 40
3.75
100
AcDbArc
 50
-289.925619
 51
-250.067083
  0
ARC
  5
1B9
100
AcDbEntity
  8
0
  6
Continuous
 62
   174
100
AcDbCircle
 10
252.970132
 20
201.797593
 30
0.0
 40
7.5
100
AcDbArc
 50
135.001461
 51
180.0
  0
ARC
  5
1BA
100
AcDbEntity
  8
0
  6
Continuous
 62
   174
100
AcDbCircle
 10
237.970132
 20
206.797593
 30
0.0
 40
3.25
100
AcDbArc
 50
-180.0
 51
0.0
  0
ARC
  5
1BB
100
AcDbEntity
  8
0
  6
Continuous
 62
   174
100
AcDbCircle
 10
222.970132
 20
201.797593
 30
0.0
 40
7.5
100
AcDbArc
 50
-45.001262
 51
0.0
  0
ARC
  5
1BC
100
AcDbEntity
  8
0
  6
Continuous
 62
   174
100
AcDbCircle
 10
162.9699
 20
181.797347
 30
0.0
 40
3.75
100
AcDbArc
 50
-54.646576
 51
0.0
  0
ARC
  5
1BD
100
AcDbEntity
  8
0
  6
Continuous
 62
   174
100
AcDbCircle
 10
162.9699
 20
181.797347
 30
0.0
 40
3.75
100
AcDbArc
 50
-234.650569
 51
-180.0
  0
ARC
  5
1BE
100
AcDbEntity
  8
0
  6
Continuous
 62
   174
100
AcDbCircle
 10
252.970132
 20
201.797593
 30
0.0
 40
7.5
100
AcDbArc
 50
314.998738
 51
360.0
  0
ARC
  5
1BF
100
AcDbEntity
  8
0
  6
Continuous
 62
   174
100
AcDbCircle
 10
177.970132
 20
176.797593
 30
0.0
 40
3.25
100
AcDbArc
 50
0.0
 51
180.0
  0
ARC
  5
1C0
100
AcDbEntity
  8
0
  6
Continuous
 62
   174
100
AcDbCircle
 10
252.970132
 20
201.797593
 30
0.0
 40
7.5
100
AcDbArc
 50
180.0
 51
314.998738
  0
ARC
  5
1C1
100
AcDbEntity
  8
0
  6
Continuous
 62
   174
100
AcDbCircle
 10
162.970132
 20
181.797593
 30
0.0
 40
7.5
100
AcDbArc
 50
90.003329
 51
135.001461
  0
ARC
  5
1C2
100
AcDbEntity
  8
0
  6
Continuous
 62
   174
100
AcDbCircle
 10
162.9699
 20
181.797347
 30
0.0
 40
3.75
100
AcDbArc
 50
-125.343093
 51
-110.593888
  0
LINE
  5
1C3
100
AcDbEntity
  8
0
  6
Continuous
 62
   174
100
AcDbLine
 10
150.470132
 20
211.797593
 30
0.0
 11
265.470132
 21
211.797593
 31
0.0
  0
ARC
  5
1C4
100
AcDbEntity
  8
0
  6
Continuous
 62
   174
100
AcDbCircle
 10
207.970132
 20
181.797593
 30
0.0
 40
7.5
100
AcDbArc
 50
0.0
 51
90.003329
  0
ARC
  5
1C5
100
AcDbEntity
  8
0
  6
Continuous
 62
   174
100
AcDbCircle
 10
162.970132
 20
181.797593
 30
0.0
 40
7.5
100
AcDbArc
 50
180.0
 51
314.998738
  0
ARC
  5
1C6
100
AcDbEntity
  8
0
  6
Continuous
 62
   174
100
AcDbCircle
 10
162.9699
 20
181.797347
 30
0.0
 40
3.75
100
AcDbArc
 50
-110.593888
 51
-69.406112
  0
LINE
  5
1C7
100
AcDbEntity
  8
0
  6
Continuous
 62
   174
100
AcDbLine
 10
150.470132
 20
171.797593
 30
0.0
 11
150.470132
 21
211.797593
 31
0.0
  0
LINE
  5
1C8
100
AcDbEntity
  8
0
  6
Continuous
 62
   174
100
AcDbLine
 10
267.970132
 20
180.586009
 30
0.0
 11
267.970132
 21
203.084421
 31
0.0
  0
ARC
  5
1C9
100
AcDbEntity
  8
0
  6
Continuous
 62
   174
100
AcDbCircle
 10
162.970132
 20
181.797593
 30
0.0
 40
3.75
100
AcDbArc
 50
-126.084985
 51
-109.951637
  0
ARC
  5
1CA
100
AcDbEntity
  8
0
  6
Continuous
 62
   174
100
AcDbCircle
 10
162.9699
 20
181.797347
 30
0.0
 40
3.75
100
AcDbArc
 50
-249.426278
 51
-234.650569
  0
ARC
  5
1CB
100
AcDbEntity
  8
0
  6
Continuous
 62
   174
100
AcDbCircle
 10
252.970132
 20
201.797593
 30
0.0
 40
7.5
100
AcDbArc
 50
0.0
 51
90.003329
  0
ARC
  5
1CC
100
AcDbEntity
  8
0
  6
Continuous
 62
   174
100
AcDbCircle
 10
177.970132
 20
176.797593
 30
0.0
 40
3.25
100
AcDbArc
 50
-180.0
 51
0.0
  0
ARC
  5
1CD
100
AcDbEntity
  8
0
  6
Continuous
 62
   174
100
AcDbCircle
 10
192.970132
 20
201.797593
 30
0.0
 40
7.5
100
AcDbArc
 50
0.0
 51
90.003329
  0
ARC
  5
1CE
100
AcDbEntity
  8
0
  6
Continuous
 62
   174
100
AcDbCircle
 10
162.9699
 20
181.797347
 30
0.0
 40
3.75
100
AcDbArc
 50
-305.359763
 51
-290.573722
  0
LINE
  5
1CF
100
AcDbEntity
  8
0
  6
Continuous
 62
   174
100
AcDbLine
 10
265.470132
 20
180.547593
 30
0.0
 11
267.970132
 21
180.547593
 31
0.0
  0
LINE
  5
1D0
100
AcDbEntity
  8
0
  6
Continuous
 62
   174
100
AcDbLine
 10
265.470132
 20
203.047593
 30
0.0
 11
267.970132
 21
203.047593
 31
0.0
  0
ARC
  5
1D1
100
AcDbEntity
  8
0
  6
Continuous
 62
   174
100
AcDbCircle
 10
162.970132
 20
181.797593
 30
0.0
 40
7.5
100
AcDbArc
 50
0.0
 51
90.003329
  0
ARC
  5
1D2
100
AcDbEntity
  8
0
  6
Continuous
 62
   174
100
AcDbCircle
 10
162.970132
 20
181.797593
 30
0.0
 40
7.5
100
AcDbArc
 50
135.001461
 51
180.0
  0
ARC
  5
1D3
100
AcDbEntity
  8
0
  6
Continuous
 62
   174
100
AcDbCircle
 10
222.970132
 20
201.797593
 30
0.0
 40
3.75
100
AcDbArc
 50
-70.05566
 51
-53.91074
  0
ARC
  5
1D4
100
AcDbEntity
  8
0
  6
Continuous
 62
   174
100
AcDbCircle
 10
222.970132
 20
201.797593
 30
0.0
 40
7.5
100
AcDbArc
 50
180.0
 51
314.998738
  0
ARC
  5
1D5
100
AcDbEntity
  8
0
  6
Continuous
 62
   174
100
AcDbCircle
 10
162.970132
 20
181.797593
 30
0.0
 40
3.75
100
AcDbArc
 50
-109.951637
 51
-70.05566
  0
ARC
  5
1D6
100
AcDbEntity
  8
0
  6
Continuous
 62
   174
100
AcDbCircle
 10
162.970132
 20
181.797593
 30
0.0
 40
3.75
100
AcDbArc
 50
-180.0
 51
-126.084985
  0
LINE
  5
1D7
100
AcDbEntity
  8
0
  6
Continuous
 62
   174
100
AcDbLine
 10
265.470132
 20
180.547593
 30
0.0
 11
267.970132
 21
180.547593
 31
0.0
  0
ARC
  5
1D8
100
AcDbEntity
  8
0
  6
Continuous
 62
   174
100
AcDbCircle
 10
162.970132
 20
181.797593
 30
0.0
 40
3.75
100
AcDbArc
 50
-70.05566
 51
-53.91074
  0
ARC
  5
1D9
100
AcDbEntity
  8
0
  6
Continuous
 62
   174
100
AcDbCircle
 10
222.970132
 20
201.797593
 30
0.0
 40
7.5
100
AcDbArc
 50
90.003329
 51
135.001461
  0
LINE
  5
1DA
100
AcDbEntity
  8
0
  6
Continuous
 62
   174
100
AcDbLine
 10
150.470132
 20
180.547593
 30
0.0
 11
147.970132
 21
180.547593
 31
0.0
  0
LINE
  5
1DB
100
AcDbEntity
  8
0
  6
Continuous
 62
   174
100
AcDbLine
 10
150.470132
 20
203.047593
 30
0.0
 11
147.970132
 21
203.047593
 31
0.0
  0
ARC
  5
1DC
100
AcDbEntity
  8
0
  6
Continuous
 62
   174
100
AcDbCircle
 10
222.970132
 20
201.797593
 30
0.0
 40
3.75
100
AcDbArc
 50
-126.084985
 51
-109.951637
  0
ARC
  5
1DD
100
AcDbEntity
  8
0
  6
Continuous
 62
   174
100
AcDbCircle
 10
207.970132
 20
181.797593
 30
0.0
 40
7.5
100
AcDbArc
 50
180.0
 51
314.998738
  0
ARC
  5
1DE
100
AcDbEntity
  8
0
  6
Continuous
 62
   174
100
AcDbCircle
 10
222.970132
 20
201.797593
 30
0.0
 40
3.75
100
AcDbArc
 50
-53.91074
 51
0.0
  0
ARC
  5
1DF
100
AcDbEntity
  8
0
  6
Continuous
 62
   174
100
AcDbCircle
 10
162.9699
 20
181.797347
 30
0.0
 40
3.75
100
AcDbArc
 50
-69.406112
 51
-54.646576
  0
ARC
  5
1E0
100
AcDbEntity
  8
0
  6
Continuous
 62
   174
100
AcDbCircle
 10
162.970132
 20
181.797593
 30
0.0
 40
3.75
100
AcDbArc
 50
-233.904047
 51
-180.0
  0
ARC
  5
1E1
100
AcDbEntity
  8
0
  6
Continuous
 62
   174
100
AcDbCircle
 10
162.970132
 20
181.797593
 30
0.0
 40
3.75
100
AcDbArc
 50
0.0
 51
53.899771
  0
ARC
  5
1E2
100
AcDbEntity
  8
0
  6
Continuous
 62
   174
100
AcDbCircle
 10
192.970132
 20
201.797593
 30
0.0
 40
7.5
100
AcDbArc
 50
135.001461
 51
180.0
  0
ARC
  5
1E3
100
AcDbEntity
  8
0
  6
Continuous
 62
   174
100
AcDbCircle
 10
162.9699
 20
181.797347
 30
0.0
 40
3.75
100
AcDbArc
 50
-290.573722
 51
-249.426278
  0
ARC
  5
1E4
100
AcDbEntity
  8
0
  6
Continuous
 62
   174
100
AcDbCircle
 10
252.970132
 20
201.797593
 30
0.0
 40
7.5
100
AcDbArc
 50
90.003329
 51
135.001461
  0
ARC
  5
1E5
100
AcDbEntity
  8
0
  6
Continuous
 62
   174
100
AcDbCircle
 10
162.970132
 20
181.797593
 30
0.0
 40
3.75
100
AcDbArc
 50
-289.925619
 51
-250.067083
  0
ARC
  5
1E6
100
AcDbEntity
  8
0
  6
Continuous
 62
   174
100
AcDbCircle
 10
237.970132
 20
206.797593
 30
0.0
 40
3.25
100
AcDbArc
 50
0.0
 51
180.0
  0
ARC
  5
1E7
100
AcDbEntity
  8
0
  6
Continuous
 62
   174
100
AcDbCircle
 10
192.970132
 20
201.797593
 30
0.0
 40
7.5
100
AcDbArc
 50
314.998738
 51
360.0
  0
LINE
  5
1E8
100
AcDbEntity
  8
0
  6
Continuous
 62
   174
100
AcDbLine
 10
265.470132
 20
203.047593
 30
0.0
 11
267.970132
 21
203.047593
 31
0.0
  0
ARC
  5
1E9
100
AcDbEntity
  8
0
  6
Continuous
 62
   174
100
AcDbCircle
 10
192.970132
 20
201.797593
 30
0.0
 40
7.5
100
AcDbArc
 50
90.003329
 51
135.001461
  0
ARC
  5
1EA
100
AcDbEntity
  8
0
  6
Continuous
 62
   174
100
AcDbCircle
 10
222.970132
 20
201.797593
 30
0.0
 40
3.75
100
AcDbArc
 50
-233.904047
 51
-180.0
  0
ARC
  5
1EB
100
AcDbEntity
  8
0
  6
Continuous
 62
   174
100
AcDbCircle
 10
162.9699
 20
181.797347
 30
0.0
 40
3.75
100
AcDbArc
 50
0.0
 51
54.640237
  0
ARC
  5
1EC
100
AcDbEntity
  8
0
  6
Continuous
 62
   174
100
AcDbCircle
 10
162.9699
 20
181.797347
 30
0.0
 40
3.75
100
AcDbArc
 50
-125.343093
 51
-110.593888
  0
ARC
  5
1ED
100
AcDbEntity
  8
0
  6
Continuous
 62
   174
100
AcDbCircle
 10
207.970132
 20
181.797593
 30
0.0
 40
7.5
100
AcDbArc
 50
135.001461
 51
180.0
  0
ARC
  5
1EE
100
AcDbEntity
  8
0
  6
Continuous
 62
   174
100
AcDbCircle
 10
222.970132
 20
201.797593
 30
0.0
 40
3.75
100
AcDbArc
 50
0.0
 51
53.899771
  0
ARC
  5
1EF
100
AcDbEntity
  8
0
  6
Continuous
 62
   174
100
AcDbCircle
 10
162.970132
 20
181.797593
 30
0.0
 40
7.5
100
AcDbArc
 50
-45.001262
 51
0.0
  0
ARC
  5
1F0
100
AcDbEntity
  8
0
  6
Continuous
 62
   174
100
AcDbCircle
 10
207.970132
 20
181.797593
 30
0.0
 40
7.5
100
AcDbArc
 50
90.003329
 51
135.001461
  0
ARC
  5
1F1
100
AcDbEntity
  8
0
  6
Continuous
 62
   174
100
AcDbCircle
 10
162.970132
 20
181.797593
 30
0.0
 40
3.75
100
AcDbArc
 50
-53.91074
 51
0.0
  0
ARC
  5
1F2
100
AcDbEntity
  8
0
  6
Continuous
 62
   174
100
AcDbCircle
 10
222.970132
 20
201.797593
 30
0.0
 40
7.5
100
AcDbArc
 50
0.0
 51
90.003329
  0
ARC
  5
1F3
100
AcDbEntity
  8
0
  6
Continuous
 62
   174
100
AcDbCircle
 10
222.970132
 20
201.797593
 30
0.0
 40
7.5
100
AcDbArc
 50
135.001461
 51
180.0
  0
ARC
  5
1F4
100
AcDbEntity
  8
0
  6
Continuous
 62
   174
100
AcDbCircle
 10
162.9699
 20
181.797347
 30
0.0
 40
3.75
100
AcDbArc
 50
-110.593888
 51
-69.406112
  0
ARC
  5
1F5
100
AcDbEntity
  8
0
  6
Continuous
 62
   174
100
AcDbCircle
 10
162.9699
 20
181.797347
 30
0.0
 40
3.75
100
AcDbArc
 50
-180.0
 51
-125.343093
  0
ARC
  5
1F6
100
AcDbEntity
  8
0
  6
Continuous
 62
   174
100
AcDbCircle
 10
222.970132
 20
201.797593
 30
0.0
 40
3.75
100
AcDbArc
 50
-109.951637
 51
-70.05566
  0
ARC
  5
1F7
100
AcDbEntity
  8
0
  6
Continuous
 62
   174
100
AcDbCircle
 10
162.9699
 20
181.797347
 30
0.0
 40
3.75
100
AcDbArc
 50
-54.646576
 51
0.0
  0
LINE
  5
1F8
100
AcDbEntity
  8
0
  6
Continuous
 62
   174
100
AcDbLine
 10
265.470132
 20
211.797593
 30
0.0
 11
265.470132
 21
171.797593
 31
0.0
  0
ENDBLK
  5
1F9
100
AcDbEntity
  8
0
100
AcDbBlockEnd
  0
BLOCK
  5
1FC
100
AcDbEntity
  8
0
100
AcDbBlockBegin
  2
*B3
 70
     0
 10
0.0
 20
0.0
 30
0.0
  3
*B3
  1

  0
LINE
  5
1FD
100
AcDbEntity
  8
0
  6
Continuous
 62
     0
100
AcDbLine
 10
190.24591
 20
52.957921
 30
0.0
 11
232.849689
 21
52.957921
 31
0.0
  0
SOLID
  5
1FE
100
AcDbEntity
  8
0
  6
Continuous
 62
     0
100
AcDbTrace
 10
197.245703
 20
51.707926
 30
0.0
 11
204.245796
 21
52.957921
 31
0.0
 12
197.245703
 22
54.207916
 32
0.0
 13
197.245703
 23
54.207916
 33
0.0
  0
SOLID
  5
1FF
100
AcDbEntity
  8
0
  6
Continuous
 62
     0
100
AcDbTrace
 10
218.745861
 20
54.207916
 30
0.0
 11
211.745768
 21
52.957921
 31
0.0
 12
218.745861
 22
51.707926
 32
0.0
 13
218.745861
 23
51.707926
 33
0.0
  0
ENDBLK
  5
200
100
AcDbEntity
  8
0
100
AcDbBlockEnd
  0
BLOCK
  5
203
100
AcDbEntity
  8
0
100
AcDbBlockBegin
  2
*B4
 70
     0
 10
0.0
 20
0.0
 30
0.0
  3
*B4
  1

  0
LINE
  5
204
100
AcDbEntity
  8
0
  6
Continuous
 62
     0
100
AcDbLine
 10
176.99584
 20
156.04002
 30
0.0
 11
136.495814
 21
156.04002
 31
0.0
  0
SOLID
  5
205
100
AcDbEntity
  8
0
  6
Continuous
 62
     0
100
AcDbTrace
 10
169.995747
 20
157.290015
 30
0.0
 11
162.995653
 21
156.04002
 31
0.0
 12
169.995747
 22
154.790325
 32
0.0
 13
169.995747
 23
154.790325
 33
0.0
  0
SOLID
  5
206
100
AcDbEntity
  8
0
  6
Continuous
 62
     0
100
AcDbTrace
 10
143.495908
 20
154.790325
 30
0.0
 11
150.495701
 21
156.04002
 31
0.0
 12
143.495908
 22
157.290015
 32
0.0
 13
143.495908
 23
157.290015
 33
0.0
  0
ENDBLK
  5
207
100
AcDbEntity
  8
0
100
AcDbBlockEnd
  0
BLOCK
  5
20A
100
AcDbEntity
  8
0
100
AcDbBlockBegin
  2
*B5
 70
     0
 10
0.0
 20
0.0
 30
0.0
  3
*B5
  1

  0
LINE
  5
20B
100
AcDbEntity
  8
0
  6
Continuous
 62
     0
100
AcDbLine
 10
162.995653
 20
156.04002
 30
0.0
 11
252.99561
 21
156.04002
 31
0.0
  0
SOLID
  5
20C
100
AcDbEntity
  8
0
  6
Continuous
 62
     0
100
AcDbTrace
 10
169.995747
 20
157.290015
 30
0.0
 11
162.995653
 21
156.04002
 31
0.0
 12
169.995747
 22
154.790325
 32
0.0
 13
169.995747
 23
154.790325
 33
0.0
  0
SOLID
  5
20D
100
AcDbEntity
  8
0
  6
Continuous
 62
     0
100
AcDbTrace
 10
245.995817
 20
154.790325
 30
0.0
 11
252.99561
 21
156.04002
 31
0.0
 12
245.995817
 22
157.290015
 32
0.0
 13
245.995817
 23
157.290015
 33
0.0
  0
ENDBLK
  5
20E
100
AcDbEntity
  8
0
100
AcDbBlockEnd
  0
BLOCK
  5
211
100
AcDbEntity
  8
0
100
AcDbBlockBegin
  2
*B6
 70
     0
 10
0.0
 20
0.0
 30
0.0
  3
*B6
  1

  0
LINE
  5
212
100
AcDbEntity
  8
0
  6
Continuous
 62
     0
100
AcDbLine
 10
207.995782
 20
142.041035
 30
0.0
 11
150.495701
 21
142.041035
 31
0.0
  0
SOLID
  5
213
100
AcDbEntity
  8
0
  6
Continuous
 62
     0
100
AcDbTrace
 10
200.995688
 20
140.79134
 30
0.0
 11
207.995782
 21
142.041035
 31
0.0
 12
200.995688
 22
143.29103
 32
0.0
 13
200.995688
 23
143.29103
 33
0.0
  0
SOLID
  5
214
100
AcDbEntity
  8
0
  6
Continuous
 62
     0
100
AcDbTrace
 10
157.495794
 20
143.29103
 30
0.0
 11
150.495701
 21
142.041035
 31
0.0
 12
157.495794
 22
140.79134
 32
0.0
 13
157.495794
 23
140.79134
 33
0.0
  0
ENDBLK
  5
215
100
AcDbEntity
  8
0
100
AcDbBlockEnd
  0
BLOCK
  5
218
100
AcDbEntity
  8
0
100
AcDbBlockBegin
  2
*B7
 70
     0
 10
0.0
 20
0.0
 30
0.0
  3
*B7
  1

  0
LINE
  5
219
100
AcDbEntity
  8
0
  6
Continuous
 62
     0
100
AcDbLine
 10
178.995652
 20
226.034946
 30
0.0
 11
221.995668
 21
226.034946
 31
0.0
  0
SOLID
  5
21A
100
AcDbEntity
  8
0
  6
Continuous
 62
     0
100
AcDbTrace
 10
185.995746
 20
224.785252
 30
0.0
 11
192.995839
 21
226.034946
 31
0.0
 12
185.995746
 22
227.284942
 32
0.0
 13
185.995746
 23
227.284942
 33
0.0
  0
SOLID
  5
21B
100
AcDbEntity
  8
0
  6
Continuous
 62
     0
100
AcDbTrace
 10
214.995875
 20
227.284942
 30
0.0
 11
207.995782
 21
226.034946
 31
0.0
 12
214.995875
 22
224.785252
 32
0.0
 13
214.995875
 23
224.785252
 33
0.0
  0
ENDBLK
  5
21C
100
AcDbEntity
  8
0
100
AcDbBlockEnd
  0
BLOCK
  5
21F
100
AcDbEntity
  8
0
100
AcDbBlockBegin
  2
*B8
 70
     0
 10
0.0
 20
0.0
 30
0.0
  3
*B8
  1

  0
LINE
  5
220
100
AcDbEntity
  8
0
  6
Continuous
 62
     0
100
AcDbLine
 10
193.995895
 20
142.041035
 30
0.0
 11
236.995611
 21
142.041035
 31
0.0
  0
SOLID
  5
221
100
AcDbEntity
  8
0
  6
Continuous
 62
     0
100
AcDbTrace
 10
200.995688
 20
140.79134
 30
0.0
 11
207.995782
 21
142.041035
 31
0.0
 12
200.995688
 22
143.29103
 32
0.0
 13
200.995688
 23
143.29103
 33
0.0
  0
SOLID
  5
222
100
AcDbEntity
  8
0
  6
Continuous
 62
     0
100
AcDbTrace
 10
229.995818
 20
143.29103
 30
0.0
 11
222.995725
 21
142.041035
 31
0.0
 12
229.995818
 22
140.79134
 32
0.0
 13
229.995818
 23
140.79134
 33
0.0
  0
ENDBLK
  5
223
100
AcDbEntity
  8
0
100
AcDbBlockEnd
  0
BLOCK
  5
226
100
AcDbEntity
  8
0
100
AcDbBlockBegin
  2
*B9
 70
     0
 10
0.0
 20
0.0
 30
0.0
  3
*B9
  1

  0
LINE
  5
227
100
AcDbEntity
  8
0
  6
Continuous
 62
     0
100
AcDbLine
 10
177.995896
 20
240.033932
 30
0.0
 11
150.495701
 21
240.033932
 31
0.0
  0
SOLID
  5
228
100
AcDbEntity
  8
0
  6
Continuous
 62
     0
100
AcDbTrace
 10
170.995803
 20
238.784237
 30
0.0
 11
177.995896
 21
240.033932
 31
0.0
 12
170.995803
 22
241.283927
 32
0.0
 13
170.995803
 23
241.283927
 33
0.0
  0
SOLID
  5
229
100
AcDbEntity
  8
0
  6
Continuous
 62
     0
100
AcDbTrace
 10
157.495794
 20
241.283927
 30
0.0
 11
150.495701
 21
240.033932
 31
0.0
 12
157.495794
 22
238.784237
 32
0.0
 13
157.495794
 23
238.784237
 33
0.0
  0
ENDBLK
  5
22A
100
AcDbEntity
  8
0
100
AcDbBlockEnd
  0
BLOCK
  5
22D
100
AcDbEntity
  8
0
100
AcDbBlockBegin
  2
*B10
 70
     0
 10
0.0
 20
0.0
 30
0.0
  3
*B10
  1

  0
LINE
  5
22E
100
AcDbEntity
  8
0
  6
Continuous
 62
     0
100
AcDbLine
 10
177.995896
 20
240.033932
 30
0.0
 11
237.995667
 21
240.033932
 31
0.0
  0
SOLID
  5
22F
100
AcDbEntity
  8
0
  6
Continuous
 62
     0
100
AcDbTrace
 10
184.995689
 20
241.283927
 30
0.0
 11
177.995896
 21
240.033932
 31
0.0
 12
184.995689
 22
238.784237
 32
0.0
 13
184.995689
 23
238.784237
 33
0.0
  0
SOLID
  5
230
100
AcDbEntity
  8
0
  6
Continuous
 62
     0
100
AcDbTrace
 10
230.995874
 20
238.784237
 30
0.0
 11
237.995667
 21
240.033932
 31
0.0
 12
230.995874
 22
241.283927
 32
0.0
 13
230.995874
 23
241.283927
 33
0.0
  0
ENDBLK
  5
231
100
AcDbEntity
  8
0
100
AcDbBlockEnd
  0
BLOCK
  5
234
100
AcDbEntity
  8
0
100
AcDbBlockBegin
  2
*B11
 70
     0
 10
0.0
 20
0.0
 30
0.0
  3
*B11
  1

  0
LINE
  5
235
100
AcDbEntity
  8
0
  6
Continuous
 62
     0
100
AcDbLine
 10
265.495863
 20
254.032917
 30
0.0
 11
150.495701
 21
254.032917
 31
0.0
  0
SOLID
  5
236
100
AcDbEntity
  8
0
  6
Continuous
 62
     0
100
AcDbTrace
 10
258.49577
 20
252.783222
 30
0.0
 11
265.495863
 21
254.032917
 31
0.0
 12
258.49577
 22
255.282912
 32
0.0
 13
258.49577
 23
255.282912
 33
0.0
  0
SOLID
  5
237
100
AcDbEntity
  8
0
  6
Continuous
 62
     0
100
AcDbTrace
 10
157.495794
 20
255.282912
 30
0.0
 11
150.495701
 21
254.032917
 31
0.0
 12
157.495794
 22
252.783222
 32
0.0
 13
157.495794
 23
252.783222
 33
0.0
  0
ENDBLK
  5
238
100
AcDbEntity
  8
0
100
AcDbBlockEnd
  0
BLOCK
  5
23B
100
AcDbEntity
  8
0
100
AcDbBlockBegin
  2
*B12
 70
     0
 10
0.0
 20
0.0
 30
0.0
  3
*B12
  1

  0
LINE
  5
23C
100
AcDbEntity
  8
0
  6
Continuous
 62
     0
100
AcDbLine
 10
251.495676
 20
254.032917
 30
0.0
 11
283.855863
 21
254.032917
 31
0.0
  0
SOLID
  5
23D
100
AcDbEntity
  8
0
  6
Continuous
 62
     0
100
AcDbTrace
 10
258.49577
 20
252.783222
 30
0.0
 11
265.495863
 21
254.032917
 31
0.0
 12
258.49577
 22
255.282912
 32
0.0
 13
258.49577
 23
255.282912
 33
0.0
  0
SOLID
  5
23E
100
AcDbEntity
  8
0
  6
Continuous
 62
     0
100
AcDbTrace
 10
274.995646
 20
255.282912
 30
0.0
 11
267.995853
 21
254.032917
 31
0.0
 12
274.995646
 22
252.783222
 32
0.0
 13
274.995646
 23
252.783222
 33
0.0
  0
ENDBLK
  5
23F
100
AcDbEntity
  8
0
100
AcDbBlockEnd
  0
BLOCK
  5
242
100
AcDbEntity
  8
0
100
AcDbBlockBegin
  2
*B13
 70
     0
 10
0.0
 20
0.0
 30
0.0
  3
*B13
  1

  0
LINE
  5
243
100
AcDbEntity
  8
0
  6
Continuous
 62
     0
100
AcDbLine
 10
164.495888
 20
254.032917
 30
0.0
 11
133.195238
 21
254.032917
 31
0.0
  0
SOLID
  5
244
100
AcDbEntity
  8
0
  6
Continuous
 62
     0
100
AcDbTrace
 10
157.495794
 20
255.282912
 30
0.0
 11
150.495701
 21
254.032917
 31
0.0
 12
157.495794
 22
252.783222
 32
0.0
 13
157.495794
 23
252.783222
 33
0.0
  0
SOLID
  5
245
100
AcDbEntity
  8
0
  6
Continuous
 62
     0
100
AcDbTrace
 10
140.995917
 20
252.783222
 30
0.0
 11
147.99571
 21
254.032917
 31
0.0
 12
140.995917
 22
255.282912
 32
0.0
 13
140.995917
 23
255.282912
 33
0.0
  0
ENDBLK
  5
246
100
AcDbEntity
  8
0
100
AcDbBlockEnd
  0
BLOCK
  5
249
100
AcDbEntity
  8
0
100
AcDbBlockBegin
  2
*B14
 70
     0
 10
0.0
 20
0.0
 30
0.0
  3
*B14
  1

  0
LINE
  5
24A
100
AcDbEntity
  8
0
  6
Continuous
 62
     0
100
AcDbLine
 10
138.025789
 20
215.833411
 30
0.0
 11
138.025789
 21
177.83608
 31
0.0
  0
SOLID
  5
24B
100
AcDbEntity
  8
0
  6
Continuous
 62
     0
100
AcDbTrace
 10
136.775794
 20
208.833919
 30
0.0
 11
138.025789
 21
201.834426
 31
0.0
 12
139.275784
 22
208.833919
 32
0.0
 13
139.275784
 23
208.833919
 33
0.0
  0
SOLID
  5
24C
100
AcDbEntity
  8
0
  6
Continuous
 62
     0
100
AcDbTrace
 10
139.275784
 20
184.835572
 30
0.0
 11
138.025789
 21
191.835065
 31
0.0
 12
136.775794
 22
184.835572
 32
0.0
 13
136.775794
 23
184.835572
 33
0.0
  0
ENDBLK
  5
24D
100
AcDbEntity
  8
0
100
AcDbBlockEnd
  0
BLOCK
  5
250
100
AcDbEntity
  8
0
100
AcDbBlockBegin
  2
*B15
 70
     0
 10
0.0
 20
0.0
 30
0.0
  3
*B15
  1

  0
LINE
  5
251
100
AcDbEntity
  8
0
  6
Continuous
 62
     0
100
AcDbLine
 10
124.025602
 20
205.83405
 30
0.0
 11
124.025602
 21
167.836719
 31
0.0
  0
SOLID
  5
252
100
AcDbEntity
  8
0
  6
Continuous
 62
     0
100
AcDbTrace
 10
122.775607
 20
198.834558
 30
0.0
 11
124.025602
 21
191.835065
 31
0.0
 12
125.275598
 22
198.834558
 32
0.0
 13
125.275598
 23
198.834558
 33
0.0
  0
SOLID
  5
253
100
AcDbEntity
  8
0
  6
Continuous
 62
     0
100
AcDbTrace
 10
125.275598
 20
174.836211
 30
0.0
 11
124.025602
 21
181.835704
 31
0.0
 12
122.775607
 22
174.836211
 32
0.0
 13
122.775607
 23
174.836211
 33
0.0
  0
ENDBLK
  5
254
100
AcDbEntity
  8
0
100
AcDbBlockEnd
  0
BLOCK
  5
257
100
AcDbEntity
  8
0
100
AcDbBlockBegin
  2
*B16
 70
     0
 10
0.0
 20
0.0
 30
0.0
  3
*B16
  1

  0
LINE
  5
258
100
AcDbEntity
  8
0
  6
Continuous
 62
     0
100
AcDbLine
 10
282.02548
 20
176.836324
 30
0.0
 11
282.02548
 21
206.834106
 31
0.0
  0
SOLID
  5
259
100
AcDbEntity
  8
0
  6
Continuous
 62
     0
100
AcDbTrace
 10
280.775485
 20
183.835816
 30
0.0
 11
282.02548
 21
176.836324
 31
0.0
 12
283.275476
 22
183.835816
 32
0.0
 13
283.275476
 23
183.835816
 33
0.0
  0
SOLID
  5
25A
100
AcDbEntity
  8
0
  6
Continuous
 62
     0
100
AcDbTrace
 10
283.275476
 20
199.834614
 30
0.0
 11
282.02548
 21
206.834106
 31
0.0
 12
280.775485
 22
199.834614
 32
0.0
 13
280.775485
 23
199.834614
 33
0.0
  0
ENDBLK
  5
25B
100
AcDbEntity
  8
0
100
AcDbBlockEnd
  0
BLOCK
  5
25E
100
AcDbEntity
  8
0
100
AcDbBlockBegin
  2
*B17
 70
     0
 10
0.0
 20
0.0
 30
0.0
  3
*B17
  1

  0
LINE
  5
25F
100
AcDbEntity
  8
0
  6
Continuous
 62
     0
100
AcDbLine
 10
297.025723
 20
171.836643
 30
0.0
 11
297.025723
 21
211.833787
 31
0.0
  0
SOLID
  5
260
100
AcDbEntity
  8
0
  6
Continuous
 62
     0
100
AcDbTrace
 10
295.775728
 20
178.836136
 30
0.0
 11
297.025723
 21
171.836643
 31
0.0
 12
298.275719
 22
178.836136
 32
0.0
 13
298.275719
 23
178.836136
 33
0.0
  0
SOLID
  5
261
100
AcDbEntity
  8
0
  6
Continuous
 62
     0
100
AcDbTrace
 10
298.275719
 20
204.834294
 30
0.0
 11
297.025723
 21
211.833787
 31
0.0
 12
295.775728
 22
204.834294
 32
0.0
 13
295.775728
 23
204.834294
 33
0.0
  0
ENDBLK
  5
262
100
AcDbEntity
  8
0
100
AcDbBlockEnd
  0
BLOCK
  5
265
100
AcDbEntity
  8
0
100
AcDbBlockBegin
  2
*B18
 70
     0
 10
0.0
 20
0.0
 30
0.0
  3
*B18
  1

  0
LINE
  5
266
100
AcDbEntity
  8
0
  6
Continuous
 62
     0
100
AcDbLine
 10
296.025667
 20
125.518026
 30
0.0
 11
296.025667
 21
70.521841
 31
0.0
  0
SOLID
  5
267
100
AcDbEntity
  8
0
  6
Continuous
 62
     0
100
AcDbTrace
 10
297.275662
 20
118.518534
 30
0.0
 11
296.025667
 21
125.518026
 31
0.0
 12
294.775672
 22
118.518534
 32
0.0
 13
294.775672
 23
118.518534
 33
0.0
  0
SOLID
  5
268
100
AcDbEntity
  8
0
  6
Continuous
 62
     0
100
AcDbTrace
 10
294.775672
 20
77.521334
 30
0.0
 11
296.025667
 21
70.521841
 31
0.0
 12
297.275662
 22
77.521334
 32
0.0
 13
297.275662
 23
77.521334
 33
0.0
  0
ENDBLK
  5
269
100
AcDbEntity
  8
0
100
AcDbBlockEnd
  0
BLOCK
  5
26C
100
AcDbEntity
  8
0
100
AcDbBlockBegin
  2
*B19
 70
     0
 10
0.0
 20
0.0
 30
0.0
  3
*B19
  1

  0
LINE
  5
26D
100
AcDbEntity
  8
0
  6
Continuous
 62
     8
100
AcDbLine
 10
136.025677
 20
201.834426
 30
0.0
 11
140.025601
 21
201.834426
 31
0.0
  0
LINE
  5
26E
100
AcDbEntity
  8
0
  6
Continuous
 62
     8
100
AcDbLine
 10
140.025601
 20
201.834426
 30
0.0
 11
151.349158
 21
201.834426
 31
0.0
  0
LINE
  5
26F
100
AcDbEntity
  8
0
  6
Continuous
 62
     8
100
AcDbLine
 10
154.349027
 20
201.834426
 30
0.0
 11
155.349083
 21
201.834426
 31
0.0
  0
LINE
  5
270
100
AcDbEntity
  8
0
  6
Continuous
 62
     8
100
AcDbLine
 10
158.348951
 20
201.834426
 30
0.0
 11
169.672508
 21
201.834426
 31
0.0
  0
LINE
  5
271
100
AcDbEntity
  8
0
  6
Continuous
 62
     8
100
AcDbLine
 10
172.672377
 20
201.834426
 30
0.0
 11
173.672433
 21
201.834426
 31
0.0
  0
LINE
  5
272
100
AcDbEntity
  8
0
  6
Continuous
 62
     8
100
AcDbLine
 10
176.672301
 20
201.834426
 30
0.0
 11
187.995858
 21
201.834426
 31
0.0
  0
LINE
  5
273
100
AcDbEntity
  8
0
  6
Continuous
 62
     8
100
AcDbLine
 10
197.99582
 20
201.834426
 30
0.0
 11
206.495848
 21
201.834426
 31
0.0
  0
ENDBLK
  5
274
100
AcDbEntity
  8
0
100
AcDbBlockEnd
  0
BLOCK
  5
277
100
AcDbEntity
  8
0
100
AcDbBlockBegin
  2
*B20
 70
     0
 10
0.0
 20
0.0
 30
0.0
  3
*B20
  1

  0
LINE
  5
278
100
AcDbEntity
  8
0
  6
Continuous
 62
     8
100
AcDbLine
 10
209.495716
 20
201.834426
 30
0.0
 11
217.995744
 21
201.834426
 31
0.0
  0
LINE
  5
279
100
AcDbEntity
  8
0
  6
Continuous
 62
     8
100
AcDbLine
 10
227.995706
 20
201.834426
 30
0.0
 11
236.495733
 21
201.834426
 31
0.0
  0
ENDBLK
  5
27A
100
AcDbEntity
  8
0
100
AcDbBlockEnd
  0
BLOCK
  5
27D
100
AcDbEntity
  8
0
100
AcDbBlockBegin
  2
*B21
 70
     0
 10
0.0
 20
0.0
 30
0.0
  3
*B21
  1

  0
LINE
  5
27E
100
AcDbEntity
  8
0
  6
Continuous
 62
     8
100
AcDbLine
 10
239.495902
 20
201.834426
 30
0.0
 11
247.995629
 21
201.834426
 31
0.0
  0
LINE
  5
27F
100
AcDbEntity
  8
0
  6
Continuous
 62
     8
100
AcDbLine
 10
257.995591
 20
201.834426
 30
0.0
 11
266.495619
 21
201.834426
 31
0.0
  0
ENDBLK
  5
280
100
AcDbEntity
  8
0
100
AcDbBlockEnd
  0
BLOCK
  5
283
100
AcDbEntity
  8
0
100
AcDbBlockBegin
  2
*B22
 70
     0
 10
0.0
 20
0.0
 30
0.0
  3
*B22
  1

  0
LINE
  5
284
100
AcDbEntity
  8
0
  6
Continuous
 62
     8
100
AcDbLine
 10
268.495731
 20
211.833787
 30
0.0
 11
299.025536
 21
211.833787
 31
0.0
  0
ENDBLK
  5
285
100
AcDbEntity
  8
0
100
AcDbBlockEnd
  0
BLOCK
  5
288
100
AcDbEntity
  8
0
100
AcDbBlockBegin
  2
*B23
 70
     0
 10
0.0
 20
0.0
 30
0.0
  3
*B23
  1

  0
LINE
  5
289
100
AcDbEntity
  8
0
  6
Continuous
 62
     8
100
AcDbLine
 10
147.99571
 20
206.083989
 30
0.0
 11
147.99571
 21
256.03303
 31
0.0
  0
ENDBLK
  5
28A
100
AcDbEntity
  8
0
100
AcDbBlockEnd
  0
BLOCK
  5
28D
100
AcDbEntity
  8
0
100
AcDbBlockBegin
  2
*B24
 70
     0
 10
0.0
 20
0.0
 30
0.0
  3
*B24
  1

  0
LINE
  5
28E
100
AcDbEntity
  8
0
  6
Continuous
 62
     8
100
AcDbLine
 10
177.995896
 20
238.03412
 30
0.0
 11
177.995896
 21
242.034044
 31
0.0
  0
LINE
  5
28F
100
AcDbEntity
  8
0
  6
Continuous
 62
     8
100
AcDbLine
 10
177.995896
 20
167.58678
 30
0.0
 11
177.995896
 21
171.836643
 31
0.0
  0
LINE
  5
290
100
AcDbEntity
  8
0
  6
Continuous
 62
     8
100
AcDbLine
 10
177.995896
 20
181.835704
 30
0.0
 11
177.995896
 21
195.902281
 31
0.0
  0
LINE
  5
291
100
AcDbEntity
  8
0
  6
Continuous
 62
     8
100
AcDbLine
 10
177.995896
 20
198.902149
 30
0.0
 11
177.995896
 21
199.901905
 31
0.0
  0
LINE
  5
292
100
AcDbEntity
  8
0
  6
Continuous
 62
     8
100
AcDbLine
 10
177.995896
 20
202.901773
 30
0.0
 11
177.995896
 21
216.96835
 31
0.0
  0
LINE
  5
293
100
AcDbEntity
  8
0
  6
Continuous
 62
     8
100
AcDbLine
 10
177.995896
 20
219.967918
 30
0.0
 11
177.995896
 21
220.967975
 31
0.0
  0
LINE
  5
294
100
AcDbEntity
  8
0
  6
Continuous
 62
     8
100
AcDbLine
 10
177.995896
 20
223.967843
 30
0.0
 11
177.995896
 21
238.03412
 31
0.0
  0
ENDBLK
  5
295
100
AcDbEntity
  8
0
100
AcDbBlockEnd
  0
BLOCK
  5
298
100
AcDbEntity
  8
0
100
AcDbBlockBegin
  2
*B25
 70
     0
 10
0.0
 20
0.0
 30
0.0
  3
*B25
  1

  0
LINE
  5
299
100
AcDbEntity
  8
0
  6
Continuous
 62
     8
100
AcDbLine
 10
177.995896
 20
64.522405
 30
0.0
 11
177.995896
 21
76.021399
 31
0.0
  0
LINE
  5
29A
100
AcDbEntity
  8
0
  6
Continuous
 62
     8
100
AcDbLine
 10
177.995896
 20
79.021268
 30
0.0
 11
177.995896
 21
80.021324
 31
0.0
  0
LINE
  5
29B
100
AcDbEntity
  8
0
  6
Continuous
 62
     8
100
AcDbLine
 10
177.995896
 20
83.020892
 30
0.0
 11
177.995896
 21
94.520187
 31
0.0
  0
LINE
  5
29C
100
AcDbEntity
  8
0
  6
Continuous
 62
     8
100
AcDbLine
 10
177.995896
 20
97.520056
 30
0.0
 11
177.995896
 21
98.519812
 31
0.0
  0
LINE
  5
29D
100
AcDbEntity
  8
0
  6
Continuous
 62
     8
100
AcDbLine
 10
177.995896
 20
101.51968
 30
0.0
 11
177.995896
 21
113.018975
 31
0.0
  0
LINE
  5
29E
100
AcDbEntity
  8
0
  6
Continuous
 62
     8
100
AcDbLine
 10
177.995896
 20
116.018543
 30
0.0
 11
177.995896
 21
117.0186
 31
0.0
  0
LINE
  5
29F
100
AcDbEntity
  8
0
  6
Continuous
 62
     8
100
AcDbLine
 10
177.995896
 20
120.018468
 30
0.0
 11
177.995896
 21
131.517463
 31
0.0
  0
ENDBLK
  5
2A0
100
AcDbEntity
  8
0
100
AcDbBlockEnd
  0
BLOCK
  5
2A3
100
AcDbEntity
  8
0
100
AcDbBlockBegin
  2
*B26
 70
     0
 10
0.0
 20
0.0
 30
0.0
  3
*B26
  1

  0
LINE
  5
2A4
100
AcDbEntity
  8
0
  6
Continuous
 62
     8
100
AcDbLine
 10
207.995782
 20
140.041223
 30
0.0
 11
207.995782
 21
144.040847
 31
0.0
  0
LINE
  5
2A5
100
AcDbEntity
  8
0
  6
Continuous
 62
     8
100
AcDbLine
 10
207.995782
 20
224.035134
 30
0.0
 11
207.995782
 21
228.034759
 31
0.0
  0
LINE
  5
2A6
100
AcDbEntity
  8
0
  6
Continuous
 62
     8
100
AcDbLine
 10
207.995782
 20
144.040847
 30
0.0
 11
207.995782
 21
156.938839
 31
0.0
  0
LINE
  5
2A7
100
AcDbEntity
  8
0
  6
Continuous
 62
     8
100
AcDbLine
 10
207.995782
 20
159.938707
 30
0.0
 11
207.995782
 21
160.938463
 31
0.0
  0
LINE
  5
2A8
100
AcDbEntity
  8
0
  6
Continuous
 62
     8
100
AcDbLine
 10
207.995782
 20
163.938332
 30
0.0
 11
207.995782
 21
176.836324
 31
0.0
  0
LINE
  5
2A9
100
AcDbEntity
  8
0
  6
Continuous
 62
     8
100
AcDbLine
 10
207.995782
 20
186.835384
 30
0.0
 11
207.995782
 21
201.935663
 31
0.0
  0
LINE
  5
2AA
100
AcDbEntity
  8
0
  6
Continuous
 62
     8
100
AcDbLine
 10
207.995782
 20
204.935231
 30
0.0
 11
207.995782
 21
205.935287
 31
0.0
  0
LINE
  5
2AB
100
AcDbEntity
  8
0
  6
Continuous
 62
     8
100
AcDbLine
 10
207.995782
 20
208.935156
 30
0.0
 11
207.995782
 21
224.035134
 31
0.0
  0
ENDBLK
  5
2AC
100
AcDbEntity
  8
0
100
AcDbBlockEnd
  0
BLOCK
  5
2AF
100
AcDbEntity
  8
0
100
AcDbBlockBegin
  2
*B27
 70
     0
 10
0.0
 20
0.0
 30
0.0
  3
*B27
  1

  0
LINE
  5
2B0
100
AcDbEntity
  8
0
  6
Continuous
 62
     8
100
AcDbLine
 10
207.995782
 20
67.522273
 30
0.0
 11
207.995782
 21
79.146237
 31
0.0
  0
LINE
  5
2B1
100
AcDbEntity
  8
0
  6
Continuous
 62
     8
100
AcDbLine
 10
207.995782
 20
82.146106
 30
0.0
 11
207.995782
 21
83.145862
 31
0.0
  0
LINE
  5
2B2
100
AcDbEntity
  8
0
  6
Continuous
 62
     8
100
AcDbLine
 10
207.995782
 20
86.14573
 30
0.0
 11
207.995782
 21
97.769995
 31
0.0
  0
ENDBLK
  5
2B3
100
AcDbEntity
  8
0
100
AcDbBlockEnd
  0
BLOCK
  5
2B6
100
AcDbEntity
  8
0
100
AcDbBlockBegin
  2
*B28
 70
     0
 10
0.0
 20
0.0
 30
0.0
  3
*B28
  1

  0
LINE
  5
2B7
100
AcDbEntity
  8
0
  6
Continuous
 62
     8
100
AcDbLine
 10
237.995667
 20
64.522405
 30
0.0
 11
237.995667
 21
76.021399
 31
0.0
  0
LINE
  5
2B8
100
AcDbEntity
  8
0
  6
Continuous
 62
     8
100
AcDbLine
 10
237.995667
 20
79.021268
 30
0.0
 11
237.995667
 21
80.021324
 31
0.0
  0
LINE
  5
2B9
100
AcDbEntity
  8
0
  6
Continuous
 62
     8
100
AcDbLine
 10
237.995667
 20
83.020892
 30
0.0
 11
237.995667
 21
94.520187
 31
0.0
  0
LINE
  5
2BA
100
AcDbEntity
  8
0
  6
Continuous
 62
     8
100
AcDbLine
 10
237.995667
 20
97.520056
 30
0.0
 11
237.995667
 21
98.519812
 31
0.0
  0
LINE
  5
2BB
100
AcDbEntity
  8
0
  6
Continuous
 62
     8
100
AcDbLine
 10
237.995667
 20
101.51968
 30
0.0
 11
237.995667
 21
113.018975
 31
0.0
  0
LINE
  5
2BC
100
AcDbEntity
  8
0
  6
Continuous
 62
     8
100
AcDbLine
 10
237.995667
 20
116.018543
 30
0.0
 11
237.995667
 21
117.0186
 31
0.0
  0
LINE
  5
2BD
100
AcDbEntity
  8
0
  6
Continuous
 62
     8
100
AcDbLine
 10
237.995667
 20
120.018468
 30
0.0
 11
237.995667
 21
131.517463
 31
0.0
  0
ENDBLK
  5
2BE
100
AcDbEntity
  8
0
100
AcDbBlockEnd
  0
BLOCK
  5
2C1
100
AcDbEntity
  8
0
100
AcDbBlockBegin
  2
*B29
 70
     0
 10
0.0
 20
0.0
 30
0.0
  3
*B29
  1

  0
LINE
  5
2C2
100
AcDbEntity
  8
0
  6
Continuous
 62
     8
100
AcDbLine
 10
237.995667
 20
238.03412
 30
0.0
 11
237.995667
 21
242.034044
 31
0.0
  0
LINE
  5
2C3
100
AcDbEntity
  8
0
  6
Continuous
 62
     8
100
AcDbLine
 10
237.995667
 20
197.584562
 30
0.0
 11
237.995667
 21
201.834426
 31
0.0
  0
LINE
  5
2C4
100
AcDbEntity
  8
0
  6
Continuous
 62
     8
100
AcDbLine
 10
237.995667
 20
211.833787
 30
0.0
 11
237.995667
 21
221.434207
 31
0.0
  0
LINE
  5
2C5
100
AcDbEntity
  8
0
  6
Continuous
 62
     8
100
AcDbLine
 10
237.995667
 20
224.434075
 30
0.0
 11
237.995667
 21
225.433831
 31
0.0
  0
LINE
  5
2C6
100
AcDbEntity
  8
0
  6
Continuous
 62
     8
100
AcDbLine
 10
237.995667
 20
228.4337
 30
0.0
 11
237.995667
 21
238.03412
 31
0.0
  0
ENDBLK
  5
2C7
100
AcDbEntity
  8
0
100
AcDbBlockEnd
  0
BLOCK
  5
2CA
100
AcDbEntity
  8
0
100
AcDbBlockBegin
  2
*B30
 70
     0
 10
0.0
 20
0.0
 30
0.0
  3
*B30
  1

  0
LINE
  5
2CB
100
AcDbEntity
  8
0
  6
Continuous
 62
     8
100
AcDbLine
 10
141.995673
 20
91.770258
 30
0.0
 11
152.370844
 21
91.770258
 31
0.0
  0
LINE
  5
2CC
100
AcDbEntity
  8
0
  6
Continuous
 62
     8
100
AcDbLine
 10
155.370712
 20
91.770258
 30
0.0
 11
156.370769
 21
91.770258
 31
0.0
  0
LINE
  5
2CD
100
AcDbEntity
  8
0
  6
Continuous
 62
     8
100
AcDbLine
 10
159.370937
 20
91.770258
 30
0.0
 11
169.745808
 21
91.770258
 31
0.0
  0
LINE
  5
2CE
100
AcDbEntity
  8
0
  6
Continuous
 62
     8
100
AcDbLine
 10
172.745676
 20
91.770258
 30
0.0
 11
173.745732
 21
91.770258
 31
0.0
  0
LINE
  5
2CF
100
AcDbEntity
  8
0
  6
Continuous
 62
     8
100
AcDbLine
 10
176.745901
 20
91.770258
 30
0.0
 11
187.120771
 21
91.770258
 31
0.0
  0
LINE
  5
2D0
100
AcDbEntity
  8
0
  6
Continuous
 62
     8
100
AcDbLine
 10
190.12064
 20
91.770258
 30
0.0
 11
191.120696
 21
91.770258
 31
0.0
  0
LINE
  5
2D1
100
AcDbEntity
  8
0
  6
Continuous
 62
     8
100
AcDbLine
 10
194.120865
 20
91.770258
 30
0.0
 11
204.495735
 21
91.770258
 31
0.0
  0
LINE
  5
2D2
100
AcDbEntity
  8
0
  6
Continuous
 62
     8
100
AcDbLine
 10
207.495904
 20
91.770258
 30
0.0
 11
208.49566
 21
91.770258
 31
0.0
  0
LINE
  5
2D3
100
AcDbEntity
  8
0
  6
Continuous
 62
     8
100
AcDbLine
 10
211.495829
 20
91.770258
 30
0.0
 11
221.870699
 21
91.770258
 31
0.0
  0
LINE
  5
2D4
100
AcDbEntity
  8
0
  6
Continuous
 62
     8
100
AcDbLine
 10
224.870868
 20
91.770258
 30
0.0
 11
225.870624
 21
91.770258
 31
0.0
  0
LINE
  5
2D5
100
AcDbEntity
  8
0
  6
Continuous
 62
     8
100
AcDbLine
 10
228.870792
 20
91.770258
 30
0.0
 11
239.245663
 21
91.770258
 31
0.0
  0
LINE
  5
2D6
100
AcDbEntity
  8
0
  6
Continuous
 62
     8
100
AcDbLine
 10
242.245831
 20
91.770258
 30
0.0
 11
243.245888
 21
91.770258
 31
0.0
  0
LINE
  5
2D7
100
AcDbEntity
  8
0
  6
Continuous
 62
     8
100
AcDbLine
 10
246.245756
 20
91.770258
 30
0.0
 11
256.620626
 21
91.770258
 31
0.0
  0
LINE
  5
2D8
100
AcDbEntity
  8
0
  6
Continuous
 62
     8
100
AcDbLine
 10
259.620795
 20
91.770258
 30
0.0
 11
260.620852
 21
91.770258
 31
0.0
  0
LINE
  5
2D9
100
AcDbEntity
  8
0
  6
Continuous
 62
     8
100
AcDbLine
 10
263.62072
 20
91.770258
 30
0.0
 11
273.99559
 21
91.770258
 31
0.0
  0
ENDBLK
  5
2DA
100
AcDbEntity
  8
0
100
AcDbBlockEnd
  0
BLOCK
  5
2DD
100
AcDbEntity
  8
0
100
AcDbBlockBegin
  2
*B31
 70
     0
 10
0.0
 20
0.0
 30
0.0
  3
*B31
  1

  0
LINE
  5
2DE
100
AcDbEntity
  8
0
  6
Continuous
 62
     8
100
AcDbLine
 10
267.995853
 20
206.083989
 30
0.0
 11
267.995853
 21
256.03303
 31
0.0
  0
ENDBLK
  5
2DF
100
AcDbEntity
  8
0
100
AcDbBlockEnd
  0
BLOCK
  5
2E2
100
AcDbEntity
  8
0
100
AcDbBlockBegin
  2
*B32
 70
     0
 10
0.0
 20
0.0
 30
0.0
  3
*B32
  1

  0
LINE
  5
2E3
100
AcDbEntity
  8
0
  6
Continuous
 62
     8
100
AcDbLine
 10
268.495731
 20
125.518026
 30
0.0
 11
298.025479
 21
125.518026
 31
0.0
  0
ENDBLK
  5
2E4
100
AcDbEntity
  8
0
100
AcDbBlockEnd
  0
BLOCK
  5
2E7
100
AcDbEntity
  8
0
100
AcDbBlockBegin
  2
*B33
 70
     0
 10
0.0
 20
0.0
 30
0.0
  3
*B33
  1

  0
LINE
  5
2E8
100
AcDbEntity
  8
0
  6
Continuous
 62
     8
100
AcDbLine
 10
280.025668
 20
176.836324
 30
0.0
 11
284.025593
 21
176.836324
 31
0.0
  0
LINE
  5
2E9
100
AcDbEntity
  8
0
  6
Continuous
 62
     8
100
AcDbLine
 10
168.745751
 20
176.836324
 30
0.0
 11
172.995915
 21
176.836324
 31
0.0
  0
LINE
  5
2EA
100
AcDbEntity
  8
0
  6
Continuous
 62
     8
100
AcDbLine
 10
182.995877
 20
176.836324
 30
0.0
 11
193.334098
 21
176.836324
 31
0.0
  0
LINE
  5
2EB
100
AcDbEntity
  8
0
  6
Continuous
 62
     8
100
AcDbLine
 10
196.333966
 20
176.836324
 30
0.0
 11
197.334023
 21
176.836324
 31
0.0
  0
LINE
  5
2EC
100
AcDbEntity
  8
0
  6
Continuous
 62
     8
100
AcDbLine
 10
200.334191
 20
176.836324
 30
0.0
 11
210.672412
 21
176.836324
 31
0.0
  0
LINE
  5
2ED
100
AcDbEntity
  8
0
  6
Continuous
 62
     8
100
AcDbLine
 10
213.67228
 20
176.836324
 30
0.0
 11
214.672337
 21
176.836324
 31
0.0
  0
LINE
  5
2EE
100
AcDbEntity
  8
0
  6
Continuous
 62
     8
100
AcDbLine
 10
217.672505
 20
176.836324
 30
0.0
 11
228.010726
 21
176.836324
 31
0.0
  0
LINE
  5
2EF
100
AcDbEntity
  8
0
  6
Continuous
 62
     8
100
AcDbLine
 10
231.010594
 20
176.836324
 30
0.0
 11
232.010651
 21
176.836324
 31
0.0
  0
LINE
  5
2F0
100
AcDbEntity
  8
0
  6
Continuous
 62
     8
100
AcDbLine
 10
235.010819
 20
176.836324
 30
0.0
 11
245.34904
 21
176.836324
 31
0.0
  0
LINE
  5
2F1
100
AcDbEntity
  8
0
  6
Continuous
 62
     8
100
AcDbLine
 10
248.348908
 20
176.836324
 30
0.0
 11
249.348965
 21
176.836324
 31
0.0
  0
LINE
  5
2F2
100
AcDbEntity
  8
0
  6
Continuous
 62
     8
100
AcDbLine
 10
252.349133
 20
176.836324
 30
0.0
 11
262.687354
 21
176.836324
 31
0.0
  0
LINE
  5
2F3
100
AcDbEntity
  8
0
  6
Continuous
 62
     8
100
AcDbLine
 10
265.687222
 20
176.836324
 30
0.0
 11
266.687279
 21
176.836324
 31
0.0
  0
LINE
  5
2F4
100
AcDbEntity
  8
0
  6
Continuous
 62
     8
100
AcDbLine
 10
269.687448
 20
176.836324
 30
0.0
 11
280.025668
 21
176.836324
 31
0.0
  0
ENDBLK
  5
2F5
100
AcDbEntity
  8
0
100
AcDbBlockEnd
  0
BLOCK
  5
2F8
100
AcDbEntity
  8
0
100
AcDbBlockBegin
  2
*B34
 70
     0
 10
0.0
 20
0.0
 30
0.0
  3
*B34
  1

  0
LINE
  5
2F9
100
AcDbEntity
  8
0
  6
Continuous
 62
     8
100
AcDbLine
 10
162.995653
 20
154.040208
 30
0.0
 11
162.995653
 21
158.039832
 31
0.0
  0
LINE
  5
2FA
100
AcDbEntity
  8
0
  6
Continuous
 62
     8
100
AcDbLine
 10
162.995653
 20
158.039832
 30
0.0
 11
162.995653
 21
176.836324
 31
0.0
  0
LINE
  5
2FB
100
AcDbEntity
  8
0
  6
Continuous
 62
     8
100
AcDbLine
 10
162.995653
 20
186.835384
 30
0.0
 11
162.995653
 21
195.334811
 31
0.0
  0
ENDBLK
  5
2FC
100
AcDbEntity
  8
0
100
AcDbBlockEnd
  0
BLOCK
  5
2FF
100
AcDbEntity
  8
0
100
AcDbBlockBegin
  2
*B35
 70
     0
 10
0.0
 20
0.0
 30
0.0
  3
*B35
  1

  0
LINE
  5
300
100
AcDbEntity
  8
0
  6
Continuous
 62
     8
100
AcDbLine
 10
252.99561
 20
67.522273
 30
0.0
 11
252.99561
 21
79.146237
 31
0.0
  0
LINE
  5
301
100
AcDbEntity
  8
0
  6
Continuous
 62
     8
100
AcDbLine
 10
252.99561
 20
82.146106
 30
0.0
 11
252.99561
 21
83.145862
 31
0.0
  0
LINE
  5
302
100
AcDbEntity
  8
0
  6
Continuous
 62
     8
100
AcDbLine
 10
252.99561
 20
86.14573
 30
0.0
 11
252.99561
 21
97.769995
 31
0.0
  0
ENDBLK
  5
303
100
AcDbEntity
  8
0
100
AcDbBlockEnd
  0
BLOCK
  5
306
100
AcDbEntity
  8
0
100
AcDbBlockBegin
  2
*B36
 70
     0
 10
0.0
 20
0.0
 30
0.0
  3
*B36
  1

  0
LINE
  5
307
100
AcDbEntity
  8
0
  6
Continuous
 62
     8
100
AcDbLine
 10
252.99561
 20
154.040208
 30
0.0
 11
252.99561
 21
158.039832
 31
0.0
  0
LINE
  5
308
100
AcDbEntity
  8
0
  6
Continuous
 62
     8
100
AcDbLine
 10
252.99561
 20
158.039832
 30
0.0
 11
252.99561
 21
173.937693
 31
0.0
  0
LINE
  5
309
100
AcDbEntity
  8
0
  6
Continuous
 62
     8
100
AcDbLine
 10
252.99561
 20
176.937261
 30
0.0
 11
252.99561
 21
177.937317
 31
0.0
  0
LINE
  5
30A
100
AcDbEntity
  8
0
  6
Continuous
 62
     8
100
AcDbLine
 10
252.99561
 20
180.937185
 30
0.0
 11
252.99561
 21
196.834745
 31
0.0
  0
LINE
  5
30B
100
AcDbEntity
  8
0
  6
Continuous
 62
     8
100
AcDbLine
 10
252.99561
 20
206.834106
 30
0.0
 11
252.99561
 21
215.333533
 31
0.0
  0
ENDBLK
  5
30C
100
AcDbEntity
  8
0
100
AcDbBlockEnd
  0
BLOCK
  5
30F
100
AcDbEntity
  8
0
100
AcDbBlockBegin
  2
*B37
 70
     0
 10
0.0
 20
0.0
 30
0.0
  3
*B37
  1

  0
LINE
  5
310
100
AcDbEntity
  8
0
  6
Continuous
 62
     8
100
AcDbLine
 10
268.495731
 20
70.521841
 30
0.0
 11
298.025479
 21
70.521841
 31
0.0
  0
ENDBLK
  5
311
100
AcDbEntity
  8
0
100
AcDbBlockEnd
  0
BLOCK
  5
314
100
AcDbEntity
  8
0
100
AcDbBlockBegin
  2
*B38
 70
     0
 10
0.0
 20
0.0
 30
0.0
  3
*B38
  1

  0
LINE
  5
315
100
AcDbEntity
  8
0
  6
Continuous
 62
     8
100
AcDbLine
 10
222.995725
 20
140.041223
 30
0.0
 11
222.995725
 21
144.040847
 31
0.0
  0
LINE
  5
316
100
AcDbEntity
  8
0
  6
Continuous
 62
     8
100
AcDbLine
 10
222.995725
 20
144.040847
 30
0.0
 11
222.995725
 21
156.972485
 31
0.0
  0
LINE
  5
317
100
AcDbEntity
  8
0
  6
Continuous
 62
     8
100
AcDbLine
 10
222.995725
 20
159.972353
 30
0.0
 11
222.995725
 21
160.972409
 31
0.0
  0
LINE
  5
318
100
AcDbEntity
  8
0
  6
Continuous
 62
     8
100
AcDbLine
 10
222.995725
 20
163.971977
 30
0.0
 11
222.995725
 21
176.903615
 31
0.0
  0
LINE
  5
319
100
AcDbEntity
  8
0
  6
Continuous
 62
     8
100
AcDbLine
 10
222.995725
 20
179.903483
 30
0.0
 11
222.995725
 21
180.903239
 31
0.0
  0
LINE
  5
31A
100
AcDbEntity
  8
0
  6
Continuous
 62
     8
100
AcDbLine
 10
222.995725
 20
183.903108
 30
0.0
 11
222.995725
 21
196.834745
 31
0.0
  0
LINE
  5
31B
100
AcDbEntity
  8
0
  6
Continuous
 62
     8
100
AcDbLine
 10
222.995725
 20
206.834106
 30
0.0
 11
222.995725
 21
215.333533
 31
0.0
  0
ENDBLK
  5
31C
100
AcDbEntity
  8
0
100
AcDbBlockEnd
  0
BLOCK
  5
31F
100
AcDbEntity
  8
0
100
AcDbBlockBegin
  2
*B39
 70
     0
 10
0.0
 20
0.0
 30
0.0
  3
*B39
  1

  0
LINE
  5
320
100
AcDbEntity
  8
0
  6
Continuous
 62
     8
100
AcDbLine
 10
150.495701
 20
140.041223
 30
0.0
 11
150.495701
 21
168.836775
 31
0.0
  0
LINE
  5
321
100
AcDbEntity
  8
0
  6
Continuous
 62
     8
100
AcDbLine
 10
150.495701
 20
214.833355
 30
0.0
 11
150.495701
 21
256.03303
 31
0.0
  0
ENDBLK
  5
322
100
AcDbEntity
  8
0
100
AcDbBlockEnd
  0
BLOCK
  5
325
100
AcDbEntity
  8
0
100
AcDbBlockBegin
  2
*B40
 70
     0
 10
0.0
 20
0.0
 30
0.0
  3
*B40
  1

  0
LINE
  5
326
100
AcDbEntity
  8
0
  6
Continuous
 62
     8
100
AcDbLine
 10
122.02579
 20
181.835704
 30
0.0
 11
126.025715
 21
181.835704
 31
0.0
  0
LINE
  5
327
100
AcDbEntity
  8
0
  6
Continuous
 62
     8
100
AcDbLine
 10
126.025715
 20
181.835704
 30
0.0
 11
138.510647
 21
181.835704
 31
0.0
  0
LINE
  5
328
100
AcDbEntity
  8
0
  6
Continuous
 62
     8
100
AcDbLine
 10
141.510816
 20
181.835704
 30
0.0
 11
142.510872
 21
181.835704
 31
0.0
  0
LINE
  5
329
100
AcDbEntity
  8
0
  6
Continuous
 62
     8
100
AcDbLine
 10
145.51074
 20
181.835704
 30
0.0
 11
157.995672
 21
181.835704
 31
0.0
  0
LINE
  5
32A
100
AcDbEntity
  8
0
  6
Continuous
 62
     8
100
AcDbLine
 10
167.995634
 20
181.835704
 30
0.0
 11
176.495662
 21
181.835704
 31
0.0
  0
ENDBLK
  5
32B
100
AcDbEntity
  8
0
100
AcDbBlockEnd
  0
BLOCK
  5
32E
100
AcDbEntity
  8
0
100
AcDbBlockBegin
  2
*B41
 70
     0
 10
0.0
 20
0.0
 30
0.0
  3
*B41
  1

  0
LINE
  5
32F
100
AcDbEntity
  8
0
  6
Continuous
 62
     8
100
AcDbLine
 10
192.995839
 20
224.035134
 30
0.0
 11
192.995839
 21
228.034759
 31
0.0
  0
LINE
  5
330
100
AcDbEntity
  8
0
  6
Continuous
 62
     8
100
AcDbLine
 10
192.995839
 20
188.335319
 30
0.0
 11
192.995839
 21
196.834745
 31
0.0
  0
LINE
  5
331
100
AcDbEntity
  8
0
  6
Continuous
 62
     8
100
AcDbLine
 10
192.995839
 20
206.834106
 30
0.0
 11
192.995839
 21
224.035134
 31
0.0
  0
ENDBLK
  5
332
100
AcDbEntity
  8
0
100
AcDbBlockEnd
  0
BLOCK
  5
335
100
AcDbEntity
  8
0
100
AcDbBlockBegin
  2
*B42
 70
     0
 10
0.0
 20
0.0
 30
0.0
  3
*B42
  1

  0
LINE
  5
336
100
AcDbEntity
  8
0
  6
Continuous
 62
     8
100
AcDbLine
 10
162.995653
 20
67.522273
 30
0.0
 11
162.995653
 21
79.146237
 31
0.0
  0
LINE
  5
337
100
AcDbEntity
  8
0
  6
Continuous
 62
     8
100
AcDbLine
 10
162.995653
 20
82.146106
 30
0.0
 11
162.995653
 21
83.145862
 31
0.0
  0
LINE
  5
338
100
AcDbEntity
  8
0
  6
Continuous
 62
     8
100
AcDbLine
 10
162.995653
 20
86.14573
 30
0.0
 11
162.995653
 21
97.769995
 31
0.0
  0
ENDBLK
  5
339
100
AcDbEntity
  8
0
100
AcDbBlockEnd
  0
BLOCK
  5
33C
100
AcDbEntity
  8
0
100
AcDbBlockBegin
  2
*B43
 70
     0
 10
0.0
 20
0.0
 30
0.0
  3
*B43
  1

  0
LINE
  5
33D
100
AcDbEntity
  8
0
  6
Continuous
 62
     8
100
AcDbLine
 10
222.995725
 20
67.522273
 30
0.0
 11
222.995725
 21
79.146237
 31
0.0
  0
LINE
  5
33E
100
AcDbEntity
  8
0
  6
Continuous
 62
     8
100
AcDbLine
 10
222.995725
 20
82.146106
 30
0.0
 11
222.995725
 21
83.145862
 31
0.0
  0
LINE
  5
33F
100
AcDbEntity
  8
0
  6
Continuous
 62
     8
100
AcDbLine
 10
222.995725
 20
86.14573
 30
0.0
 11
222.995725
 21
97.769995
 31
0.0
  0
ENDBLK
  5
340
100
AcDbEntity
  8
0
100
AcDbBlockEnd
  0
BLOCK
  5
343
100
AcDbEntity
  8
0
100
AcDbBlockBegin
  2
*B44
 70
     0
 10
0.0
 20
0.0
 30
0.0
  3
*B44
  1

  0
LINE
  5
344
100
AcDbEntity
  8
0
  6
Continuous
 62
     8
100
AcDbLine
 10
268.495731
 20
171.836643
 30
0.0
 11
299.025536
 21
171.836643
 31
0.0
  0
ENDBLK
  5
345
100
AcDbEntity
  8
0
100
AcDbBlockEnd
  0
BLOCK
  5
348
100
AcDbEntity
  8
0
100
AcDbBlockBegin
  2
*B45
 70
     0
 10
0.0
 20
0.0
 30
0.0
  3
*B45
  1

  0
LINE
  5
349
100
AcDbEntity
  8
0
  6
Continuous
 62
     8
100
AcDbLine
 10
265.495863
 20
214.833355
 30
0.0
 11
265.495863
 21
256.03303
 31
0.0
  0
ENDBLK
  5
34A
100
AcDbEntity
  8
0
100
AcDbBlockEnd
  0
BLOCK
  5
34D
100
AcDbEntity
  8
0
100
AcDbBlockBegin
  2
*B46
 70
     0
 10
0.0
 20
0.0
 30
0.0
  3
*B46
  1

  0
LINE
  5
34E
100
AcDbEntity
  8
0
  6
Continuous
 62
     8
100
AcDbLine
 10
122.02579
 20
191.835065
 30
0.0
 11
140.025601
 21
191.835065
 31
0.0
  0
LINE
  5
34F
100
AcDbEntity
  8
0
  6
Continuous
 62
     8
100
AcDbLine
 10
140.025601
 20
191.835065
 30
0.0
 11
150.646806
 21
191.835065
 31
0.0
  0
LINE
  5
350
100
AcDbEntity
  8
0
  6
Continuous
 62
     8
100
AcDbLine
 10
153.646975
 20
191.835065
 30
0.0
 11
154.647031
 21
191.835065
 31
0.0
  0
LINE
  5
351
100
AcDbEntity
  8
0
  6
Continuous
 62
     8
100
AcDbLine
 10
157.646899
 20
191.835065
 30
0.0
 11
168.268104
 21
191.835065
 31
0.0
  0
LINE
  5
352
100
AcDbEntity
  8
0
  6
Continuous
 62
     8
100
AcDbLine
 10
171.268272
 20
191.835065
 30
0.0
 11
172.268028
 21
191.835065
 31
0.0
  0
LINE
  5
353
100
AcDbEntity
  8
0
  6
Continuous
 62
     8
100
AcDbLine
 10
175.268197
 20
191.835065
 30
0.0
 11
185.889401
 21
191.835065
 31
0.0
  0
LINE
  5
354
100
AcDbEntity
  8
0
  6
Continuous
 62
     8
100
AcDbLine
 10
188.88957
 20
191.835065
 30
0.0
 11
189.889326
 21
191.835065
 31
0.0
  0
LINE
  5
355
100
AcDbEntity
  8
0
  6
Continuous
 62
     8
100
AcDbLine
 10
192.889495
 20
191.835065
 30
0.0
 11
203.510699
 21
191.835065
 31
0.0
  0
LINE
  5
356
100
AcDbEntity
  8
0
  6
Continuous
 62
     8
100
AcDbLine
 10
206.510568
 20
191.835065
 30
0.0
 11
207.510624
 21
191.835065
 31
0.0
  0
LINE
  5
357
100
AcDbEntity
  8
0
  6
Continuous
 62
     8
100
AcDbLine
 10
210.510793
 20
191.835065
 30
0.0
 11
221.131997
 21
191.835065
 31
0.0
  0
LINE
  5
358
100
AcDbEntity
  8
0
  6
Continuous
 62
     8
100
AcDbLine
 10
224.131866
 20
191.835065
 30
0.0
 11
225.131922
 21
191.835065
 31
0.0
  0
LINE
  5
359
100
AcDbEntity
  8
0
  6
Continuous
 62
     8
100
AcDbLine
 10
228.132091
 20
191.835065
 30
0.0
 11
238.753295
 21
191.835065
 31
0.0
  0
LINE
  5
35A
100
AcDbEntity
  8
0
  6
Continuous
 62
     8
100
AcDbLine
 10
241.753163
 20
191.835065
 30
0.0
 11
242.75322
 21
191.835065
 31
0.0
  0
LINE
  5
35B
100
AcDbEntity
  8
0
  6
Continuous
 62
     8
100
AcDbLine
 10
245.753088
 20
191.835065
 30
0.0
 11
256.374593
 21
191.835065
 31
0.0
  0
LINE
  5
35C
100
AcDbEntity
  8
0
  6
Continuous
 62
     8
100
AcDbLine
 10
259.374461
 20
191.835065
 30
0.0
 11
260.374517
 21
191.835065
 31
0.0
  0
LINE
  5
35D
100
AcDbEntity
  8
0
  6
Continuous
 62
     8
100
AcDbLine
 10
263.374386
 20
191.835065
 30
0.0
 11
273.99559
 21
191.835065
 31
0.0
  0
ENDBLK
  5
35E
100
AcDbEntity
  8
0
100
AcDbBlockEnd
  0
BLOCK
  5
361
100
AcDbEntity
  8
0
100
AcDbBlockBegin
  2
*B47
 70
     0
 10
0.0
 20
0.0
 30
0.0
  3
*B47
  1

  0
LINE
  5
362
100
AcDbEntity
  8
0
  6
Continuous
 62
     8
100
AcDbLine
 10
211.745768
 20
50.958109
 30
0.0
 11
211.745768
 21
70.521841
 31
0.0
  0
ENDBLK
  5
363
100
AcDbEntity
  8
0
100
AcDbBlockEnd
  0
BLOCK
  5
366
100
AcDbEntity
  8
0
100
AcDbBlockBegin
  2
*B48
 70
     0
 10
0.0
 20
0.0
 30
0.0
  3
*B48
  1

  0
LINE
  5
367
100
AcDbEntity
  8
0
  6
Continuous
 62
     8
100
AcDbLine
 10
194.495773
 20
181.835704
 30
0.0
 11
202.995801
 21
181.835704
 31
0.0
  0
LINE
  5
368
100
AcDbEntity
  8
0
  6
Continuous
 62
     8
100
AcDbLine
 10
212.995763
 20
181.835704
 30
0.0
 11
221.49579
 21
181.835704
 31
0.0
  0
ENDBLK
  5
369
100
AcDbEntity
  8
0
100
AcDbBlockEnd
  0
BLOCK
  5
36C
100
AcDbEntity
  8
0
100
AcDbBlockBegin
  2
*B49
 70
     0
 10
0.0
 20
0.0
 30
0.0
  3
*B49
  1

  0
LINE
  5
36D
100
AcDbEntity
  8
0
  6
Continuous
 62
     8
100
AcDbLine
 10
280.025668
 20
206.834106
 30
0.0
 11
284.025593
 21
206.834106
 31
0.0
  0
LINE
  5
36E
100
AcDbEntity
  8
0
  6
Continuous
 62
     8
100
AcDbLine
 10
228.745823
 20
206.834106
 30
0.0
 11
232.995687
 21
206.834106
 31
0.0
  0
LINE
  5
36F
100
AcDbEntity
  8
0
  6
Continuous
 62
     8
100
AcDbLine
 10
242.995648
 20
206.834106
 30
0.0
 11
258.010612
 21
206.834106
 31
0.0
  0
LINE
  5
370
100
AcDbEntity
  8
0
  6
Continuous
 62
     8
100
AcDbLine
 10
261.01078
 20
206.834106
 30
0.0
 11
262.010536
 21
206.834106
 31
0.0
  0
LINE
  5
371
100
AcDbEntity
  8
0
  6
Continuous
 62
     8
100
AcDbLine
 10
265.010705
 20
206.834106
 30
0.0
 11
280.025668
 21
206.834106
 31
0.0
  0
ENDBLK
  5
372
100
AcDbEntity
  8
0
100
AcDbBlockEnd
  0
BLOCK
  5
375
100
AcDbEntity
  8
0
100
AcDbBlockBegin
  2
*B50
 70
     0
 10
0.0
 20
0.0
 30
0.0
  3
*B50
  1

  0
LINE
  5
376
100
AcDbEntity
  8
0
  6
Continuous
 62
     8
100
AcDbLine
 10
192.995839
 20
67.522273
 30
0.0
 11
192.995839
 21
79.146237
 31
0.0
  0
LINE
  5
377
100
AcDbEntity
  8
0
  6
Continuous
 62
     8
100
AcDbLine
 10
192.995839
 20
82.146106
 30
0.0
 11
192.995839
 21
83.145862
 31
0.0
  0
LINE
  5
378
100
AcDbEntity
  8
0
  6
Continuous
 62
     8
100
AcDbLine
 10
192.995839
 20
86.14573
 30
0.0
 11
192.995839
 21
97.769995
 31
0.0
  0
ENDBLK
  5
379
100
AcDbEntity
  8
0
100
AcDbBlockEnd
  0
BLOCK
  5
37C
100
AcDbEntity
  8
0
100
AcDbBlockBegin
  2
*B51
 70
     0
 10
0.0
 20
0.0
 30
0.0
  3
*B51
  1

  0
LINE
  5
37D
100
AcDbEntity
  8
0
  6
Continuous
 62
     8
100
AcDbLine
 10
204.245796
 20
50.958109
 30
0.0
 11
204.245796
 21
70.521841
 31
0.0
  0
ENDBLK
  5
37E
100
AcDbEntity
  8
0
100
AcDbBlockEnd
  0
BLOCK
  5
381
100
AcDbEntity
  8
0
100
AcDbBlockBegin
  2
*B52
 70
     0
 10
0.0
 20
0.0
 30
0.0
  3
*B52
  1

  0
LINE
  5
382
100
AcDbEntity
  8
0
  6
Continuous
 62
     6
100
AcDbLine
 10
220.995612
 20
201.834426
 30
0.0
 11
224.995837
 21
201.834426
 31
0.0
  0
LINE
  5
383
100
AcDbEntity
  8
0
  6
Continuous
 62
     6
100
AcDbLine
 10
222.995725
 20
199.834614
 30
0.0
 11
222.995725
 21
203.834238
 31
0.0
  0
ENDBLK
  5
384
100
AcDbEntity
  8
0
100
AcDbBlockEnd
  0
BLOCK
  5
387
100
AcDbEntity
  8
0
100
AcDbBlockBegin
  2
*B53
 70
     0
 10
0.0
 20
0.0
 30
0.0
  3
*B53
  1

  0
LINE
  5
388
100
AcDbEntity
  8
0
  6
Continuous
 62
     6
100
AcDbLine
 10
190.995727
 20
201.834426
 30
0.0
 11
194.995651
 21
201.834426
 31
0.0
  0
LINE
  5
389
100
AcDbEntity
  8
0
  6
Continuous
 62
     6
100
AcDbLine
 10
192.995839
 20
199.834614
 30
0.0
 11
192.995839
 21
203.834238
 31
0.0
  0
ENDBLK
  5
38A
100
AcDbEntity
  8
0
100
AcDbBlockEnd
  0
BLOCK
  5
38D
100
AcDbEntity
  8
0
100
AcDbBlockBegin
  2
*B54
 70
     0
 10
0.0
 20
0.0
 30
0.0
  3
*B54
  1

  0
LINE
  5
38E
100
AcDbEntity
  8
0
  6
Continuous
 62
     6
100
AcDbLine
 10
177.995896
 20
174.836211
 30
0.0
 11
177.995896
 21
178.836136
 31
0.0
  0
LINE
  5
38F
100
AcDbEntity
  8
0
  6
Continuous
 62
     6
100
AcDbLine
 10
175.995784
 20
176.836324
 30
0.0
 11
179.995708
 21
176.836324
 31
0.0
  0
ENDBLK
  5
390
100
AcDbEntity
  8
0
100
AcDbBlockEnd
  0
BLOCK
  5
393
100
AcDbEntity
  8
0
100
AcDbBlockBegin
  2
*B55
 70
     0
 10
0.0
 20
0.0
 30
0.0
  3
*B55
  1

  0
LINE
  5
394
100
AcDbEntity
  8
0
  6
Continuous
 62
     6
100
AcDbLine
 10
237.995667
 20
204.834294
 30
0.0
 11
237.995667
 21
208.833919
 31
0.0
  0
LINE
  5
395
100
AcDbEntity
  8
0
  6
Continuous
 62
     6
100
AcDbLine
 10
235.995855
 20
206.834106
 30
0.0
 11
239.99578
 21
206.834106
 31
0.0
  0
ENDBLK
  5
396
100
AcDbEntity
  8
0
100
AcDbBlockEnd
  0
BLOCK
  5
399
100
AcDbEntity
  8
0
100
AcDbBlockBegin
  2
*B56
 70
     0
 10
0.0
 20
0.0
 30
0.0
  3
*B56
  1

  0
LINE
  5
39A
100
AcDbEntity
  8
0
  6
Continuous
 62
     6
100
AcDbLine
 10
162.995653
 20
179.835892
 30
0.0
 11
162.995653
 21
183.835816
 31
0.0
  0
LINE
  5
39B
100
AcDbEntity
  8
0
  6
Continuous
 62
     6
100
AcDbLine
 10
160.995841
 20
181.835704
 30
0.0
 11
164.995766
 21
181.835704
 31
0.0
  0
ENDBLK
  5
39C
100
AcDbEntity
  8
0
100
AcDbBlockEnd
  0
BLOCK
  5
39F
100
AcDbEntity
  8
0
100
AcDbBlockBegin
  2
*B57
 70
     0
 10
0.0
 20
0.0
 30
0.0
  3
*B57
  1

  0
LINE
  5
3A0
100
AcDbEntity
  8
0
  6
Continuous
 62
     6
100
AcDbLine
 10
250.995798
 20
201.834426
 30
0.0
 11
254.995723
 21
201.834426
 31
0.0
  0
LINE
  5
3A1
100
AcDbEntity
  8
0
  6
Continuous
 62
     6
100
AcDbLine
 10
252.99561
 20
199.834614
 30
0.0
 11
252.99561
 21
203.834238
 31
0.0
  0
ENDBLK
  5
3A2
100
AcDbEntity
  8
0
100
AcDbBlockEnd
  0
BLOCK
  5
3A5
100
AcDbEntity
  8
0
100
AcDbBlockBegin
  2
*B58
 70
     0
 10
0.0
 20
0.0
 30
0.0
  3
*B58
  1

  0
LINE
  5
3A6
100
AcDbEntity
  8
0
  6
Continuous
 62
     6
100
AcDbLine
 10
207.995782
 20
179.835892
 30
0.0
 11
207.995782
 21
183.835816
 31
0.0
  0
LINE
  5
3A7
100
AcDbEntity
  8
0
  6
Continuous
 62
     6
100
AcDbLine
 10
205.995669
 20
181.835704
 30
0.0
 11
209.995894
 21
181.835704
 31
0.0
  0
ENDBLK
  5
3A8
100
AcDbEntity
  8
0
100
AcDbBlockEnd
  0
BLOCK
  5
3AB
100
AcDbEntity
  8
0
100
AcDbBlockBegin
  2
*B59
 70
     0
 10
0.0
 20
0.0
 30
0.0
  3
*B59
  1

  0
LINE
  5
3AC
100
AcDbEntity
  8
0
  6
Continuous
 62
     0
100
AcDbLine
 10
271.376638
 20
226.410155
 30
0.0
 11
251.362295
 21
226.410155
 31
0.0
  0
LINE
  5
3AD
100
AcDbEntity
  8
0
  6
Continuous
 62
     0
100
AcDbLine
 10
251.362295
 20
226.410155
 30
0.0
 11
239.828453
 21
209.517946
 31
0.0
  0
SOLID
  5
3AE
100
AcDbEntity
  8
0
  6
Continuous
 62
     0
100
AcDbTrace
 10
242.743006
 20
216.003442
 30
0.0
 11
239.828453
 21
209.517946
 31
0.0
 12
244.807706
 22
214.59393
 32
0.0
 13
244.807706
 23
214.59393
 33
0.0
  0
ENDBLK
  5
3AF
100
AcDbEntity
  8
0
100
AcDbBlockEnd
  0
BLOCK
  5
3B2
100
AcDbEntity
  8
0
100
AcDbBlockBegin
  2
*B60
 70
     0
 10
0.0
 20
0.0
 30
0.0
  3
*B60
  1

  0
TEXT
  5
3B3
100
AcDbEntity
  8
TEXT
  6
Continuous
 62
     0
100
AcDbText
 10
248.060099
 20
184.5
 30
0.0
 40
7.0
  1
10
100
AcDbText
  0
ENDBLK
  5
3B4
100
AcDbEntity
  8
0
100
AcDbBlockEnd
  0
BLOCK
  5
3B7
100
AcDbEntity
  8
0
100
AcDbBlockBegin
  2
*B61
 70
     0
 10
0.0
 20
0.0
 30
0.0
  3
*B61
  1

  0
TEXT
  5
3B8
100
AcDbEntity
  8
TEXT
  6
Continuous
 62
     0
100
AcDbText
 10
220.53005
 20
184.5
 30
0.0
 40
7.0
  1
1
100
AcDbText
  0
ENDBLK
  5
3B9
100
AcDbEntity
  8
0
100
AcDbBlockEnd
  0
BLOCK
  5
3BC
100
AcDbEntity
  8
0
100
AcDbBlockBegin
  2
*B62
 70
     0
 10
0.0
 20
0.0
 30
0.0
  3
*B62
  1

  0
TEXT
  5
3BD
100
AcDbEntity
  8
TEXT
  6
Continuous
 62
     0
100
AcDbText
 10
205.53005
 20
193.5
 30
0.0
 40
7.0
  1
2
100
AcDbText
  0
ENDBLK
  5
3BE
100
AcDbEntity
  8
0
100
AcDbBlockEnd
  0
BLOCK
  5
3C1
100
AcDbEntity
  8
0
100
AcDbBlockBegin
  2
*B63
 70
     0
 10
0.0
 20
0.0
 30
0.0
  3
*B63
  1

  0
TEXT
  5
3C2
100
AcDbEntity
  8
TEXT
  6
Continuous
 62
     0
100
AcDbText
 10
190.53005
 20
183.5
 30
0.0
 40
7.0
  1
3
100
AcDbText
  0
ENDBLK
  5
3C3
100
AcDbEntity
  8
0
100
AcDbBlockEnd
  0
BLOCK
  5
3C6
100
AcDbEntity
  8
0
100
AcDbBlockBegin
  2
*B64
 70
     0
 10
0.0
 20
0.0
 30
0.0
  3
*B64
  1

  0
TEXT
  5
3C7
100
AcDbEntity
  8
TEXT
  6
Continuous
 62
     0
100
AcDbText
 10
158.060099
 20
192.5
 30
0.0
 40
7.0
  1
12
100
AcDbText
  0
ENDBLK
  5
3C8
100
AcDbEntity
  8
0
100
AcDbBlockEnd
  0
BLOCK
  5
3CB
100
AcDbEntity
  8
0
100
AcDbBlockBegin
  2
*B65
 70
     0
 10
0.0
 20
0.0
 30
0.0
  3
*B65
  1

  0
TEXT
  5
3CC
100
AcDbEntity
  8
TEXT
  6
Continuous
 62
     0
100
AcDbText
 10
254.336607
 20
229.75
 30
0.0
 40
4.5
  1
%%c2,6
100
AcDbText
  0
ENDBLK
  5
3CD
100
AcDbEntity
  8
0
100
AcDbBlockEnd
  0
BLOCK
  5
3D0
100
AcDbEntity
  8
0
100
AcDbBlockBegin
  2
*B66
 70
     0
 10
0.0
 20
0.0
 30
0.0
  3
*B66
  1

  0
TEXT
  5
3D1
100
AcDbEntity
  8
TEXT
  6
Continuous
 62
     0
100
AcDbText
 10
220.550893
 20
55.160396
 30
0.0
 40
4.5
  1
%%c3
100
AcDbText
  0
ENDBLK
  5
3D2
100
AcDbEntity
  8
0
100
AcDbBlockEnd
  0
BLOCK
  5
3D5
100
AcDbEntity
  8
0
100
AcDbBlockBegin
  2
*B67
 70
     0
 10
0.0
 20
0.0
 30
0.0
  3
*B67
  1

  0
TEXT
  5
3D6
100
AcDbEntity
  8
TEXT
  6
Continuous
 62
     0
100
AcDbText
 10
154.577275
 20
158.25
 30
0.0
 40
4.5
  1
5
100
AcDbText
  0
ENDBLK
  5
3D7
100
AcDbEntity
  8
0
100
AcDbBlockEnd
  0
BLOCK
  5
3DA
100
AcDbEntity
  8
0
100
AcDbBlockBegin
  2
*B68
 70
     0
 10
0.0
 20
0.0
 30
0.0
  3
*B68
  1

  0
TEXT
  5
3DB
100
AcDbEntity
  8
TEXT
  6
Continuous
 62
     0
100
AcDbText
 10
203.684418
 20
158.25
 30
0.0
 40
4.5
  1
36
100
AcDbText
  0
ENDBLK
  5
3DC
100
AcDbEntity
  8
0
100
AcDbBlockEnd
  0
BLOCK
  5
3DF
100
AcDbEntity
  8
0
100
AcDbBlockBegin
  2
*B69
 70
     0
 10
0.0
 20
0.0
 30
0.0
  3
*B69
  1

  0
TEXT
  5
3E0
100
AcDbEntity
  8
TEXT
  6
Continuous
 62
     0
100
AcDbText
 10
174.934418
 20
144.25
 30
0.0
 40
4.5
  1
23
100
AcDbText
  0
ENDBLK
  5
3E1
100
AcDbEntity
  8
0
100
AcDbBlockEnd
  0
BLOCK
  5
3E4
100
AcDbEntity
  8
0
100
AcDbBlockBegin
  2
*B70
 70
     0
 10
0.0
 20
0.0
 30
0.0
  3
*B70
  1

  0
TEXT
  5
3E5
100
AcDbEntity
  8
TEXT
  6
Continuous
 62
     0
100
AcDbText
 10
198.327275
 20
228.25
 30
0.0
 40
4.5
  1
6
100
AcDbText
  0
ENDBLK
  5
3E6
100
AcDbEntity
  8
0
100
AcDbBlockEnd
  0
BLOCK
  5
3E9
100
AcDbEntity
  8
0
100
AcDbBlockBegin
  2
*B71
 70
     0
 10
0.0
 20
0.0
 30
0.0
  3
*B71
  1

  0
TEXT
  5
3EA
100
AcDbEntity
  8
TEXT
  6
Continuous
 62
     0
100
AcDbText
 10
213.327275
 20
144.25
 30
0.0
 40
4.5
  1
6
100
AcDbText
  0
ENDBLK
  5
3EB
100
AcDbEntity
  8
0
100
AcDbBlockEnd
  0
BLOCK
  5
3EE
100
AcDbEntity
  8
0
100
AcDbBlockBegin
  2
*B72
 70
     0
 10
0.0
 20
0.0
 30
0.0
  3
*B72
  1

  0
TEXT
  5
3EF
100
AcDbEntity
  8
TEXT
  6
Continuous
 62
     0
100
AcDbText
 10
159.934418
 20
242.25
 30
0.0
 40
4.5
  1
11
100
AcDbText
  0
ENDBLK
  5
3F0
100
AcDbEntity
  8
0
100
AcDbBlockEnd
  0
BLOCK
  5
3F3
100
AcDbEntity
  8
0
100
AcDbBlockBegin
  2
*B73
 70
     0
 10
0.0
 20
0.0
 30
0.0
  3
*B73
  1

  0
TEXT
  5
3F4
100
AcDbEntity
  8
TEXT
  6
Continuous
 62
     0
100
AcDbText
 10
203.684418
 20
242.25
 30
0.0
 40
4.5
  1
24
100
AcDbText
  0
ENDBLK
  5
3F5
100
AcDbEntity
  8
0
100
AcDbBlockEnd
  0
BLOCK
  5
3F8
100
AcDbEntity
  8
0
100
AcDbBlockBegin
  2
*B74
 70
     0
 10
0.0
 20
0.0
 30
0.0
  3
*B74
  1

  0
TEXT
  5
3F9
100
AcDbEntity
  8
TEXT
  6
Continuous
 62
     0
100
AcDbText
 10
203.684418
 20
256.25
 30
0.0
 40
4.5
  1
46
100
AcDbText
  0
ENDBLK
  5
3FA
100
AcDbEntity
  8
0
100
AcDbBlockEnd
  0
BLOCK
  5
3FD
100
AcDbEntity
  8
0
100
AcDbBlockBegin
  2
*B75
 70
     0
 10
0.0
 20
0.0
 30
0.0
  3
*B75
  1

  0
TEXT
  5
3FE
100
AcDbEntity
  8
TEXT
  6
Continuous
 62
     0
100
AcDbText
 10
277.857143
 20
256.25
 30
0.0
 40
4.5
  1
1
100
AcDbText
  0
ENDBLK
  5
3FF
100
AcDbEntity
  8
0
100
AcDbBlockEnd
  0
BLOCK
  5
402
100
AcDbEntity
  8
0
100
AcDbBlockBegin
  2
*B76
 70
     0
 10
0.0
 20
0.0
 30
0.0
  3
*B76
  1

  0
TEXT
  5
403
100
AcDbEntity
  8
TEXT
  6
Continuous
 62
     0
100
AcDbText
 10
134.857143
 20
256.25
 30
0.0
 40
4.5
  1
1
100
AcDbText
  0
ENDBLK
  5
404
100
AcDbEntity
  8
0
100
AcDbBlockEnd
  0
BLOCK
  5
407
100
AcDbEntity
  8
0
100
AcDbBlockBegin
  2
*B77
 70
     0
 10
0.0
 20
0.0
 30
0.0
  3
*B77
  1

  0
TEXT
  5
408
100
AcDbEntity
  8
TEXT
  6
Continuous
 62
     0
100
AcDbText
 10
135.75
 20
194.654736
 30
0.0
 40
4.5
  1
4
 50
90.0
100
AcDbText
  0
ENDBLK
  5
409
100
AcDbEntity
  8
0
100
AcDbBlockEnd
  0
BLOCK
  5
40C
100
AcDbEntity
  8
0
100
AcDbBlockBegin
  2
*B78
 70
     0
 10
0.0
 20
0.0
 30
0.0
  3
*B78
  1

  0
TEXT
  5
40D
100
AcDbEntity
  8
TEXT
  6
Continuous
 62
     0
100
AcDbText
 10
121.75
 20
184.654736
 30
0.0
 40
4.5
  1
4
 50
90.0
100
AcDbText
  0
ENDBLK
  5
40E
100
AcDbEntity
  8
0
100
AcDbBlockEnd
  0
BLOCK
  5
411
100
AcDbEntity
  8
0
100
AcDbBlockBegin
  2
*B79
 70
     0
 10
0.0
 20
0.0
 30
0.0
  3
*B79
  1

  0
TEXT
  5
412
100
AcDbEntity
  8
TEXT
  6
Continuous
 62
     0
100
AcDbText
 10
279.75
 20
187.511879
 30
0.0
 40
4.5
  1
12
 50
90.0
100
AcDbText
  0
ENDBLK
  5
413
100
AcDbEntity
  8
0
100
AcDbBlockEnd
  0
BLOCK
  5
416
100
AcDbEntity
  8
0
100
AcDbBlockBegin
  2
*B80
 70
     0
 10
0.0
 20
0.0
 30
0.0
  3
*B80
  1

  0
TEXT
  5
417
100
AcDbEntity
  8
TEXT
  6
Continuous
 62
     0
100
AcDbText
 10
294.75
 20
187.511879
 30
0.0
 40
4.5
  1
16
 50
90.0
100
AcDbText
  0
ENDBLK
  5
418
100
AcDbEntity
  8
0
100
AcDbBlockEnd
  0
BLOCK
  5
41B
100
AcDbEntity
  8
0
100
AcDbBlockBegin
  2
*B81
 70
     0
 10
0.0
 20
0.0
 30
0.0
  3
*B81
  1

  0
TEXT
  5
41C
100
AcDbEntity
  8
TEXT
  6
Continuous
 62
     0
100
AcDbText
 10
293.75
 20
93.689927
 30
0.0
 40
4.5
  1
22
 50
90.0
100
AcDbText
  0
ENDBLK
  5
41D
100
AcDbEntity
  8
0
100
AcDbBlockEnd
  0
ENDSEC
  0
SECTION
  2
ENTITIES
  0
INSERT
  5
13F
100
AcDbEntity
  8
0
  6
HIDDEN
 62
   174
100
AcDbBlockReference
  2
*B1
 10
0.0
 20
0.0
 30
0.0
  0
INSERT
  5
1FA
100
AcDbEntity
  8
0
  6
Continuous
 62
   174
100
AcDbBlockReference
  2
*B2
 10
0.0
 20
0.0
 30
0.0
  0
INSERT
  5
201
100
AcDbEntity
  8
0
  6
Continuous
 62
     0
100
AcDbBlockReference
  2
*B3
 10
0.0
 20
0.0
 30
0.0
  0
INSERT
  5
208
100
AcDbEntity
  8
0
  6
Continuous
 62
     0
100
AcDbBlockReference
  2
*B4
 10
0.0
 20
0.0
 30
0.0
  0
INSERT
  5
20F
100
AcDbEntity
  8
0
  6
Continuous
 62
     0
100
AcDbBlockReference
  2
*B5
 10
0.0
 20
0.0
 30
0.0
  0
INSERT
  5
216
100
AcDbEntity
  8
0
  6
Continuous
 62
     0
100
AcDbBlockReference
  2
*B6
 10
0.0
 20
0.0
 30
0.0
  0
INSERT
  5
21D
100
AcDbEntity
  8
0
  6
Continuous
 62
     0
100
AcDbBlockReference
  2
*B7
 10
0.0
 20
0.0
 30
0.0
  0
INSERT
  5
224
100
AcDbEntity
  8
0
  6
Continuous
 62
     0
100
AcDbBlockReference
  2
*B8
 10
0.0
 20
0.0
 30
0.0
  0
INSERT
  5
22B
100
AcDbEntity
  8
0
  6
Continuous
 62
     0
100
AcDbBlockReference
  2
*B9
 10
0.0
 20
0.0
 30
0.0
  0
INSERT
  5
232
100
AcDbEntity
  8
0
  6
Continuous
 62
     0
100
AcDbBlockReference
  2
*B10
 10
0.0
 20
0.0
 30
0.0
  0
INSERT
  5
239
100
AcDbEntity
  8
0
  6
Continuous
 62
     0
100
AcDbBlockReference
  2
*B11
 10
0.0
 20
0.0
 30
0.0
  0
INSERT
  5
240
100
AcDbEntity
  8
0
  6
Continuous
 62
     0
100
AcDbBlockReference
  2
*B12
 10
0.0
 20
0.0
 30
0.0
  0
INSERT
  5
247
100
AcDbEntity
  8
0
  6
Continuous
 62
     0
100
AcDbBlockReference
  2
*B13
 10
0.0
 20
0.0
 30
0.0
  0
INSERT
  5
24E
100
AcDbEntity
  8
0
  6
Continuous
 62
     0
100
AcDbBlockReference
  2
*B14
 10
0.0
 20
0.0
 30
0.0
  0
INSERT
  5
255
100
AcDbEntity
  8
0
  6
Continuous
 62
     0
100
AcDbBlockReference
  2
*B15
 10
0.0
 20
0.0
 30
0.0
  0
INSERT
  5
25C
100
AcDbEntity
  8
0
  6
Continuous
 62
     0
100
AcDbBlockReference
  2
*B16
 10
0.0
 20
0.0
 30
0.0
  0
INSERT
  5
263
100
AcDbEntity
  8
0
  6
Continuous
 62
     0
100
AcDbBlockReference
  2
*B17
 10
0.0
 20
0.0
 30
0.0
  0
INSERT
  5
26A
100
AcDbEntity
  8
0
  6
Continuous
 62
     0
100
AcDbBlockReference
  2
*B18
 10
0.0
 20
0.0
 30
0.0
  0
INSERT
  5
275
100
AcDbEntity
  8
0
  6
Continuous
 62
     8
100
AcDbBlockReference
  2
*B19
 10
0.0
 20
0.0
 30
0.0
  0
INSERT
  5
27B
100
AcDbEntity
  8
0
  6
Continuous
 62
     8
100
AcDbBlockReference
  2
*B20
 10
0.0
 20
0.0
 30
0.0
  0
INSERT
  5
281
100
AcDbEntity
  8
0
  6
Continuous
 62
     8
100
AcDbBlockReference
  2
*B21
 10
0.0
 20
0.0
 30
0.0
  0
INSERT
  5
286
100
AcDbEntity
  8
0
  6
Continuous
 62
     8
100
AcDbBlockReference
  2
*B22
 10
0.0
 20
0.0
 30
0.0
  0
INSERT
  5
28B
100
AcDbEntity
  8
0
  6
Continuous
 62
     8
100
AcDbBlockReference
  2
*B23
 10
0.0
 20
0.0
 30
0.0
  0
INSERT
  5
296
100
AcDbEntity
  8
0
  6
Continuous
 62
     8
100
AcDbBlockReference
  2
*B24
 10
0.0
 20
0.0
 30
0.0
  0
INSERT
  5
2A1
100
AcDbEntity
  8
0
  6
Continuous
 62
     8
100
AcDbBlockReference
  2
*B25
 10
0.0
 20
0.0
 30
0.0
  0
INSERT
  5
2AD
100
AcDbEntity
  8
0
  6
Continuous
 62
     8
100
AcDbBlockReference
  2
*B26
 10
0.0
 20
0.0
 30
0.0
  0
INSERT
  5
2B4
100
AcDbEntity
  8
0
  6
Continuous
 62
     8
100
AcDbBlockReference
  2
*B27
 10
0.0
 20
0.0
 30
0.0
  0
INSERT
  5
2BF
100
AcDbEntity
  8
0
  6
Continuous
 62
     8
100
AcDbBlockReference
  2
*B28
 10
0.0
 20
0.0
 30
0.0
  0
INSERT
  5
2C8
100
AcDbEntity
  8
0
  6
Continuous
 62
     8
100
AcDbBlockReference
  2
*B29
 10
0.0
 20
0.0
 30
0.0
  0
INSERT
  5
2DB
100
AcDbEntity
  8
0
  6
Continuous
 62
     8
100
AcDbBlockReference
  2
*B30
 10
0.0
 20
0.0
 30
0.0
  0
INSERT
  5
2E0
100
AcDbEntity
  8
0
  6
Continuous
 62
     8
100
AcDbBlockReference
  2
*B31
 10
0.0
 20
0.0
 30
0.0
  0
INSERT
  5
2E5
100
AcDbEntity
  8
0
  6
Continuous
 62
     8
100
AcDbBlockReference
  2
*B32
 10
0.0
 20
0.0
 30
0.0
  0
INSERT
  5
2F6
100
AcDbEntity
  8
0
  6
Continuous
 62
     8
100
AcDbBlockReference
  2
*B33
 10
0.0
 20
0.0
 30
0.0
  0
INSERT
  5
2FD
100
AcDbEntity
  8
0
  6
Continuous
 62
     8
100
AcDbBlockReference
  2
*B34
 10
0.0
 20
0.0
 30
0.0
  0
INSERT
  5
304
100
AcDbEntity
  8
0
  6
Continuous
 62
     8
100
AcDbBlockReference
  2
*B35
 10
0.0
 20
0.0
 30
0.0
  0
INSERT
  5
30D
100
AcDbEntity
  8
0
  6
Continuous
 62
     8
100
AcDbBlockReference
  2
*B36
 10
0.0
 20
0.0
 30
0.0
  0
INSERT
  5
312
100
AcDbEntity
  8
0
  6
Continuous
 62
     8
100
AcDbBlockReference
  2
*B37
 10
0.0
 20
0.0
 30
0.0
  0
INSERT
  5
31D
100
AcDbEntity
  8
0
  6
Continuous
 62
     8
100
AcDbBlockReference
  2
*B38
 10
0.0
 20
0.0
 30
0.0
  0
INSERT
  5
323
100
AcDbEntity
  8
0
  6
Continuous
 62
     8
100
AcDbBlockReference
  2
*B39
 10
0.0
 20
0.0
 30
0.0
  0
INSERT
  5
32C
100
AcDbEntity
  8
0
  6
Continuous
 62
     8
100
AcDbBlockReference
  2
*B40
 10
0.0
 20
0.0
 30
0.0
  0
INSERT
  5
333
100
AcDbEntity
  8
0
  6
Continuous
 62
     8
100
AcDbBlockReference
  2
*B41
 10
0.0
 20
0.0
 30
0.0
  0
INSERT
  5
33A
100
AcDbEntity
  8
0
  6
Continuous
 62
     8
100
AcDbBlockReference
  2
*B42
 10
0.0
 20
0.0
 30
0.0
  0
INSERT
  5
341
100
AcDbEntity
  8
0
  6
Continuous
 62
     8
100
AcDbBlockReference
  2
*B43
 10
0.0
 20
0.0
 30
0.0
  0
INSERT
  5
346
100
AcDbEntity
  8
0
  6
Continuous
 62
     8
100
AcDbBlockReference
  2
*B44
 10
0.0
 20
0.0
 30
0.0
  0
INSERT
  5
34B
100
AcDbEntity
  8
0
  6
Continuous
 62
     8
100
AcDbBlockReference
  2
*B45
 10
0.0
 20
0.0
 30
0.0
  0
INSERT
  5
35F
100
AcDbEntity
  8
0
  6
Continuous
 62
     8
100
AcDbBlockReference
  2
*B46
 10
0.0
 20
0.0
 30
0.0
  0
INSERT
  5
364
100
AcDbEntity
  8
0
  6
Continuous
 62
     8
100
AcDbBlockReference
  2
*B47
 10
0.0
 20
0.0
 30
0.0
  0
INSERT
  5
36A
100
AcDbEntity
  8
0
  6
Continuous
 62
     8
100
AcDbBlockReference
  2
*B48
 10
0.0
 20
0.0
 30
0.0
  0
INSERT
  5
373
100
AcDbEntity
  8
0
  6
Continuous
 62
     8
100
AcDbBlockReference
  2
*B49
 10
0.0
 20
0.0
 30
0.0
  0
INSERT
  5
37A
100
AcDbEntity
  8
0
  6
Continuous
 62
     8
100
AcDbBlockReference
  2
*B50
 10
0.0
 20
0.0
 30
0.0
  0
INSERT
  5
37F
100
AcDbEntity
  8
0
  6
Continuous
 62
     8
100
AcDbBlockReference
  2
*B51
 10
0.0
 20
0.0
 30
0.0
  0
INSERT
  5
385
100
AcDbEntity
  8
0
  6
Continuous
 62
     6
100
AcDbBlockReference
  2
*B52
 10
0.0
 20
0.0
 30
0.0
  0
INSERT
  5
38B
100
AcDbEntity
  8
0
  6
Continuous
 62
     6
100
AcDbBlockReference
  2
*B53
 10
0.0
 20
0.0
 30
0.0
  0
INSERT
  5
391
100
AcDbEntity
  8
0
  6
Continuous
 62
     6
100
AcDbBlockReference
  2
*B54
 10
0.0
 20
0.0
 30
0.0
  0
INSERT
  5
397
100
AcDbEntity
  8
0
  6
Continuous
 62
     6
100
AcDbBlockReference
  2
*B55
 10
0.0
 20
0.0
 30
0.0
  0
INSERT
  5
39D
100
AcDbEntity
  8
0
  6
Continuous
 62
     6
100
AcDbBlockReference
  2
*B56
 10
0.0
 20
0.0
 30
0.0
  0
INSERT
  5
3A3
100
AcDbEntity
  8
0
  6
Continuous
 62
     6
100
AcDbBlockReference
  2
*B57
 10
0.0
 20
0.0
 30
0.0
  0
INSERT
  5
3A9
100
AcDbEntity
  8
0
  6
Continuous
 62
     6
100
AcDbBlockReference
  2
*B58
 10
0.0
 20
0.0
 30
0.0
  0
INSERT
  5
3B0
100
AcDbEntity
  8
0
  6
Continuous
 62
     0
100
AcDbBlockReference
  2
*B59
 10
0.0
 20
0.0
 30
0.0
  0
INSERT
  5
3B5
100
AcDbEntity
  8
TEXT
  6
Continuous
 62
     0
100
AcDbBlockReference
  2
*B60
 10
0.0
 20
0.0
 30
0.0
  0
INSERT
  5
3BA
100
AcDbEntity
  8
TEXT
  6
Continuous
 62
     0
100
AcDbBlockReference
  2
*B61
 10
0.0
 20
0.0
 30
0.0
  0
INSERT
  5
3BF
100
AcDbEntity
  8
TEXT
  6
Continuous
 62
     0
100
AcDbBlockReference
  2
*B62
 10
0.0
 20
0.0
 30
0.0
  0
INSERT
  5
3C4
100
AcDbEntity
  8
TEXT
  6
Continuous
 62
     0
100
AcDbBlockReference
  2
*B63
 10
0.0
 20
0.0
 30
0.0
  0
INSERT
  5
3C9
100
AcDbEntity
  8
TEXT
  6
Continuous
 62
     0
100
AcDbBlockReference
  2
*B64
 10
0.0
 20
0.0
 30
0.0
  0
INSERT
  5
3CE
100
AcDbEntity
  8
TEXT
  6
Continuous
 62
     0
100
AcDbBlockReference
  2
*B65
 10
0.0
 20
0.0
 30
0.0
  0
INSERT
  5
3D3
100
AcDbEntity
  8
TEXT
  6
Continuous
 62
     0
100
AcDbBlockReference
  2
*B66
 10
0.0
 20
0.0
 30
0.0
  0
INSERT
  5
3D8
100
AcDbEntity
  8
TEXT
  6
Continuous
 62
     0
100
AcDbBlockReference
  2
*B67
 10
0.0
 20
0.0
 30
0.0
  0
INSERT
  5
3DD
100
AcDbEntity
  8
TEXT
  6
Continuous
 62
     0
100
AcDbBlockReference
  2
*B68
 10
0.0
 20
0.0
 30
0.0
  0
INSERT
  5
3E2
100
AcDbEntity
  8
TEXT
  6
Continuous
 62
     0
100
AcDbBlockReference
  2
*B69
 10
0.0
 20
0.0
 30
0.0
  0
INSERT
  5
3E7
100
AcDbEntity
  8
TEXT
  6
Continuous
 62
     0
100
AcDbBlockReference
  2
*B70
 10
0.0
 20
0.0
 30
0.0
  0
INSERT
  5
3EC
100
AcDbEntity
  8
TEXT
  6
Continuous
 62
     0
100
AcDbBlockReference
  2
*B71
 10
0.0
 20
0.0
 30
0.0
  0
INSERT
  5
3F1
100
AcDbEntity
  8
TEXT
  6
Continuous
 62
     0
100
AcDbBlockReference
  2
*B72
 10
0.0
 20
0.0
 30
0.0
  0
INSERT
  5
3F6
100
AcDbEntity
  8
TEXT
  6
Continuous
 62
     0
100
AcDbBlockReference
  2
*B73
 10
0.0
 20
0.0
 30
0.0
  0
INSERT
  5
3FB
100
AcDbEntity
  8
TEXT
  6
Continuous
 62
     0
100
AcDbBlockReference
  2
*B74
 10
0.0
 20
0.0
 30
0.0
  0
INSERT
  5
400
100
AcDbEntity
  8
TEXT
  6
Continuous
 62
     0
100
AcDbBlockReference
  2
*B75
 10
0.0
 20
0.0
 30
0.0
  0
INSERT
  5
405
100
AcDbEntity
  8
TEXT
  6
Continuous
 62
     0
100
AcDbBlockReference
  2
*B76
 10
0.0
 20
0.0
 30
0.0
  0
INSERT
  5
40A
100
AcDbEntity
  8
TEXT
  6
Continuous
 62
     0
100
AcDbBlockReference
  2
*B77
 10
0.0
 20
0.0
 30
0.0
  0
INSERT
  5
40F
100
AcDbEntity
  8
TEXT
  6
Continuous
 62
     0
100
AcDbBlockReference
  2
*B78
 10
0.0
 20
0.0
 30
0.0
  0
INSERT
  5
414
100
AcDbEntity
  8
TEXT
  6
Continuous
 62
     0
100
AcDbBlockReference
  2
*B79
 10
0.0
 20
0.0
 30
0.0
  0
INSERT
  5
419
100
AcDbEntity
  8
TEXT
  6
Continuous
 62
     0
100
AcDbBlockReference
  2
*B80
 10
0.0
 20
0.0
 30
0.0
  0
INSERT
  5
41E
100
AcDbEntity
  8
TEXT
  6
Continuous
 62
     0
100
AcDbBlockReference
  2
*B81
 10
0.0
 20
0.0
 30
0.0
  0
ENDSEC
  0
SECTION
  2
OBJECTS
  0
DICTIONARY
  5
19
100
AcDbDictionary
280
     0
281
     1
  3
ACAD_GROUP
350
1A
  3
ACAD_MLINESTYLE
350
1B
  3
ACAD_LAYOUT
350
1E
  3
ACAD_PLOTSETTINGS
350
22
  3
ACAD_PLOTSTYLENAME
350
1F
  3
ACAD_WIPEOUT_VARS
350
23
  0
DICTIONARY
  5
1A
102
{ACAD_REACTORS
330
19
102
}
100
AcDbDictionary
280
     0
281
     1
  0
DICTIONARY
  5
1B
102
{ACAD_REACTORS
330
19
102
}
100
AcDbDictionary
280
     0
281
     1
  3
Standard
350
1C
  0
MLINESTYLE
  5
1C
102
{ACAD_REACTORS
330
1B
102
}
100
AcDbMlineStyle
  2
Standard
 70
     0
  3

 62
     0
 51
90.0
 52
90.0
 71
     2
 49
0.5
 62
   256
  6
BYLAYER
 49
-0.5
 62
   256
  6
BYLAYER
  0
ACDBDICTIONARYWDFLT
  5
1F
102
{ACAD_REACTORS
330
19
102
}
100
AcDbDictionary
281
     1
  3
Normal
350
1D
100
AcDbDictionaryWithDefault
340
1D
  0
ACDBPLACEHOLDER
  5
1D
102
{ACAD_REACTORS
330
1F
102
}
  0
LAYOUT
  5
20
102
{ACAD_REACTORS
330
1E
102
}
100
AcDbPlotSettings
  1

  2

  4

  6

 40
0.0
 41
0.0
 42
0.0
 43
0.0
 44
0.0
 45
0.0
 46
0.0
 47
0.0
 48
0.0
 49
0.0
140
0.0
141
0.0
142
1.0
143
1.0
 70
     0
 72
     0
 73
     0
 74
     0
  7

 75
     0
147
1.0
148
0.0
149
0.0
100
AcDbLayout
  1
Model
 70
     0
 71
     0
 10
0.0
 20
0.0
 11
0.0
 21
0.0
 12
0.0
 22
0.0
 32
0.0
 14
0.0
 24
0.0
 34
0.0
 15
0.0
 25
0.0
 35
0.0
146
0.0
 13
0.0
 23
0.0
 33
0.0
 16
0.0
 26
0.0
 36
0.0
 17
0.0
 27
0.0
 37
0.0
 76
     0
330
A
331
0
345
0
346
0
  0
LAYOUT
  5
21
102
{ACAD_REACTORS
330
1E
102
}
100
AcDbPlotSettings
  1

  2

  4

  6

 40
0.0
 41
0.0
 42
0.0
 43
0.0
 44
0.0
 45
0.0
 46
0.0
 47
0.0
 48
0.0
 49
0.0
140
0.0
141
0.0
142
1.0
143
1.0
 70
     0
 72
     0
 73
     0
 74
     0
  7

 75
     0
147
1.0
148
0.0
149
0.0
100
AcDbLayout
  1
Layout1
 70
     0
 71
     0
 10
0.0
 20
0.0
 11
0.0
 21
0.0
 12
0.0
 22
0.0
 32
0.0
 14
0.0
 24
0.0
 34
0.0
 15
0.0
 25
0.0
 35
0.0
146
0.0
 13
0.0
 23
0.0
 33
0.0
 16
0.0
 26
0.0
 36
0.0
 17
0.0
 27
0.0
 37
0.0
 76
     0
330
B
331
0
345
0
346
0
  0
DICTIONARY
  5
1E
102
{ACAD_REACTORS
330
19
102
}
100
AcDbDictionary
280
     0
281
     1
  3
Layout1
350
21
  3
Model
350
20
  0
DICTIONARY
  5
22
102
{ACAD_REACTORS
330
19
102
}
100
AcDbDictionary
280
     0
281
     1
  0
WIPEOUTVARIABLES
  5
23
100
AcDbWipeoutVariables
 70
     1
  0
ENDSEC
  0
EOF
