  0
SECTION
  2
HEADER
  9
$ACADVER
  1
AC1015
  9
$ACADMAINTVER
 70
     6
  9
$DWGCODEPAGE
  3
DOS850
  9
$INSBASE
 10
0.0
 20
0.0
 30
0.0
  9
$EXTMIN
 10
0.0
 20
0.0
 30
0.0
  9
$EXTMAX
 10
297.0
 20
210.0
 30
0.0
  9
$LIMMIN
 10
0.0
 20
0.0
  9
$LIMMAX
 10
297.0
 20
210.0
  9
$ORTHOMODE
 70
     0
  9
$REGENMODE
 70
     1
  9
$FILLMODE
 70
     1
  9
$QTEXTMODE
 70
     0
  9
$MIRRTEXT
 70
     1
  9
$LTSCALE
 40
25.4
  9
$ATTMODE
 70
     1
  9
$TEXTSIZE
 40
3.5
  9
$TRACEWID
 40
0.05
  9
$TEXTSTYLE
  7
Standard
  9
$CLAYER
  8
0
  9
$CELTYPE
  6
Continuous
  9
$CECOLOR
 62
   256
  9
$CELTSCALE
 40
1.0
  9
$DISPSILH
 70
     0
  9
$DIMSCALE
 40
1.0
  9
$DIMASZ
 40
5.0
  9
$DIMEXO
 40
3.0
  9
$DIMDLI
 40
0.38
  9
$DIMRND
 40
0.0
  9
$DIMDLE
 40
0.0
  9
$DIMEXE
 40
2.0
  9
$DIMTP
 40
0.0
  9
$DIMTM
 40
0.0
  9
$DIMTXT
 40
3.5
  9
$DIMCEN
 40
4.0
  9
$DIMTSZ
 40
0.0
  9
$DIMTOL
 70
     0
  9
$DIMLIM
 70
     0
  9
$DIMTIH
 70
     1
  9
$DIMTOH
 70
     1
  9
$DIMSE1
 70
     0
  9
$DIMSE2
 70
     0
  9
$DIMTAD
 70
     0
  9
$DIMZIN
 70
     0
  9
$DIMBLK
  1

  9
$DIMASO
 70
     1
  9
$DIMSHO
 70
     1
  9
$DIMPOST
  1

  9
$DIMAPOST
  1

  9
$DIMALT
 70
     0
  9
$DIMALTD
 70
     2
  9
$DIMALTF
 40
25.4
  9
$DIMLFAC
 40
1.0
  9
$DIMTOFL
 70
     0
  9
$DIMTVP
 40
0.0
  9
$DIMTIX
 70
     0
  9
$DIMSOXD
 70
     0
  9
$DIMSAH
 70
     0
  9
$DIMBLK1
  1

  9
$DIMBLK2
  1

  9
$DIMSTYLE
  2
Standard
  9
$DIMCLRD
 70
     0
  9
$DIMCLRE
 70
     0
  9
$DIMCLRT
 70
     0
  9
$DIMTFAC
 40
1.0
  9
$DIMGAP
 40
1.0
  9
$DIMJUST
 70
     0
  9
$DIMSD1
 70
     0
  9
$DIMSD2
 70
     0
  9
$DIMTOLJ
 70
     1
  9
$DIMTZIN
 70
     0
  9
$DIMALTZ
 70
     0
  9
$DIMALTTZ
 70
     0
  9
$DIMUPT
 70
     0
  9
$DIMDEC
 70
     4
  9
$DIMTDEC
 70
     4
  9
$DIMALTU
 70
     2
  9
$DIMALTTD
 70
     2
  9
$DIMTXSTY
  7
Standard
  9
$DIMAUNIT
 70
     0
  9
$DIMADEC
 70
     0
  9
$DIMALTRND
 40
0.0
  9
$DIMAZIN
 70
     0
  9
$DIMDSEP
 70
     0
  9
$DIMATFIT
 70
     3
  9
$DIMFRAC
 70
     0
  9
$DIMLDRBLK
  1

  9
$DIMLUNIT
 70
     2
  9
$DIMLWD
 70
     0
  9
$DIMLWE
 70
     0
  9
$DIMTMOVE
 70
     0
  9
$LUNITS
 70
     2
  9
$LUPREC
 70
     4
  9
$SKETCHINC
 40
0.1
  9
$FILLETRAD
 40
0.0
  9
$AUNITS
 70
     0
  9
$AUPREC
 70
     0
  9
$MENU
  1
acad
  9
$ELEVATION
 40
0.0
  9
$PELEVATION
 40
0.0
  9
$THICKNESS
 40
0.0
  9
$LIMCHECK
 70
     0
  9
$CHAMFERA
 40
0.0
  9
$CHAMFERB
 40
0.0
  9
$CHAMFERC
 40
0.0
  9
$CHAMFERD
 40
0.0
  9
$SKPOLY
 70
     0
  9
$TDCREATE
 40
0.000000000
  9
$TDUCREATE
 40
0.000000000
  9
$TDUPDATE
 40
0.000000000
  9
$TDUUPDATE
 40
0.000000000
  9
$TDINDWG
 40
0.0000000000
  9
$TDUSRTIMER
 40
0.0000000000
  9
$USRTIMER
 70
     1
  9
$ANGBASE
 50
0.0
  9
$ANGDIR
 70
     0
  9
$PDMODE
 70
     0
  9
$PDSIZE
 40
0.0
  9
$PLINEWID
 40
0.0
  9
$SPLFRAME
 70
     0
  9
$SPLINETYPE
 70
     6
  9
$SPLINESEGS
 70
     8
  9
$HANDSEED
  5
29C
  9
$SURFTAB1
 70
     6
  9
$SURFTAB2
 70
     6
  9
$SURFTYPE
 70
     6
  9
$SURFU
 70
     6
  9
$SURFV
 70
     6
  9
$UCSBASE
  2

  9
$UCSNAME
  2

  9
$UCSORG
 10
0.0
 20
0.0
 30
0.0
  9
$UCSXDIR
 10
1.0
 20
0.0
 30
0.0
  9
$UCSYDIR
 10
0.0
 20
1.0
 30
0.0
  9
$UCSORTHOREF
  2

  9
$UCSORTHOVIEW
 70
     0
  9
$UCSORGTOP
 10
0.0
 20
0.0
 30
0.0
  9
$UCSORGBOTTOM
 10
0.0
 20
0.0
 30
0.0
  9
$UCSORGLEFT
 10
0.0
 20
0.0
 30
0.0
  9
$UCSORGRIGHT
 10
0.0
 20
0.0
 30
0.0
  9
$UCSORGFRONT
 10
0.0
 20
0.0
 30
0.0
  9
$UCSORGBACK
 10
0.0
 20
0.0
 30
0.0
  9
$PUCSBASE
  2

  9
$PUCSNAME
  2

  9
$PUCSORG
 10
0.0
 20
0.0
 30
0.0
  9
$PUCSXDIR
 10
1.0
 20
0.0
 30
0.0
  9
$PUCSYDIR
 10
0.0
 20
1.0
 30
0.0
  9
$PUCSORTHOREF
  2

  9
$PUCSORTHOVIEW
 70
     0
  9
$PUCSORGTOP
 10
0.0
 20
0.0
 30
0.0
  9
$PUCSORGBOTTOM
 10
0.0
 20
0.0
 30
0.0
  9
$PUCSORGLEFT
 10
0.0
 20
0.0
 30
0.0
  9
$PUCSORGRIGHT
 10
0.0
 20
0.0
 30
0.0
  9
$PUCSORGFRONT
 10
0.0
 20
0.0
 30
0.0
  9
$PUCSORGBACK
 10
0.0
 20
0.0
 30
0.0
  9
$USERI1
 70
     0
  9
$USERI2
 70
     0
  9
$USERI3
 70
     0
  9
$USERI4
 70
     0
  9
$USERI5
 70
     0
  9
$USERR1
 40
0.0
  9
$USERR2
 40
0.0
  9
$USERR3
 40
0.0
  9
$USERR4
 40
0.0
  9
$USERR5
 40
0.0
  9
$WORLDVIEW
 70
     1
  9
$SHADEDGE
 70
     3
  9
$SHADEDIF
 70
    70
  9
$TILEMODE
 70
     1
  9
$MAXACTVP
 70
    16
  9
$PINSBASE
 10
0.0
 20
0.0
 30
0.0
  9
$PLIMCHECK
 70
     0
  9
$PEXTMIN
 10
1.000000E+20
 20
1.000000E+20
 30
1.000000E+20
  9
$PEXTMAX
 10
-1.000000E+20
 20
-1.000000E+20
 30
-1.000000E+20
  9
$PLIMMIN
 10
0.0
 20
0.0
  9
$PLIMMAX
 10
297.0
 20
210.0
  9
$UNITMODE
 70
     0
  9
$VISRETAIN
 70
     0
  9
$PLINEGEN
 70
     1
  9
$PSLTSCALE
 70
     0
  9
$TREEDEPTH
 70
  3020
  9
$CMLSTYLE
  2
Standard
  9
$CMLJUST
 70
     0
  9
$CMLSCALE
 40
1.0
  9
$PROXYGRAPHICS
 70
     0
  9
$MEASUREMENT
 70
     0
  9
$CELWEIGHT
370
     0
  9
$ENDCAPS
280
     0
  9
$JOINSTYLE
280
     0
  9
$LWDISPLAY
290
     0
  9
$INSUNITS
 70
     0
  9
$HYPERLINKBASE
  1

  9
$XEDIT
290
     1
  9
$CEPSNTYPE
380
     0
  9
$PSTYLEMODE
290
     0
  9
$FINGERPRINTGUID
  2

  9
$VERSIONGUID
  2

  9
$EXTNAMES
290
     1
  9
$PSVPSCALE
 40
0.0
  0
ENDSEC
  0
SECTION
  2
CLASSES
  0
CLASS
  1
LWPOLYLINE
  2
AcDbPolyline
  3
"AutoCAD"
 90
        0
280
     0
281
     1
  0
CLASS
  1
IMAGE
  2
AcDbRasterImage
  3
ISM
 90
      127
280
     0
281
     1
  0
CLASS
  1
OLE2FRAME
  2
AcDbOle2Frame
  3
""
 90
        0
280
     0
281
     1
  0
CLASS
  1
HATCH
  2
AcDbHatch
  3
"ACAD_SEDONA"
 90
        0
280
     0
281
     1
  0
CLASS
  1
DICTIONARYVAR
  2
AcDbDictionaryVar
  3
"AutoCAD"
 90
        0
280
     0
281
     0
  0
CLASS
  1
RASTERVARIABLES
  2
AcDbRasterVariables
  3
ISM
 90
        0
280
     0
281
     0
  0
CLASS
  1
IMAGEDEF
  2
AcDbRasterImageDef
  3
ISM
 90
        0
280
     0
281
     0
  0
CLASS
  1
IMAGEDEF_REACTOR
  2
AcDbRasterImageDefReactor
  3
ISM
 90
        1
280
     0
281
     0
  0
CLASS
  1
IDBUFFER
  2
AcDbIdBuffer
  3
"Acad"
 90
        0
280
     0
281
     0
  0
CLASS
  1
SPATIAL_FILTER
  2
AcDbSpatialFilter
  3
"Acad"
 90
        0
280
     0
281
     0
  0
CLASS
  1
XRECORD
  2
AcDbXrecord
  3
"<Built In>"
 90
        0
280
     0
281
     0
  0
CLASS
  1
SORTENTSTABLE
  2
AcDbSortentsTable
  3
"AutoCAD"
 90
        0
280
     0
281
     0
  0
CLASS
  1
LAYER_INDEX
  2
AcDbLayerIndex
  3
"Acad"
 90
        0
280
     0
281
     0
  0
CLASS
  1
SPATIAL_INDEX
  2
AcDbSpatialIndex
  3
"Acad"
 90
        0
280
     0
281
     0
  0
CLASS
  1
OBJECT_PTR
  2
CAseDLPNTableRecord
  3
"ASE-LPNTableRecord"
 90
        1
280
     0
281
     0
  0
CLASS
  1
LAYOUT
  2
AcDbLayout
  3
"AutoCAD 2000"
 90
        1
280
     0
281
     0
  0
CLASS
  1
PLOTSETTINGS
  2
AcDbPlotSettings
  3
"AutoCAD 2000"
 90
        1
280
     0
281
     0
  0
CLASS
  1
ACDBDICTIONARYWDFLT
  2
AcDbDictionaryWithDefault
  3
"AutoCAD 2000"
 90
        1
280
     0
281
     0
  0
CLASS
  1
ACDBPLACEHOLDER
  2
AcDbPlaceHolder
  3
"AutoCAD 2000"
 90
        1
280
     0
281
     0
  0
CLASS
  1
VBA_PROJECT
  2
AcDbVbaProject
  3
"acadvba"
 90
        1
280
     0
281
     0
  0
CLASS
  1
WIPEOUT
  2
AcDbWipeout
  3
WipeOut|AutoCAD Express Tool|expresstools@autodesk.com
 90
      127
280
     0
281
     1
  0
CLASS
  1
WIPEOUTVARIABLES
  2
AcDbWipeoutVariables
  3
WipeOut|AutoCAD Express Tool|expresstools@autodesk.com
 90
        0
280
     0
281
     0
  0
CLASS
  1
RTEXT
  2
RText
  3
RText|AutoCAD Express Tool|expresstools@autodesk.com
 90
        0
280
     0
281
     1
  0
CLASS
  1
ARCALIGNEDTEXT
  2
AcDbArcAlignedText
  3
ATEXT|AutoCAD Express Tool|expresstools@autodesk.com
 90
        0
280
     0
281
     1
  0
ENDSEC
  0
SECTION
  2
TABLES
  0
TABLE
  2
VPORT
  5
7
100
AcDbSymbolTable
 70
     1
  0
VPORT
  5
15
100
AcDbSymbolTableRecord
100
AcDbViewportTableRecord
  2
*ACTIVE
 70
     0
 10
0.0
 20
0.0
 11
1.0
 21
1.0
 12
6.591288
 22
4.579184
 13
0.0
 23
0.0
 14
1.0
 24
1.0
 15
0.0
 25
0.0
 16
0.0
 26
0.0
 36
1.0
 17
0.0
 27
0.0
 37
0.0
 40
9.158369
 41
0.688564
 42
50.0
 43
0.0
 44
0.0
 50
0.0
 51
0.0
 71
     0
 72
   100
 73
     1
 74
     1
 75
     0
 76
     0
 77
     0
 78
     0
281
     0
 65
     0
110
0.0
120
0.0
130
0.0
111
1.0
121
0.0
131
0.0
112
0.0
122
1.0
132
0.0
345
0
346
0
 79
     0
146
0.0
  0
ENDTAB
  0
TABLE
  2
LTYPE
  5
4
100
AcDbSymbolTable
 70
     7
  0
LTYPE
  5
11
100
AcDbSymbolTableRecord
100
AcDbLinetypeTableRecord
  2
ByBlock
 70
    64
  3

 72
    65
 73
     0
 40
0.0
  0
LTYPE
  5
12
100
AcDbSymbolTableRecord
100
AcDbLinetypeTableRecord
  2
ByLayer
 70
    64
  3

 72
    65
 73
     0
 40
0.0
  0
LTYPE
  5
13
100
AcDbSymbolTableRecord
100
AcDbLinetypeTableRecord
  2
Continuous
 70
    64
  3
Solid line
 72
    65
 73
     0
 40
0.0
  0
LTYPE
  5
24
100
AcDbSymbolTableRecord
100
AcDbLinetypeTableRecord
  2
HIDDEN
 70
    64
  3
_ _ _ _ _ _ _ _ _ _ _ _ _ _ _ _ _ _ _ _ _ _ _ _
 72
    65
 73
     2
 40
0.1875
 49
0.125
 74
     0
 49
-0.0625
 74
     0
  0
LTYPE
  5
25
100
AcDbSymbolTableRecord
100
AcDbLinetypeTableRecord
  2
DOTTED
 70
    64
  3
...............................................
 72
    65
 73
     2
 40
0.125
 49
0.0
 74
     0
 49
-0.125
 74
     0
  0
LTYPE
  5
26
100
AcDbSymbolTableRecord
100
AcDbLinetypeTableRecord
  2
CENTER
 70
    64
  3
____ _ ____ _ ____ _ ____ _ ____ _ ____ _ ____ 
 72
    65
 73
     4
 40
1.125
 49
0.75
 74
     0
 49
-0.125
 74
     0
 49
0.125
 74
     0
 49
-0.125
 74
     0
  0
LTYPE
  5
27
100
AcDbSymbolTableRecord
100
AcDbLinetypeTableRecord
  2
PHANTOM
 70
    64
  3
______  __  __  ______  __  __  ______  __  __ 
 72
    65
 73
     6
 40
1.25
 49
0.625
 74
     0
 49
-0.125
 74
     0
 49
0.125
 74
     0
 49
-0.125
 74
     0
 49
0.125
 74
     0
 49
-0.125
 74
     0
  0
ENDTAB
  0
TABLE
  2
LAYER
  5
2
100
AcDbSymbolTable
 70
     2
  0
LAYER
  5
14
100
AcDbSymbolTableRecord
100
AcDbLayerTableRecord
  2
0
 70
     0
 62
     7
  6
Continuous
290
     1
370
    -3
390
1D
  0
LAYER
  5
28
100
AcDbSymbolTableRecord
100
AcDbLayerTableRecord
  2
TEXT
 70
     0
 62
     8
  6
Continuous
290
     1
370
    -3
390
1F
  0
ENDTAB
  0
TABLE
  2
STYLE
  5
3
100
AcDbSymbolTable
 70
     1
  0
STYLE
  5
17
100
AcDbSymbolTableRecord
100
AcDbTextStyleTableRecord
  2
Standard
 70
     0
 40
0.0
 41
1.0
 50
0.0
 71
     0
 42
0.0
  3
txt
  4

  0
ENDTAB
  0
TABLE
  2
VIEW
  5
5
100
AcDbSymbolTable
 70
     0
  0
ENDTAB
  0
TABLE
  2
UCS
  5
6
100
AcDbSymbolTable
 70
     0
  0
ENDTAB
  0
TABLE
  2
APPID
  5
8
100
AcDbSymbolTable
 70
     1
  0
APPID
  5
16
100
AcDbSymbolTableRecord
100
AcDbRegAppTableRecord
  2
ACAD
 70
     0
  0
ENDTAB
  0
TABLE
  2
DIMSTYLE
  5
9
100
AcDbSymbolTable
 70
     1
100
AcDbDimStyleTable
 71
     0
  0
DIMSTYLE
105
18
100
AcDbSymbolTableRecord
100
AcDbDimStyleTableRecord
  2
Standard
 70
     0
  3

  4

 40
1.0
 41
0.18
 42
0.0625
 43
0.38
 44
0.18
 45
0.0
 46
0.0
 47
0.0
 48
0.0
 71
     0
 72
     0
 73
     1
 74
     1
 75
     0
 76
     0
 77
     0
 78
     0
 79
     0
140
0.18
141
0.09
142
0.0
143
25.4
144
1.0
145
0.0
146
1.0
147
0.09
148
0.0
170
     0
171
     2
172
     0
173
     0
174
     0
175
     0
176
     0
177
     0
178
     0
179
     0
271
     4
272
     4
273
     2
274
     2
275
     0
276
     0
277
     2
278
    46
279
     0
280
     0
281
     0
282
     0
283
     1
284
     0
285
     0
286
     0
288
     0
340
17
341
0
342
0
343
0
344
0
371
    -2
372
    -2
  0
ENDTAB
  0
TABLE
  2
BLOCK_RECORD
  5
1
100
AcDbSymbolTable
 70
    78
  0
BLOCK_RECORD
  5
A
100
AcDbSymbolTableRecord
100
AcDbBlockTableRecord
  2
*MODEL_SPACE
340
20
  0
BLOCK_RECORD
  5
B
100
AcDbSymbolTableRecord
100
AcDbBlockTableRecord
  2
*PAPER_SPACE
340
21
  0
BLOCK_RECORD
  5
29
100
AcDbSymbolTableRecord
100
AcDbBlockTableRecord
  2
*B0
340
0
  0
BLOCK_RECORD
  5
2C
100
AcDbSymbolTableRecord
100
AcDbBlockTableRecord
  2
*B1
340
0
  0
BLOCK_RECORD
  5
70
100
AcDbSymbolTableRecord
100
AcDbBlockTableRecord
  2
*B2
340
0
  0
BLOCK_RECORD
  5
86
100
AcDbSymbolTableRecord
100
AcDbBlockTableRecord
  2
*B3
340
0
  0
BLOCK_RECORD
  5
8D
100
AcDbSymbolTableRecord
100
AcDbBlockTableRecord
  2
*B4
340
0
  0
BLOCK_RECORD
  5
94
100
AcDbSymbolTableRecord
100
AcDbBlockTableRecord
  2
*B5
340
0
  0
BLOCK_RECORD
  5
9B
100
AcDbSymbolTableRecord
100
AcDbBlockTableRecord
  2
*B6
340
0
  0
BLOCK_RECORD
  5
A2
100
AcDbSymbolTableRecord
100
AcDbBlockTableRecord
  2
*B7
340
0
  0
BLOCK_RECORD
  5
A9
100
AcDbSymbolTableRecord
100
AcDbBlockTableRecord
  2
*B8
340
0
  0
BLOCK_RECORD
  5
B0
100
AcDbSymbolTableRecord
100
AcDbBlockTableRecord
  2
*B9
340
0
  0
BLOCK_RECORD
  5
B7
100
AcDbSymbolTableRecord
100
AcDbBlockTableRecord
  2
*B10
340
0
  0
BLOCK_RECORD
  5
BE
100
AcDbSymbolTableRecord
100
AcDbBlockTableRecord
  2
*B11
340
0
  0
BLOCK_RECORD
  5
C5
100
AcDbSymbolTableRecord
100
AcDbBlockTableRecord
  2
*B12
340
0
  0
BLOCK_RECORD
  5
CC
100
AcDbSymbolTableRecord
100
AcDbBlockTableRecord
  2
*B13
340
0
  0
BLOCK_RECORD
  5
D3
100
AcDbSymbolTableRecord
100
AcDbBlockTableRecord
  2
*B14
340
0
  0
BLOCK_RECORD
  5
DA
100
AcDbSymbolTableRecord
100
AcDbBlockTableRecord
  2
*B15
340
0
  0
BLOCK_RECORD
  5
E1
100
AcDbSymbolTableRecord
100
AcDbBlockTableRecord
  2
*B16
340
0
  0
BLOCK_RECORD
  5
E8
100
AcDbSymbolTableRecord
100
AcDbBlockTableRecord
  2
*B17
340
0
  0
BLOCK_RECORD
  5
EF
100
AcDbSymbolTableRecord
100
AcDbBlockTableRecord
  2
*B18
340
0
  0
BLOCK_RECORD
  5
F4
100
AcDbSymbolTableRecord
100
AcDbBlockTableRecord
  2
*B19
340
0
  0
BLOCK_RECORD
  5
FA
100
AcDbSymbolTableRecord
100
AcDbBlockTableRecord
  2
*B20
340
0
  0
BLOCK_RECORD
  5
10B
100
AcDbSymbolTableRecord
100
AcDbBlockTableRecord
  2
*B21
340
0
  0
BLOCK_RECORD
  5
110
100
AcDbSymbolTableRecord
100
AcDbBlockTableRecord
  2
*B22
340
0
  0
BLOCK_RECORD
  5
115
100
AcDbSymbolTableRecord
100
AcDbBlockTableRecord
  2
*B23
340
0
  0
BLOCK_RECORD
  5
12F
100
AcDbSymbolTableRecord
100
AcDbBlockTableRecord
  2
*B24
340
0
  0
BLOCK_RECORD
  5
134
100
AcDbSymbolTableRecord
100
AcDbBlockTableRecord
  2
*B25
340
0
  0
BLOCK_RECORD
  5
13E
100
AcDbSymbolTableRecord
100
AcDbBlockTableRecord
  2
*B26
340
0
  0
BLOCK_RECORD
  5
149
100
AcDbSymbolTableRecord
100
AcDbBlockTableRecord
  2
*B27
340
0
  0
BLOCK_RECORD
  5
14E
100
AcDbSymbolTableRecord
100
AcDbBlockTableRecord
  2
*B28
340
0
  0
BLOCK_RECORD
  5
154
100
AcDbSymbolTableRecord
100
AcDbBlockTableRecord
  2
*B29
340
0
  0
BLOCK_RECORD
  5
163
100
AcDbSymbolTableRecord
100
AcDbBlockTableRecord
  2
*B30
340
0
  0
BLOCK_RECORD
  5
16D
100
AcDbSymbolTableRecord
100
AcDbBlockTableRecord
  2
*B31
340
0
  0
BLOCK_RECORD
  5
178
100
AcDbSymbolTableRecord
100
AcDbBlockTableRecord
  2
*B32
340
0
  0
BLOCK_RECORD
  5
17D
100
AcDbSymbolTableRecord
100
AcDbBlockTableRecord
  2
*B33
340
0
  0
BLOCK_RECORD
  5
188
100
AcDbSymbolTableRecord
100
AcDbBlockTableRecord
  2
*B34
340
0
  0
BLOCK_RECORD
  5
18F
100
AcDbSymbolTableRecord
100
AcDbBlockTableRecord
  2
*B35
340
0
  0
BLOCK_RECORD
  5
195
100
AcDbSymbolTableRecord
100
AcDbBlockTableRecord
  2
*B36
340
0
  0
BLOCK_RECORD
  5
19B
100
AcDbSymbolTableRecord
100
AcDbBlockTableRecord
  2
*B37
340
0
  0
BLOCK_RECORD
  5
1A0
100
AcDbSymbolTableRecord
100
AcDbBlockTableRecord
  2
*B38
340
0
  0
BLOCK_RECORD
  5
1A5
100
AcDbSymbolTableRecord
100
AcDbBlockTableRecord
  2
*B39
340
0
  0
BLOCK_RECORD
  5
1AB
100
AcDbSymbolTableRecord
100
AcDbBlockTableRecord
  2
*B40
340
0
  0
BLOCK_RECORD
  5
1CA
100
AcDbSymbolTableRecord
100
AcDbBlockTableRecord
  2
*B41
340
0
  0
BLOCK_RECORD
  5
1D4
100
AcDbSymbolTableRecord
100
AcDbBlockTableRecord
  2
*B42
340
0
  0
BLOCK_RECORD
  5
1D9
100
AcDbSymbolTableRecord
100
AcDbBlockTableRecord
  2
*B43
340
0
  0
BLOCK_RECORD
  5
1DF
100
AcDbSymbolTableRecord
100
AcDbBlockTableRecord
  2
*B44
340
0
  0
BLOCK_RECORD
  5
1E4
100
AcDbSymbolTableRecord
100
AcDbBlockTableRecord
  2
*B45
340
0
  0
BLOCK_RECORD
  5
1E9
100
AcDbSymbolTableRecord
100
AcDbBlockTableRecord
  2
*B46
340
0
  0
BLOCK_RECORD
  5
1EE
100
AcDbSymbolTableRecord
100
AcDbBlockTableRecord
  2
*B47
340
0
  0
BLOCK_RECORD
  5
1FF
100
AcDbSymbolTableRecord
100
AcDbBlockTableRecord
  2
*B48
340
0
  0
BLOCK_RECORD
  5
204
100
AcDbSymbolTableRecord
100
AcDbBlockTableRecord
  2
*B49
340
0
  0
BLOCK_RECORD
  5
20A
100
AcDbSymbolTableRecord
100
AcDbBlockTableRecord
  2
*B50
340
0
  0
BLOCK_RECORD
  5
210
100
AcDbSymbolTableRecord
100
AcDbBlockTableRecord
  2
*B51
340
0
  0
BLOCK_RECORD
  5
216
100
AcDbSymbolTableRecord
100
AcDbBlockTableRecord
  2
*B52
340
0
  0
BLOCK_RECORD
  5
21C
100
AcDbSymbolTableRecord
100
AcDbBlockTableRecord
  2
*B53
340
0
  0
BLOCK_RECORD
  5
222
100
AcDbSymbolTableRecord
100
AcDbBlockTableRecord
  2
*B54
340
0
  0
BLOCK_RECORD
  5
228
100
AcDbSymbolTableRecord
100
AcDbBlockTableRecord
  2
*B55
340
0
  0
BLOCK_RECORD
  5
22E
100
AcDbSymbolTableRecord
100
AcDbBlockTableRecord
  2
*B56
340
0
  0
BLOCK_RECORD
  5
233
100
AcDbSymbolTableRecord
100
AcDbBlockTableRecord
  2
*B57
340
0
  0
BLOCK_RECORD
  5
238
100
AcDbSymbolTableRecord
100
AcDbBlockTableRecord
  2
*B58
340
0
  0
BLOCK_RECORD
  5
23D
100
AcDbSymbolTableRecord
100
AcDbBlockTableRecord
  2
*B59
340
0
  0
BLOCK_RECORD
  5
242
100
AcDbSymbolTableRecord
100
AcDbBlockTableRecord
  2
*B60
340
0
  0
BLOCK_RECORD
  5
247
100
AcDbSymbolTableRecord
100
AcDbBlockTableRecord
  2
*B61
340
0
  0
BLOCK_RECORD
  5
24C
100
AcDbSymbolTableRecord
100
AcDbBlockTableRecord
  2
*B62
340
0
  0
BLOCK_RECORD
  5
251
100
AcDbSymbolTableRecord
100
AcDbBlockTableRecord
  2
*B63
340
0
  0
BLOCK_RECORD
  5
256
100
AcDbSymbolTableRecord
100
AcDbBlockTableRecord
  2
*B64
340
0
  0
BLOCK_RECORD
  5
25B
100
AcDbSymbolTableRecord
100
AcDbBlockTableRecord
  2
*B65
340
0
  0
BLOCK_RECORD
  5
260
100
AcDbSymbolTableRecord
100
AcDbBlockTableRecord
  2
*B66
340
0
  0
BLOCK_RECORD
  5
265
100
AcDbSymbolTableRecord
100
AcDbBlockTableRecord
  2
*B67
340
0
  0
BLOCK_RECORD
  5
26A
100
AcDbSymbolTableRecord
100
AcDbBlockTableRecord
  2
*B68
340
0
  0
BLOCK_RECORD
  5
26F
100
AcDbSymbolTableRecord
100
AcDbBlockTableRecord
  2
*B69
340
0
  0
BLOCK_RECORD
  5
274
100
AcDbSymbolTableRecord
100
AcDbBlockTableRecord
  2
*B70
340
0
  0
BLOCK_RECORD
  5
279
100
AcDbSymbolTableRecord
100
AcDbBlockTableRecord
  2
*B71
340
0
  0
BLOCK_RECORD
  5
27E
100
AcDbSymbolTableRecord
100
AcDbBlockTableRecord
  2
*B72
340
0
  0
BLOCK_RECORD
  5
283
100
AcDbSymbolTableRecord
100
AcDbBlockTableRecord
  2
*B73
340
0
  0
BLOCK_RECORD
  5
288
100
AcDbSymbolTableRecord
100
AcDbBlockTableRecord
  2
*B74
340
0
  0
BLOCK_RECORD
  5
28D
100
AcDbSymbolTableRecord
100
AcDbBlockTableRecord
  2
*B75
340
0
  0
BLOCK_RECORD
  5
292
100
AcDbSymbolTableRecord
100
AcDbBlockTableRecord
  2
*B76
340
0
  0
BLOCK_RECORD
  5
297
100
AcDbSymbolTableRecord
100
AcDbBlockTableRecord
  2
*B77
340
0
  0
ENDTAB
  0
ENDSEC
  0
SECTION
  2
BLOCKS
  0
BLOCK
  5
D
100
AcDbEntity
  8
0
100
AcDbBlockBegin
  2
*MODEL_SPACE
 70
     0
 10
0.0
 20
0.0
 30
0.0
  3
*MODEL_SPACE
  1

  0
ENDBLK
  5
E
100
AcDbEntity
  8
0
100
AcDbBlockEnd
  0
BLOCK
  5
F
100
AcDbEntity
 67
     1
  8
0
100
AcDbBlockBegin
  2
*PAPER_SPACE
 70
     0
 10
0.0
 20
0.0
 30
0.0
  3
*PAPER_SPACE
  1

  0
ENDBLK
  5
10
100
AcDbEntity
 67
     1
  8
0
100
AcDbBlockEnd
  0
BLOCK
  5
2A
100
AcDbEntity
  8
0
100
AcDbBlockBegin
  2
*B0
 70
     0
 10
0.0
 20
0.0
 30
0.0
  3
*B0
  1

  0
ENDBLK
  5
2B
100
AcDbEntity
  8
0
100
AcDbBlockEnd
  0
BLOCK
  5
2D
100
AcDbEntity
  8
0
100
AcDbBlockBegin
  2
*B1
 70
     0
 10
0.0
 20
0.0
 30
0.0
  3
*B1
  1

  0
LINE
  5
2E
100
AcDbEntity
  8
0
  6
HIDDEN
 62
   174
100
AcDbLine
 10
131.291866
 20
124.999999
 30
0.0
 11
131.291866
 21
110.999999
 31
0.0
  0
LINE
  5
2F
100
AcDbEntity
  8
0
  6
HIDDEN
 62
   174
100
AcDbLine
 10
130.479978
 20
122.999999
 30
0.0
 11
147.140088
 21
122.999999
 31
0.0
  0
LINE
  5
30
100
AcDbEntity
  8
0
  6
HIDDEN
 62
   174
100
AcDbLine
 10
130.461866
 20
122.999999
 30
0.0
 11
130.461866
 21
110.999999
 31
0.0
  0
LINE
  5
31
100
AcDbEntity
  8
0
  6
HIDDEN
 62
   174
100
AcDbLine
 10
147.121866
 20
110.999999
 30
0.0
 11
147.121866
 21
122.999999
 31
0.0
  0
LINE
  5
32
100
AcDbEntity
  8
0
  6
HIDDEN
 62
   174
100
AcDbLine
 10
146.291866
 20
110.999999
 30
0.0
 11
146.291866
 21
124.999999
 31
0.0
  0
LINE
  5
33
100
AcDbEntity
  8
0
  6
HIDDEN
 62
   174
100
AcDbLine
 10
131.309946
 20
124.999999
 30
0.0
 11
146.309908
 21
124.999999
 31
0.0
  0
LINE
  5
34
100
AcDbEntity
  8
0
  6
HIDDEN
 62
   174
100
AcDbLine
 10
159.291866
 20
124.999999
 30
0.0
 11
159.291866
 21
110.999999
 31
0.0
  0
LINE
  5
35
100
AcDbEntity
  8
0
  6
HIDDEN
 62
   174
100
AcDbLine
 10
158.480077
 20
122.999999
 30
0.0
 11
175.139975
 21
122.999999
 31
0.0
  0
LINE
  5
36
100
AcDbEntity
  8
0
  6
HIDDEN
 62
   174
100
AcDbLine
 10
158.461866
 20
122.999999
 30
0.0
 11
158.461866
 21
110.999999
 31
0.0
  0
LINE
  5
37
100
AcDbEntity
  8
0
  6
HIDDEN
 62
   174
100
AcDbLine
 10
175.121866
 20
110.999999
 30
0.0
 11
175.121866
 21
122.999999
 31
0.0
  0
LINE
  5
38
100
AcDbEntity
  8
0
  6
HIDDEN
 62
   174
100
AcDbLine
 10
174.291866
 20
110.999999
 30
0.0
 11
174.291866
 21
124.999999
 31
0.0
  0
LINE
  5
39
100
AcDbEntity
  8
0
  6
HIDDEN
 62
   174
100
AcDbLine
 10
159.310045
 20
124.999999
 30
0.0
 11
174.310007
 21
124.999999
 31
0.0
  0
LINE
  5
3A
100
AcDbEntity
  8
0
  6
HIDDEN
 62
   174
100
AcDbLine
 10
115.291866
 20
110.999999
 30
0.0
 11
115.291866
 21
111.019999
 31
0.0
  0
CIRCLE
  5
3B
100
AcDbEntity
  8
0
  6
Continuous
 62
   174
100
AcDbCircle
 10
194.791866
 20
153.999999
 30
0.0
 40
3.3
  0
LINE
  5
3C
100
AcDbEntity
  8
0
  6
Continuous
 62
   174
100
AcDbLine
 10
119.791866
 20
160.999999
 30
0.0
 11
119.791866
 21
110.999999
 31
0.0
  0
LINE
  5
3D
100
AcDbEntity
  8
0
  6
Continuous
 62
   174
100
AcDbLine
 10
103.791866
 20
160.999999
 30
0.0
 11
119.791866
 21
160.999999
 31
0.0
  0
LINE
  5
3E
100
AcDbEntity
  8
0
  6
HIDDEN
 62
   174
100
AcDbLine
 10
189.140024
 20
148.999999
 30
0.0
 11
172.479914
 21
148.999999
 31
0.0
  0
LINE
  5
3F
100
AcDbEntity
  8
0
  6
HIDDEN
 62
   174
100
AcDbLine
 10
111.810059
 20
111.019999
 30
0.0
 11
117.809958
 21
111.019999
 31
0.0
  0
LINE
  5
40
100
AcDbEntity
  8
0
  6
Continuous
 62
   174
100
AcDbLine
 10
103.791866
 20
110.999999
 30
0.0
 11
103.791866
 21
160.999999
 31
0.0
  0
LINE
  5
41
100
AcDbEntity
  8
0
  6
HIDDEN
 62
   174
100
AcDbLine
 10
107.416866
 20
160.999999
 30
0.0
 11
107.416866
 21
150.999999
 31
0.0
  0
LINE
  5
42
100
AcDbEntity
  8
0
  6
HIDDEN
 62
   174
100
AcDbLine
 10
189.121866
 20
148.999999
 30
0.0
 11
189.121866
 21
160.999999
 31
0.0
  0
LINE
  5
43
100
AcDbEntity
  8
0
  6
HIDDEN
 62
   174
100
AcDbLine
 10
186.479964
 20
122.999999
 30
0.0
 11
203.140074
 21
122.999999
 31
0.0
  0
LINE
  5
44
100
AcDbEntity
  8
0
  6
HIDDEN
 62
   174
100
AcDbLine
 10
202.291866
 20
110.999999
 30
0.0
 11
202.291866
 21
124.999999
 31
0.0
  0
LINE
  5
45
100
AcDbEntity
  8
0
  6
HIDDEN
 62
   174
100
AcDbLine
 10
114.291866
 20
110.999999
 30
0.0
 11
114.291866
 21
111.019999
 31
0.0
  0
LINE
  5
46
100
AcDbEntity
  8
0
  6
Continuous
 62
   174
100
AcDbLine
 10
213.791866
 20
160.999999
 30
0.0
 11
119.791866
 21
160.999999
 31
0.0
  0
LINE
  5
47
100
AcDbEntity
  8
0
  6
Continuous
 62
   174
100
AcDbLine
 10
119.791866
 20
110.999999
 30
0.0
 11
213.791866
 21
110.999999
 31
0.0
  0
LINE
  5
48
100
AcDbEntity
  8
0
  6
HIDDEN
 62
   174
100
AcDbLine
 10
108.474562
 20
110.999999
 30
0.0
 11
108.474562
 21
111.019999
 31
0.0
  0
LINE
  5
49
100
AcDbEntity
  8
0
  6
HIDDEN
 62
   174
100
AcDbLine
 10
161.121866
 20
148.999999
 30
0.0
 11
161.121866
 21
160.999999
 31
0.0
  0
LINE
  5
4A
100
AcDbEntity
  8
0
  6
HIDDEN
 62
   174
100
AcDbLine
 10
203.121866
 20
110.999999
 30
0.0
 11
203.121866
 21
122.999999
 31
0.0
  0
LINE
  5
4B
100
AcDbEntity
  8
0
  6
HIDDEN
 62
   174
100
AcDbLine
 10
187.309932
 20
124.999999
 30
0.0
 11
202.309894
 21
124.999999
 31
0.0
  0
LINE
  5
4C
100
AcDbEntity
  8
0
  6
HIDDEN
 62
   174
100
AcDbLine
 10
116.166866
 20
150.999999
 30
0.0
 11
116.166866
 21
160.999999
 31
0.0
  0
LINE
  5
4D
100
AcDbEntity
  8
0
  6
HIDDEN
 62
   174
100
AcDbLine
 10
116.656866
 20
152.999999
 30
0.0
 11
116.656866
 21
160.999999
 31
0.0
  0
LINE
  5
4E
100
AcDbEntity
  8
0
  6
HIDDEN
 62
   174
100
AcDbLine
 10
116.185074
 20
150.999999
 30
0.0
 11
111.810059
 21
150.999999
 31
0.0
  0
LINE
  5
4F
100
AcDbEntity
  8
0
  6
Continuous
 62
   174
100
AcDbLine
 10
214.791866
 20
127.01098
 30
0.0
 11
214.791866
 21
145.010043
 31
0.0
  0
LINE
  5
50
100
AcDbEntity
  8
0
  6
HIDDEN
 62
   174
100
AcDbLine
 10
116.298908
 20
110.999999
 30
0.0
 11
116.298908
 21
111.019999
 31
0.0
  0
LINE
  5
51
100
AcDbEntity
  8
0
  6
HIDDEN
 62
   174
100
AcDbLine
 10
114.791866
 20
110.999999
 30
0.0
 11
114.791866
 21
111.019999
 31
0.0
  0
LINE
  5
52
100
AcDbEntity
  8
0
  6
Continuous
 62
   174
100
AcDbLine
 10
119.791866
 20
110.999999
 30
0.0
 11
103.791866
 21
110.999999
 31
0.0
  0
LINE
  5
53
100
AcDbEntity
  8
0
  6
HIDDEN
 62
   174
100
AcDbLine
 10
111.810059
 20
150.999999
 30
0.0
 11
107.435043
 21
150.999999
 31
0.0
  0
LINE
  5
54
100
AcDbEntity
  8
0
  6
Continuous
 62
   174
100
AcDbLine
 10
213.791866
 20
126.999999
 30
0.0
 11
214.791866
 21
126.999999
 31
0.0
  0
LINE
  5
55
100
AcDbEntity
  8
0
  6
HIDDEN
 62
   174
100
AcDbLine
 10
107.384019
 20
110.999999
 30
0.0
 11
107.384019
 21
111.019999
 31
0.0
  0
LINE
  5
56
100
AcDbEntity
  8
0
  6
HIDDEN
 62
   174
100
AcDbLine
 10
161.139925
 20
148.999999
 30
0.0
 11
144.480027
 21
148.999999
 31
0.0
  0
LINE
  5
57
100
AcDbEntity
  8
0
  6
HIDDEN
 62
   174
100
AcDbLine
 10
113.286836
 20
110.999999
 30
0.0
 11
113.286836
 21
111.019999
 31
0.0
  0
CIRCLE
  5
58
100
AcDbEntity
  8
0
  6
Continuous
 62
   174
100
AcDbCircle
 10
180.791866
 20
117.999999
 30
0.0
 40
3.3
  0
CIRCLE
  5
59
100
AcDbEntity
  8
0
  6
Continuous
 62
   174
100
AcDbCircle
 10
152.791866
 20
117.999999
 30
0.0
 40
3.3
  0
LINE
  5
5A
100
AcDbEntity
  8
0
  6
HIDDEN
 62
   174
100
AcDbLine
 10
116.67494
 20
152.999999
 30
0.0
 11
106.944965
 21
152.999999
 31
0.0
  0
LINE
  5
5B
100
AcDbEntity
  8
0
  6
HIDDEN
 62
   174
100
AcDbLine
 10
108.037942
 20
110.999999
 30
0.0
 11
108.037942
 21
111.019999
 31
0.0
  0
LINE
  5
5C
100
AcDbEntity
  8
0
  6
Continuous
 62
   174
100
AcDbLine
 10
214.791866
 20
144.999999
 30
0.0
 11
213.791866
 21
144.999999
 31
0.0
  0
LINE
  5
5D
100
AcDbEntity
  8
0
  6
HIDDEN
 62
   174
100
AcDbLine
 10
110.345789
 20
111.019999
 30
0.0
 11
107.384019
 21
111.019999
 31
0.0
  0
LINE
  5
5E
100
AcDbEntity
  8
0
  6
HIDDEN
 62
   174
100
AcDbLine
 10
172.461866
 20
160.999999
 30
0.0
 11
172.461866
 21
148.999999
 31
0.0
  0
LINE
  5
5F
100
AcDbEntity
  8
0
  6
HIDDEN
 62
   174
100
AcDbLine
 10
113.592671
 20
110.999999
 30
0.0
 11
113.592671
 21
111.019999
 31
0.0
  0
LINE
  5
60
100
AcDbEntity
  8
0
  6
HIDDEN
 62
   174
100
AcDbLine
 10
187.291866
 20
124.999999
 30
0.0
 11
187.291866
 21
110.999999
 31
0.0
  0
LINE
  5
61
100
AcDbEntity
  8
0
  6
HIDDEN
 62
   174
100
AcDbLine
 10
186.461866
 20
122.999999
 30
0.0
 11
186.461866
 21
110.999999
 31
0.0
  0
LINE
  5
62
100
AcDbEntity
  8
0
  6
HIDDEN
 62
   174
100
AcDbLine
 10
106.926866
 20
160.999999
 30
0.0
 11
106.926866
 21
152.999999
 31
0.0
  0
LINE
  5
63
100
AcDbEntity
  8
0
  6
HIDDEN
 62
   174
100
AcDbLine
 10
188.291866
 20
146.999999
 30
0.0
 11
188.291866
 21
160.999999
 31
0.0
  0
LINE
  5
64
100
AcDbEntity
  8
0
  6
HIDDEN
 62
   174
100
AcDbLine
 10
160.291866
 20
146.999999
 30
0.0
 11
160.291866
 21
160.999999
 31
0.0
  0
LINE
  5
65
100
AcDbEntity
  8
0
  6
HIDDEN
 62
   174
100
AcDbLine
 10
145.291866
 20
160.999999
 30
0.0
 11
145.291866
 21
146.999999
 31
0.0
  0
CIRCLE
  5
66
100
AcDbEntity
  8
0
  6
Continuous
 62
   174
100
AcDbCircle
 10
138.791866
 20
153.999999
 30
0.0
 40
3.3
  0
LINE
  5
67
100
AcDbEntity
  8
0
  6
Continuous
 62
   174
100
AcDbLine
 10
213.791866
 20
110.999999
 30
0.0
 11
213.791866
 21
160.999999
 31
0.0
  0
LINE
  5
68
100
AcDbEntity
  8
0
  6
Continuous
 62
   174
100
AcDbLine
 10
119.791866
 20
160.999999
 30
0.0
 11
119.791866
 21
110.999999
 31
0.0
  0
LINE
  5
69
100
AcDbEntity
  8
0
  6
HIDDEN
 62
   174
100
AcDbLine
 10
110.345789
 20
110.999999
 30
0.0
 11
110.345789
 21
111.019999
 31
0.0
  0
LINE
  5
6A
100
AcDbEntity
  8
0
  6
HIDDEN
 62
   174
100
AcDbLine
 10
173.291866
 20
160.999999
 30
0.0
 11
173.291866
 21
146.999999
 31
0.0
  0
LINE
  5
6B
100
AcDbEntity
  8
0
  6
HIDDEN
 62
   174
100
AcDbLine
 10
188.310056
 20
146.999999
 30
0.0
 11
173.309882
 21
146.999999
 31
0.0
  0
LINE
  5
6C
100
AcDbEntity
  8
0
  6
HIDDEN
 62
   174
100
AcDbLine
 10
144.461866
 20
160.999999
 30
0.0
 11
144.461866
 21
148.999999
 31
0.0
  0
LINE
  5
6D
100
AcDbEntity
  8
0
  6
HIDDEN
 62
   174
100
AcDbLine
 10
160.309957
 20
146.999999
 30
0.0
 11
145.309995
 21
146.999999
 31
0.0
  0
ENDBLK
  5
6E
100
AcDbEntity
  8
0
100
AcDbBlockEnd
  0
BLOCK
  5
71
100
AcDbEntity
  8
0
100
AcDbBlockBegin
  2
*B2
 70
     0
 10
0.0
 20
0.0
 30
0.0
  3
*B2
  1

  0
LINE
  5
72
100
AcDbEntity
  8
0
  6
Continuous
 62
   174
100
AcDbLine
 10
213.791866
 20
40.263159
 30
0.0
 11
213.791866
 21
70.263159
 31
0.0
  0
LINE
  5
73
100
AcDbEntity
  8
0
  6
Continuous
 62
   174
100
AcDbLine
 10
119.791866
 20
40.263159
 30
0.0
 11
119.791866
 21
70.263159
 31
0.0
  0
LINE
  5
74
100
AcDbEntity
  8
0
  6
Continuous
 62
   174
100
AcDbLine
 10
103.791866
 20
70.263159
 30
0.0
 11
103.791866
 21
40.263159
 31
0.0
  0
LINE
  5
75
100
AcDbEntity
  8
0
  6
Continuous
 62
   174
100
AcDbLine
 10
119.791866
 20
70.263159
 30
0.0
 11
119.791866
 21
40.263159
 31
0.0
  0
LINE
  5
76
100
AcDbEntity
  8
0
  6
Continuous
 62
   174
100
AcDbLine
 10
213.791866
 20
40.263159
 30
0.0
 11
119.791866
 21
40.263159
 31
0.0
  0
LINE
  5
77
100
AcDbEntity
  8
0
  6
Continuous
 62
   174
100
AcDbLine
 10
103.791866
 20
70.263159
 30
0.0
 11
119.791866
 21
70.263159
 31
0.0
  0
LINE
  5
78
100
AcDbEntity
  8
0
  6
Continuous
 62
   174
100
AcDbLine
 10
213.791866
 20
70.263159
 30
0.0
 11
119.791866
 21
70.263159
 31
0.0
  0
LINE
  5
79
100
AcDbEntity
  8
0
  6
Continuous
 62
   174
100
AcDbLine
 10
103.791866
 20
40.263159
 30
0.0
 11
119.791866
 21
40.263159
 31
0.0
  0
ARC
  5
7A
100
AcDbEntity
  8
0
  6
Continuous
 62
   174
100
AcDbCircle
 10
111.791866
 20
55.263159
 30
0.0
 40
4.865
100
AcDbArc
 50
-105.0
 51
195.0
  0
CIRCLE
  5
7B
100
AcDbEntity
  8
0
  6
Continuous
 62
   174
100
AcDbCircle
 10
111.791866
 20
55.263159
 30
0.0
 40
4.375
  0
LINE
  5
7C
100
AcDbEntity
  8
0
  6
Continuous
 62
   174
100
AcDbLine
 10
213.791866
 20
46.263159
 30
0.0
 11
214.791866
 21
46.263159
 31
0.0
  0
LINE
  5
7D
100
AcDbEntity
  8
0
  6
Continuous
 62
   174
100
AcDbLine
 10
214.791866
 20
64.263159
 30
0.0
 11
213.791866
 21
64.263159
 31
0.0
  0
LINE
  5
7E
100
AcDbEntity
  8
0
  6
Continuous
 62
   174
100
AcDbLine
 10
214.791866
 20
55.278146
 30
0.0
 11
214.791866
 21
64.277783
 31
0.0
  0
CIRCLE
  5
7F
100
AcDbEntity
  8
0
  6
Continuous
 62
   174
100
AcDbCircle
 10
152.791866
 20
55.263159
 30
0.0
 40
7.5
  0
LINE
  5
80
100
AcDbEntity
  8
0
  6
Continuous
 62
   174
100
AcDbLine
 10
214.791866
 20
46.278721
 30
0.0
 11
214.791866
 21
55.278146
 31
0.0
  0
ARC
  5
81
100
AcDbEntity
  8
0
  6
Continuous
 62
   174
100
AcDbCircle
 10
152.791866
 20
55.263159
 30
0.0
 40
8.33
100
AcDbArc
 50
-105.0
 51
195.0
  0
ARC
  5
82
100
AcDbEntity
  8
0
  6
Continuous
 62
   174
100
AcDbCircle
 10
180.791866
 20
55.263159
 30
0.0
 40
8.33
100
AcDbArc
 50
-105.0
 51
195.0
  0
CIRCLE
  5
83
100
AcDbEntity
  8
0
  6
Continuous
 62
   174
100
AcDbCircle
 10
180.791866
 20
55.263159
 30
0.0
 40
7.5
  0
ENDBLK
  5
84
100
AcDbEntity
  8
0
100
AcDbBlockEnd
  0
BLOCK
  5
87
100
AcDbEntity
  8
0
100
AcDbBlockBegin
  2
*B3
 70
     0
 10
0.0
 20
0.0
 30
0.0
  3
*B3
  1

  0
LINE
  5
88
100
AcDbEntity
  8
0
  6
Continuous
 62
     0
100
AcDbLine
 10
152.810082
 20
172.00853
 30
0.0
 11
180.809969
 21
172.00853
 31
0.0
  0
SOLID
  5
89
100
AcDbEntity
  8
0
  6
Continuous
 62
     0
100
AcDbTrace
 10
156.310095
 20
172.608435
 30
0.0
 11
152.810082
 21
172.00853
 31
0.0
 12
156.310095
 22
171.408412
 32
0.0
 13
156.310095
 23
171.408412
 33
0.0
  0
SOLID
  5
8A
100
AcDbEntity
  8
0
  6
Continuous
 62
     0
100
AcDbTrace
 10
177.309957
 20
171.408412
 30
0.0
 11
180.809969
 21
172.00853
 31
0.0
 12
177.309957
 22
172.608435
 32
0.0
 13
177.309957
 23
172.608435
 33
0.0
  0
ENDBLK
  5
8B
100
AcDbEntity
  8
0
100
AcDbBlockEnd
  0
BLOCK
  5
8E
100
AcDbEntity
  8
0
100
AcDbBlockBegin
  2
*B4
 70
     0
 10
0.0
 20
0.0
 30
0.0
  3
*B4
  1

  0
LINE
  5
8F
100
AcDbEntity
  8
0
  6
Continuous
 62
     0
100
AcDbLine
 10
194.810019
 20
182.007867
 30
0.0
 11
138.810033
 21
182.007867
 31
0.0
  0
SOLID
  5
90
100
AcDbEntity
  8
0
  6
Continuous
 62
     0
100
AcDbTrace
 10
191.310006
 20
181.407962
 30
0.0
 11
194.810019
 21
182.007867
 31
0.0
 12
191.310006
 22
182.607985
 32
0.0
 13
191.310006
 23
182.607985
 33
0.0
  0
SOLID
  5
91
100
AcDbEntity
  8
0
  6
Continuous
 62
     0
100
AcDbTrace
 10
142.310045
 20
182.607985
 30
0.0
 11
138.810033
 21
182.007867
 31
0.0
 12
142.310045
 22
181.407962
 32
0.0
 13
142.310045
 23
181.407962
 33
0.0
  0
ENDBLK
  5
92
100
AcDbEntity
  8
0
100
AcDbBlockEnd
  0
BLOCK
  5
95
100
AcDbEntity
  8
0
100
AcDbBlockBegin
  2
*B5
 70
     0
 10
0.0
 20
0.0
 30
0.0
  3
*B5
  1

  0
LINE
  5
96
100
AcDbEntity
  8
0
  6
Continuous
 62
     0
100
AcDbLine
 10
226.018038
 20
154.009468
 30
0.0
 11
226.018038
 21
118.011555
 31
0.0
  0
SOLID
  5
97
100
AcDbEntity
  8
0
  6
Continuous
 62
     0
100
AcDbTrace
 10
226.618155
 20
150.509668
 30
0.0
 11
226.018038
 21
154.009468
 31
0.0
 12
225.418133
 22
150.509668
 32
0.0
 13
225.418133
 23
150.509668
 33
0.0
  0
SOLID
  5
98
100
AcDbEntity
  8
0
  6
Continuous
 62
     0
100
AcDbTrace
 10
225.418133
 20
121.511355
 30
0.0
 11
226.018038
 21
118.011555
 31
0.0
 12
226.618155
 22
121.511355
 32
0.0
 13
226.618155
 23
121.511355
 33
0.0
  0
ENDBLK
  5
99
100
AcDbEntity
  8
0
100
AcDbBlockEnd
  0
BLOCK
  5
9C
100
AcDbEntity
  8
0
100
AcDbBlockBegin
  2
*B6
 70
     0
 10
0.0
 20
0.0
 30
0.0
  3
*B6
  1

  0
LINE
  5
9D
100
AcDbEntity
  8
0
  6
Continuous
 62
     0
100
AcDbLine
 10
238.01805
 20
111.011955
 30
0.0
 11
238.01805
 21
161.009068
 31
0.0
  0
SOLID
  5
9E
100
AcDbEntity
  8
0
  6
Continuous
 62
     0
100
AcDbTrace
 10
237.418145
 20
114.511755
 30
0.0
 11
238.01805
 21
111.011955
 31
0.0
 12
238.618167
 22
114.511755
 32
0.0
 13
238.618167
 23
114.511755
 33
0.0
  0
SOLID
  5
9F
100
AcDbEntity
  8
0
  6
Continuous
 62
     0
100
AcDbTrace
 10
238.618167
 20
157.509268
 30
0.0
 11
238.01805
 21
161.009068
 31
0.0
 12
237.418145
 22
157.509268
 32
0.0
 13
237.418145
 23
157.509268
 33
0.0
  0
ENDBLK
  5
A0
100
AcDbEntity
  8
0
100
AcDbBlockEnd
  0
BLOCK
  5
A3
100
AcDbEntity
  8
0
100
AcDbBlockBegin
  2
*B7
 70
     0
 10
0.0
 20
0.0
 30
0.0
  3
*B7
  1

  0
LINE
  5
A4
100
AcDbEntity
  8
0
  6
Continuous
 62
     0
100
AcDbLine
 10
194.810019
 20
98.012668
 30
0.0
 11
213.810056
 21
98.012668
 31
0.0
  0
SOLID
  5
A5
100
AcDbEntity
  8
0
  6
Continuous
 62
     0
100
AcDbTrace
 10
198.310031
 20
98.612573
 30
0.0
 11
194.810019
 21
98.012668
 31
0.0
 12
198.310031
 22
97.412763
 32
0.0
 13
198.310031
 23
97.412763
 33
0.0
  0
SOLID
  5
A6
100
AcDbEntity
  8
0
  6
Continuous
 62
     0
100
AcDbTrace
 10
210.310043
 20
97.412763
 30
0.0
 11
213.810056
 21
98.012668
 31
0.0
 12
210.310043
 22
98.612573
 32
0.0
 13
210.310043
 23
98.612573
 33
0.0
  0
ENDBLK
  5
A7
100
AcDbEntity
  8
0
100
AcDbBlockEnd
  0
BLOCK
  5
AA
100
AcDbEntity
  8
0
100
AcDbBlockBegin
  2
*B8
 70
     0
 10
0.0
 20
0.0
 30
0.0
  3
*B8
  1

  0
LINE
  5
AB
100
AcDbEntity
  8
0
  6
Continuous
 62
     0
100
AcDbLine
 10
166.80992
 20
98.012668
 30
0.0
 11
194.810019
 21
98.012668
 31
0.0
  0
SOLID
  5
AC
100
AcDbEntity
  8
0
  6
Continuous
 62
     0
100
AcDbTrace
 10
170.309932
 20
98.612573
 30
0.0
 11
166.80992
 21
98.012668
 31
0.0
 12
170.309932
 22
97.412763
 32
0.0
 13
170.309932
 23
97.412763
 33
0.0
  0
SOLID
  5
AD
100
AcDbEntity
  8
0
  6
Continuous
 62
     0
100
AcDbTrace
 10
191.310006
 20
97.412763
 30
0.0
 11
194.810019
 21
98.012668
 31
0.0
 12
191.310006
 22
98.612573
 32
0.0
 13
191.310006
 23
98.612573
 33
0.0
  0
ENDBLK
  5
AE
100
AcDbEntity
  8
0
100
AcDbBlockEnd
  0
BLOCK
  5
B1
100
AcDbEntity
  8
0
100
AcDbBlockBegin
  2
*B9
 70
     0
 10
0.0
 20
0.0
 30
0.0
  3
*B9
  1

  0
LINE
  5
B2
100
AcDbEntity
  8
0
  6
Continuous
 62
     0
100
AcDbLine
 10
138.810033
 20
98.012668
 30
0.0
 11
166.80992
 21
98.012668
 31
0.0
  0
SOLID
  5
B3
100
AcDbEntity
  8
0
  6
Continuous
 62
     0
100
AcDbTrace
 10
142.310045
 20
98.612573
 30
0.0
 11
138.810033
 21
98.012668
 31
0.0
 12
142.310045
 22
97.412763
 32
0.0
 13
142.310045
 23
97.412763
 33
0.0
  0
SOLID
  5
B4
100
AcDbEntity
  8
0
  6
Continuous
 62
     0
100
AcDbTrace
 10
163.309907
 20
97.412763
 30
0.0
 11
166.80992
 21
98.012668
 31
0.0
 12
163.309907
 22
98.612573
 32
0.0
 13
163.309907
 23
98.612573
 33
0.0
  0
ENDBLK
  5
B5
100
AcDbEntity
  8
0
100
AcDbBlockEnd
  0
BLOCK
  5
B8
100
AcDbEntity
  8
0
100
AcDbBlockBegin
  2
*B10
 70
     0
 10
0.0
 20
0.0
 30
0.0
  3
*B10
  1

  0
LINE
  5
B9
100
AcDbEntity
  8
0
  6
Continuous
 62
     0
100
AcDbLine
 10
138.810033
 20
98.012668
 30
0.0
 11
119.809996
 21
98.012668
 31
0.0
  0
SOLID
  5
BA
100
AcDbEntity
  8
0
  6
Continuous
 62
     0
100
AcDbTrace
 10
135.31002
 20
97.412763
 30
0.0
 11
138.810033
 21
98.012668
 31
0.0
 12
135.31002
 22
98.612573
 32
0.0
 13
135.31002
 23
98.612573
 33
0.0
  0
SOLID
  5
BB
100
AcDbEntity
  8
0
  6
Continuous
 62
     0
100
AcDbTrace
 10
123.310008
 20
98.612573
 30
0.0
 11
119.809996
 21
98.012668
 31
0.0
 12
123.310008
 22
97.412763
 32
0.0
 13
123.310008
 23
97.412763
 33
0.0
  0
ENDBLK
  5
BC
100
AcDbEntity
  8
0
100
AcDbBlockEnd
  0
BLOCK
  5
BF
100
AcDbEntity
  8
0
100
AcDbBlockBegin
  2
*B11
 70
     0
 10
0.0
 20
0.0
 30
0.0
  3
*B11
  1

  0
LINE
  5
C0
100
AcDbEntity
  8
0
  6
Continuous
 62
     0
100
AcDbLine
 10
213.810056
 20
86.013293
 30
0.0
 11
103.809909
 21
86.013293
 31
0.0
  0
SOLID
  5
C1
100
AcDbEntity
  8
0
  6
Continuous
 62
     0
100
AcDbTrace
 10
210.310043
 20
85.413388
 30
0.0
 11
213.810056
 21
86.013293
 31
0.0
 12
210.310043
 22
86.613411
 32
0.0
 13
210.310043
 23
86.613411
 33
0.0
  0
SOLID
  5
C2
100
AcDbEntity
  8
0
  6
Continuous
 62
     0
100
AcDbTrace
 10
107.309921
 20
86.613411
 30
0.0
 11
103.809909
 21
86.013293
 31
0.0
 12
107.309921
 22
85.413388
 32
0.0
 13
107.309921
 23
85.413388
 33
0.0
  0
ENDBLK
  5
C3
100
AcDbEntity
  8
0
100
AcDbBlockEnd
  0
BLOCK
  5
C6
100
AcDbEntity
  8
0
100
AcDbBlockBegin
  2
*B12
 70
     0
 10
0.0
 20
0.0
 30
0.0
  3
*B12
  1

  0
LINE
  5
C7
100
AcDbEntity
  8
0
  6
Continuous
 62
     0
100
AcDbLine
 10
210.357415
 20
28.016669
 30
0.0
 11
166.31007
 21
28.016669
 31
0.0
  0
SOLID
  5
C8
100
AcDbEntity
  8
0
  6
Continuous
 62
     0
100
AcDbTrace
 10
191.810069
 20
28.616574
 30
0.0
 11
188.310056
 21
28.016669
 31
0.0
 12
191.810069
 22
27.416551
 32
0.0
 13
191.810069
 23
27.416551
 33
0.0
  0
SOLID
  5
C9
100
AcDbEntity
  8
0
  6
Continuous
 62
     0
100
AcDbTrace
 10
169.810082
 20
27.416551
 30
0.0
 11
173.309882
 21
28.016669
 31
0.0
 12
169.810082
 22
28.616574
 32
0.0
 13
169.810082
 23
28.616574
 33
0.0
  0
ENDBLK
  5
CA
100
AcDbEntity
  8
0
100
AcDbBlockEnd
  0
BLOCK
  5
CD
100
AcDbEntity
  8
0
100
AcDbBlockBegin
  2
*B13
 70
     0
 10
0.0
 20
0.0
 30
0.0
  3
*B13
  1

  0
LINE
  5
CE
100
AcDbEntity
  8
0
  6
Continuous
 62
     0
100
AcDbLine
 10
100.435018
 20
28.016669
 30
0.0
 11
140.35738
 21
28.016669
 31
0.0
  0
SOLID
  5
CF
100
AcDbEntity
  8
0
  6
Continuous
 62
     0
100
AcDbTrace
 10
103.935031
 20
27.416551
 30
0.0
 11
107.435043
 21
28.016669
 31
0.0
 12
103.935031
 22
28.616574
 32
0.0
 13
103.935031
 23
28.616574
 33
0.0
  0
SOLID
  5
D0
100
AcDbEntity
  8
0
  6
Continuous
 62
     0
100
AcDbTrace
 10
119.685086
 20
28.616574
 30
0.0
 11
116.185074
 21
28.016669
 31
0.0
 12
119.685086
 22
27.416551
 32
0.0
 13
119.685086
 23
27.416551
 33
0.0
  0
ENDBLK
  5
D1
100
AcDbEntity
  8
0
100
AcDbBlockEnd
  0
BLOCK
  5
D4
100
AcDbEntity
  8
0
100
AcDbBlockBegin
  2
*B14
 70
     0
 10
0.0
 20
0.0
 30
0.0
  3
*B14
  1

  0
LINE
  5
D5
100
AcDbEntity
  8
0
  6
Continuous
 62
     0
100
AcDbLine
 10
238.01805
 20
40.279033
 30
0.0
 11
238.01805
 21
70.27747
 31
0.0
  0
SOLID
  5
D6
100
AcDbEntity
  8
0
  6
Continuous
 62
     0
100
AcDbTrace
 10
237.418145
 20
43.778833
 30
0.0
 11
238.01805
 21
40.279033
 31
0.0
 12
238.618167
 22
43.778833
 32
0.0
 13
238.618167
 23
43.778833
 33
0.0
  0
SOLID
  5
D7
100
AcDbEntity
  8
0
  6
Continuous
 62
     0
100
AcDbTrace
 10
238.618167
 20
66.77767
 30
0.0
 11
238.01805
 21
70.27747
 31
0.0
 12
237.418145
 22
66.77767
 32
0.0
 13
237.418145
 23
66.77767
 33
0.0
  0
ENDBLK
  5
D8
100
AcDbEntity
  8
0
100
AcDbBlockEnd
  0
BLOCK
  5
DB
100
AcDbEntity
  8
0
100
AcDbBlockBegin
  2
*B15
 70
     0
 10
0.0
 20
0.0
 30
0.0
  3
*B15
  1

  0
LINE
  5
DC
100
AcDbEntity
  8
0
  6
Continuous
 62
     0
100
AcDbLine
 10
206.810031
 20
86.013293
 30
0.0
 11
224.1342
 21
86.013293
 31
0.0
  0
SOLID
  5
DD
100
AcDbEntity
  8
0
  6
Continuous
 62
     0
100
AcDbTrace
 10
210.310043
 20
85.413388
 30
0.0
 11
213.810056
 21
86.013293
 31
0.0
 12
210.310043
 22
86.613411
 32
0.0
 13
210.310043
 23
86.613411
 33
0.0
  0
SOLID
  5
DE
100
AcDbEntity
  8
0
  6
Continuous
 62
     0
100
AcDbTrace
 10
218.309981
 20
86.613411
 30
0.0
 11
214.809968
 21
86.013293
 31
0.0
 12
218.309981
 22
85.413388
 32
0.0
 13
218.309981
 23
85.413388
 33
0.0
  0
ENDBLK
  5
DF
100
AcDbEntity
  8
0
100
AcDbBlockEnd
  0
BLOCK
  5
E2
100
AcDbEntity
  8
0
100
AcDbBlockBegin
  2
*B16
 70
     0
 10
0.0
 20
0.0
 30
0.0
  3
*B16
  1

  0
LINE
  5
E3
100
AcDbEntity
  8
0
  6
Continuous
 62
     0
100
AcDbLine
 10
117.784254
 20
172.00853
 30
0.0
 11
149.10996
 21
172.00853
 31
0.0
  0
SOLID
  5
E4
100
AcDbEntity
  8
0
  6
Continuous
 62
     0
100
AcDbTrace
 10
132.009906
 20
171.408412
 30
0.0
 11
135.509918
 21
172.00853
 31
0.0
 12
132.009906
 22
172.608435
 32
0.0
 13
132.009906
 23
172.608435
 33
0.0
  0
SOLID
  5
E5
100
AcDbEntity
  8
0
  6
Continuous
 62
     0
100
AcDbTrace
 10
145.609948
 20
172.608435
 30
0.0
 11
142.109935
 21
172.00853
 31
0.0
 12
145.609948
 22
171.408412
 32
0.0
 13
145.609948
 23
171.408412
 33
0.0
  0
ENDBLK
  5
E6
100
AcDbEntity
  8
0
100
AcDbBlockEnd
  0
BLOCK
  5
E9
100
AcDbEntity
  8
0
100
AcDbBlockBegin
  2
*B17
 70
     0
 10
0.0
 20
0.0
 30
0.0
  3
*B17
  1

  0
LINE
  5
EA
100
AcDbEntity
  8
0
  6
Continuous
 62
     0
100
AcDbLine
 10
180.809969
 20
172.00853
 30
0.0
 11
213.810056
 21
172.00853
 31
0.0
  0
SOLID
  5
EB
100
AcDbEntity
  8
0
  6
Continuous
 62
     0
100
AcDbTrace
 10
184.309982
 20
172.608435
 30
0.0
 11
180.809969
 21
172.00853
 31
0.0
 12
184.309982
 22
171.408412
 32
0.0
 13
184.309982
 23
171.408412
 33
0.0
  0
SOLID
  5
EC
100
AcDbEntity
  8
0
  6
Continuous
 62
     0
100
AcDbTrace
 10
210.310043
 20
171.408412
 30
0.0
 11
213.810056
 21
172.00853
 31
0.0
 12
210.310043
 22
172.608435
 32
0.0
 13
210.310043
 23
172.608435
 33
0.0
  0
ENDBLK
  5
ED
100
AcDbEntity
  8
0
100
AcDbBlockEnd
  0
BLOCK
  5
F0
100
AcDbEntity
  8
0
100
AcDbBlockBegin
  2
*B18
 70
     0
 10
0.0
 20
0.0
 30
0.0
  3
*B18
  1

  0
LINE
  5
F1
100
AcDbEntity
  8
0
  6
Continuous
 62
     8
100
AcDbLine
 10
214.809968
 20
111.011955
 30
0.0
 11
240.018087
 21
111.011955
 31
0.0
  0
ENDBLK
  5
F2
100
AcDbEntity
  8
0
100
AcDbBlockEnd
  0
BLOCK
  5
F5
100
AcDbEntity
  8
0
100
AcDbBlockBegin
  2
*B19
 70
     0
 10
0.0
 20
0.0
 30
0.0
  3
*B19
  1

  0
LINE
  5
F6
100
AcDbEntity
  8
0
  6
Continuous
 62
     8
100
AcDbLine
 10
180.809969
 20
44.778746
 30
0.0
 11
180.809969
 21
53.778383
 31
0.0
  0
LINE
  5
F7
100
AcDbEntity
  8
0
  6
Continuous
 62
     8
100
AcDbLine
 10
180.809969
 20
56.778121
 30
0.0
 11
180.809969
 21
65.777545
 31
0.0
  0
ENDBLK
  5
F8
100
AcDbEntity
  8
0
100
AcDbBlockEnd
  0
BLOCK
  5
FB
100
AcDbEntity
  8
0
100
AcDbBlockBegin
  2
*B20
 70
     0
 10
0.0
 20
0.0
 30
0.0
  3
*B20
  1

  0
LINE
  5
FC
100
AcDbEntity
  8
0
  6
Continuous
 62
     8
100
AcDbLine
 10
180.809969
 20
170.008705
 30
0.0
 11
180.809969
 21
174.008355
 31
0.0
  0
LINE
  5
FD
100
AcDbEntity
  8
0
  6
Continuous
 62
     8
100
AcDbLine
 10
180.809969
 20
111.711915
 30
0.0
 11
180.809969
 21
116.51158
 31
0.0
  0
LINE
  5
FE
100
AcDbEntity
  8
0
  6
Continuous
 62
     8
100
AcDbLine
 10
180.809969
 20
119.51153
 30
0.0
 11
180.809969
 21
125.427732
 31
0.0
  0
LINE
  5
FF
100
AcDbEntity
  8
0
  6
Continuous
 62
     8
100
AcDbLine
 10
180.809969
 20
126.427645
 30
0.0
 11
180.809969
 21
127.42777
 31
0.0
  0
LINE
  5
100
100
AcDbEntity
  8
0
  6
Continuous
 62
     8
100
AcDbLine
 10
180.809969
 20
128.427682
 30
0.0
 11
180.809969
 21
134.343884
 31
0.0
  0
LINE
  5
101
100
AcDbEntity
  8
0
  6
Continuous
 62
     8
100
AcDbLine
 10
180.809969
 20
135.343797
 30
0.0
 11
180.809969
 21
136.343922
 31
0.0
  0
LINE
  5
102
100
AcDbEntity
  8
0
  6
Continuous
 62
     8
100
AcDbLine
 10
180.809969
 20
137.343834
 30
0.0
 11
180.809969
 21
143.260036
 31
0.0
  0
LINE
  5
103
100
AcDbEntity
  8
0
  6
Continuous
 62
     8
100
AcDbLine
 10
180.809969
 20
144.260161
 30
0.0
 11
180.809969
 21
145.260074
 31
0.0
  0
LINE
  5
104
100
AcDbEntity
  8
0
  6
Continuous
 62
     8
100
AcDbLine
 10
180.809969
 20
146.259986
 30
0.0
 11
180.809969
 21
152.176188
 31
0.0
  0
LINE
  5
105
100
AcDbEntity
  8
0
  6
Continuous
 62
     8
100
AcDbLine
 10
180.809969
 20
153.176313
 30
0.0
 11
180.809969
 21
154.176226
 31
0.0
  0
LINE
  5
106
100
AcDbEntity
  8
0
  6
Continuous
 62
     8
100
AcDbLine
 10
180.809969
 20
155.176138
 30
0.0
 11
180.809969
 21
161.09234
 31
0.0
  0
LINE
  5
107
100
AcDbEntity
  8
0
  6
Continuous
 62
     8
100
AcDbLine
 10
180.809969
 20
162.092465
 30
0.0
 11
180.809969
 21
163.092378
 31
0.0
  0
LINE
  5
108
100
AcDbEntity
  8
0
  6
Continuous
 62
     8
100
AcDbLine
 10
180.809969
 20
164.09229
 30
0.0
 11
180.809969
 21
170.008705
 31
0.0
  0
ENDBLK
  5
109
100
AcDbEntity
  8
0
100
AcDbBlockEnd
  0
BLOCK
  5
10C
100
AcDbEntity
  8
0
100
AcDbBlockBegin
  2
*B21
 70
     0
 10
0.0
 20
0.0
 30
0.0
  3
*B21
  1

  0
LINE
  5
10D
100
AcDbEntity
  8
0
  6
Continuous
 62
     8
100
AcDbLine
 10
214.809968
 20
161.009068
 30
0.0
 11
240.018087
 21
161.009068
 31
0.0
  0
ENDBLK
  5
10E
100
AcDbEntity
  8
0
100
AcDbBlockEnd
  0
BLOCK
  5
111
100
AcDbEntity
  8
0
100
AcDbBlockBegin
  2
*B22
 70
     0
 10
0.0
 20
0.0
 30
0.0
  3
*B22
  1

  0
LINE
  5
112
100
AcDbEntity
  8
0
  6
Continuous
 62
     8
100
AcDbLine
 10
119.809996
 20
96.012843
 30
0.0
 11
119.809996
 21
110.012043
 31
0.0
  0
ENDBLK
  5
113
100
AcDbEntity
  8
0
100
AcDbBlockEnd
  0
BLOCK
  5
116
100
AcDbEntity
  8
0
100
AcDbBlockBegin
  2
*B23
 70
     0
 10
0.0
 20
0.0
 30
0.0
  3
*B23
  1

  0
LINE
  5
117
100
AcDbEntity
  8
0
  6
Continuous
 62
     8
100
AcDbLine
 10
100.809959
 20
55.278146
 30
0.0
 11
110.310084
 21
55.278146
 31
0.0
  0
LINE
  5
118
100
AcDbEntity
  8
0
  6
Continuous
 62
     8
100
AcDbLine
 10
113.310034
 20
55.278146
 30
0.0
 11
118.509918
 21
55.278146
 31
0.0
  0
LINE
  5
119
100
AcDbEntity
  8
0
  6
Continuous
 62
     8
100
AcDbLine
 10
119.510043
 20
55.278146
 30
0.0
 11
120.509956
 21
55.278146
 31
0.0
  0
LINE
  5
11A
100
AcDbEntity
  8
0
  6
Continuous
 62
     8
100
AcDbLine
 10
121.510081
 20
55.278146
 30
0.0
 11
126.709966
 21
55.278146
 31
0.0
  0
LINE
  5
11B
100
AcDbEntity
  8
0
  6
Continuous
 62
     8
100
AcDbLine
 10
127.710091
 20
55.278146
 30
0.0
 11
128.710003
 21
55.278146
 31
0.0
  0
LINE
  5
11C
100
AcDbEntity
  8
0
  6
Continuous
 62
     8
100
AcDbLine
 10
129.709916
 20
55.278146
 30
0.0
 11
134.910013
 21
55.278146
 31
0.0
  0
LINE
  5
11D
100
AcDbEntity
  8
0
  6
Continuous
 62
     8
100
AcDbLine
 10
135.909925
 20
55.278146
 30
0.0
 11
136.91005
 21
55.278146
 31
0.0
  0
LINE
  5
11E
100
AcDbEntity
  8
0
  6
Continuous
 62
     8
100
AcDbLine
 10
137.909963
 20
55.278146
 30
0.0
 11
143.11006
 21
55.278146
 31
0.0
  0
LINE
  5
11F
100
AcDbEntity
  8
0
  6
Continuous
 62
     8
100
AcDbLine
 10
144.109973
 20
55.278146
 30
0.0
 11
145.110098
 21
55.278146
 31
0.0
  0
LINE
  5
120
100
AcDbEntity
  8
0
  6
Continuous
 62
     8
100
AcDbLine
 10
146.11001
 20
55.278146
 30
0.0
 11
151.309895
 21
55.278146
 31
0.0
  0
LINE
  5
121
100
AcDbEntity
  8
0
  6
Continuous
 62
     8
100
AcDbLine
 10
154.310057
 20
55.278146
 30
0.0
 11
160.643261
 21
55.278146
 31
0.0
  0
LINE
  5
122
100
AcDbEntity
  8
0
  6
Continuous
 62
     8
100
AcDbLine
 10
161.643386
 20
55.278146
 30
0.0
 11
162.643299
 21
55.278146
 31
0.0
  0
LINE
  5
123
100
AcDbEntity
  8
0
  6
Continuous
 62
     8
100
AcDbLine
 10
163.643211
 20
55.278146
 30
0.0
 11
169.976628
 21
55.278146
 31
0.0
  0
LINE
  5
124
100
AcDbEntity
  8
0
  6
Continuous
 62
     8
100
AcDbLine
 10
170.976753
 20
55.278146
 30
0.0
 11
171.976665
 21
55.278146
 31
0.0
  0
LINE
  5
125
100
AcDbEntity
  8
0
  6
Continuous
 62
     8
100
AcDbLine
 10
172.976578
 20
55.278146
 30
0.0
 11
179.309994
 21
55.278146
 31
0.0
  0
LINE
  5
126
100
AcDbEntity
  8
0
  6
Continuous
 62
     8
100
AcDbLine
 10
182.309944
 20
55.278146
 30
0.0
 11
188.684997
 21
55.278146
 31
0.0
  0
LINE
  5
127
100
AcDbEntity
  8
0
  6
Continuous
 62
     8
100
AcDbLine
 10
189.68491
 20
55.278146
 30
0.0
 11
190.685035
 21
55.278146
 31
0.0
  0
LINE
  5
128
100
AcDbEntity
  8
0
  6
Continuous
 62
     8
100
AcDbLine
 10
191.684947
 20
55.278146
 30
0.0
 11
198.06
 21
55.278146
 31
0.0
  0
LINE
  5
129
100
AcDbEntity
  8
0
  6
Continuous
 62
     8
100
AcDbLine
 10
199.059912
 20
55.278146
 30
0.0
 11
200.060037
 21
55.278146
 31
0.0
  0
LINE
  5
12A
100
AcDbEntity
  8
0
  6
Continuous
 62
     8
100
AcDbLine
 10
201.05995
 20
55.278146
 30
0.0
 11
207.435003
 21
55.278146
 31
0.0
  0
LINE
  5
12B
100
AcDbEntity
  8
0
  6
Continuous
 62
     8
100
AcDbLine
 10
208.434915
 20
55.278146
 30
0.0
 11
209.43504
 21
55.278146
 31
0.0
  0
LINE
  5
12C
100
AcDbEntity
  8
0
  6
Continuous
 62
     8
100
AcDbLine
 10
210.434953
 20
55.278146
 30
0.0
 11
216.810006
 21
55.278146
 31
0.0
  0
ENDBLK
  5
12D
100
AcDbEntity
  8
0
100
AcDbBlockEnd
  0
BLOCK
  5
130
100
AcDbEntity
  8
0
100
AcDbBlockBegin
  2
*B24
 70
     0
 10
0.0
 20
0.0
 30
0.0
  3
*B24
  1

  0
LINE
  5
131
100
AcDbEntity
  8
0
  6
Continuous
 62
     8
100
AcDbLine
 10
116.185074
 20
26.016631
 30
0.0
 11
116.185074
 21
54.278233
 31
0.0
  0
ENDBLK
  5
132
100
AcDbEntity
  8
0
100
AcDbBlockEnd
  0
BLOCK
  5
135
100
AcDbEntity
  8
0
100
AcDbBlockBegin
  2
*B25
 70
     0
 10
0.0
 20
0.0
 30
0.0
  3
*B25
  1

  0
LINE
  5
136
100
AcDbEntity
  8
0
  6
Continuous
 62
     8
100
AcDbLine
 10
138.810033
 20
96.012843
 30
0.0
 11
138.810033
 21
100.012493
 31
0.0
  0
LINE
  5
137
100
AcDbEntity
  8
0
  6
Continuous
 62
     8
100
AcDbLine
 10
138.810033
 20
100.012493
 30
0.0
 11
138.810033
 21
107.345397
 31
0.0
  0
LINE
  5
138
100
AcDbEntity
  8
0
  6
Continuous
 62
     8
100
AcDbLine
 10
138.810033
 20
108.34531
 30
0.0
 11
138.810033
 21
109.345435
 31
0.0
  0
LINE
  5
139
100
AcDbEntity
  8
0
  6
Continuous
 62
     8
100
AcDbLine
 10
138.810033
 20
110.345347
 30
0.0
 11
138.810033
 21
117.678251
 31
0.0
  0
LINE
  5
13A
100
AcDbEntity
  8
0
  6
Continuous
 62
     8
100
AcDbLine
 10
138.810033
 20
118.678164
 30
0.0
 11
138.810033
 21
119.678076
 31
0.0
  0
LINE
  5
13B
100
AcDbEntity
  8
0
  6
Continuous
 62
     8
100
AcDbLine
 10
138.810033
 20
120.677989
 30
0.0
 11
138.810033
 21
128.010893
 31
0.0
  0
ENDBLK
  5
13C
100
AcDbEntity
  8
0
100
AcDbBlockEnd
  0
BLOCK
  5
13F
100
AcDbEntity
  8
0
100
AcDbBlockBegin
  2
*B26
 70
     0
 10
0.0
 20
0.0
 30
0.0
  3
*B26
  1

  0
LINE
  5
140
100
AcDbEntity
  8
0
  6
Continuous
 62
     8
100
AcDbLine
 10
138.810033
 20
180.008042
 30
0.0
 11
138.810033
 21
184.007905
 31
0.0
  0
LINE
  5
141
100
AcDbEntity
  8
0
  6
Continuous
 62
     8
100
AcDbLine
 10
138.810033
 20
147.709828
 30
0.0
 11
138.810033
 21
152.509493
 31
0.0
  0
LINE
  5
142
100
AcDbEntity
  8
0
  6
Continuous
 62
     8
100
AcDbLine
 10
138.810033
 20
155.509443
 30
0.0
 11
138.810033
 21
161.675676
 31
0.0
  0
LINE
  5
143
100
AcDbEntity
  8
0
  6
Continuous
 62
     8
100
AcDbLine
 10
138.810033
 20
162.675588
 30
0.0
 11
138.810033
 21
163.675713
 31
0.0
  0
LINE
  5
144
100
AcDbEntity
  8
0
  6
Continuous
 62
     8
100
AcDbLine
 10
138.810033
 20
164.675626
 30
0.0
 11
138.810033
 21
170.841859
 31
0.0
  0
LINE
  5
145
100
AcDbEntity
  8
0
  6
Continuous
 62
     8
100
AcDbLine
 10
138.810033
 20
171.841772
 30
0.0
 11
138.810033
 21
172.841684
 31
0.0
  0
LINE
  5
146
100
AcDbEntity
  8
0
  6
Continuous
 62
     8
100
AcDbLine
 10
138.810033
 20
173.841597
 30
0.0
 11
138.810033
 21
180.008042
 31
0.0
  0
ENDBLK
  5
147
100
AcDbEntity
  8
0
100
AcDbBlockEnd
  0
BLOCK
  5
14A
100
AcDbEntity
  8
0
100
AcDbBlockBegin
  2
*B27
 70
     0
 10
0.0
 20
0.0
 30
0.0
  3
*B27
  1

  0
LINE
  5
14B
100
AcDbEntity
  8
0
  6
Continuous
 62
     8
100
AcDbLine
 10
188.310056
 20
26.016631
 30
0.0
 11
188.310056
 21
54.278233
 31
0.0
  0
ENDBLK
  5
14C
100
AcDbEntity
  8
0
100
AcDbBlockEnd
  0
BLOCK
  5
14F
100
AcDbEntity
  8
0
100
AcDbBlockBegin
  2
*B28
 70
     0
 10
0.0
 20
0.0
 30
0.0
  3
*B28
  1

  0
LINE
  5
150
100
AcDbEntity
  8
0
  6
Continuous
 62
     8
100
AcDbLine
 10
146.510018
 20
118.011555
 30
0.0
 11
151.309895
 21
118.011555
 31
0.0
  0
LINE
  5
151
100
AcDbEntity
  8
0
  6
Continuous
 62
     8
100
AcDbLine
 10
154.310057
 20
118.011555
 30
0.0
 11
159.109935
 21
118.011555
 31
0.0
  0
ENDBLK
  5
152
100
AcDbEntity
  8
0
100
AcDbBlockEnd
  0
BLOCK
  5
155
100
AcDbEntity
  8
0
100
AcDbBlockBegin
  2
*B29
 70
     0
 10
0.0
 20
0.0
 30
0.0
  3
*B29
  1

  0
LINE
  5
156
100
AcDbEntity
  8
0
  6
Continuous
 62
     8
100
AcDbLine
 10
224.018213
 20
118.011555
 30
0.0
 11
228.018075
 21
118.011555
 31
0.0
  0
LINE
  5
157
100
AcDbEntity
  8
0
  6
Continuous
 62
     8
100
AcDbLine
 10
174.509904
 20
118.011555
 30
0.0
 11
179.309994
 21
118.011555
 31
0.0
  0
LINE
  5
158
100
AcDbEntity
  8
0
  6
Continuous
 62
     8
100
AcDbLine
 10
182.309944
 20
118.011555
 30
0.0
 11
188.251638
 21
118.011555
 31
0.0
  0
LINE
  5
159
100
AcDbEntity
  8
0
  6
Continuous
 62
     8
100
AcDbLine
 10
189.25155
 20
118.011555
 30
0.0
 11
190.251675
 21
118.011555
 31
0.0
  0
LINE
  5
15A
100
AcDbEntity
  8
0
  6
Continuous
 62
     8
100
AcDbLine
 10
191.251588
 20
118.011555
 30
0.0
 11
197.193282
 21
118.011555
 31
0.0
  0
LINE
  5
15B
100
AcDbEntity
  8
0
  6
Continuous
 62
     8
100
AcDbLine
 10
198.193194
 20
118.011555
 30
0.0
 11
199.193319
 21
118.011555
 31
0.0
  0
LINE
  5
15C
100
AcDbEntity
  8
0
  6
Continuous
 62
     8
100
AcDbLine
 10
200.193232
 20
118.011555
 30
0.0
 11
206.134925
 21
118.011555
 31
0.0
  0
LINE
  5
15D
100
AcDbEntity
  8
0
  6
Continuous
 62
     8
100
AcDbLine
 10
207.134838
 20
118.011555
 30
0.0
 11
208.13475
 21
118.011555
 31
0.0
  0
LINE
  5
15E
100
AcDbEntity
  8
0
  6
Continuous
 62
     8
100
AcDbLine
 10
209.134875
 20
118.011555
 30
0.0
 11
215.076569
 21
118.011555
 31
0.0
  0
LINE
  5
15F
100
AcDbEntity
  8
0
  6
Continuous
 62
     8
100
AcDbLine
 10
216.076482
 20
118.011555
 30
0.0
 11
217.076394
 21
118.011555
 31
0.0
  0
LINE
  5
160
100
AcDbEntity
  8
0
  6
Continuous
 62
     8
100
AcDbLine
 10
218.076519
 20
118.011555
 30
0.0
 11
224.018213
 21
118.011555
 31
0.0
  0
ENDBLK
  5
161
100
AcDbEntity
  8
0
100
AcDbBlockEnd
  0
BLOCK
  5
164
100
AcDbEntity
  8
0
100
AcDbBlockBegin
  2
*B30
 70
     0
 10
0.0
 20
0.0
 30
0.0
  3
*B30
  1

  0
LINE
  5
165
100
AcDbEntity
  8
0
  6
Continuous
 62
     8
100
AcDbLine
 10
166.80992
 20
96.012843
 30
0.0
 11
166.80992
 21
100.012493
 31
0.0
  0
LINE
  5
166
100
AcDbEntity
  8
0
  6
Continuous
 62
     8
100
AcDbLine
 10
166.80992
 20
100.012493
 30
0.0
 11
166.80992
 21
107.345397
 31
0.0
  0
LINE
  5
167
100
AcDbEntity
  8
0
  6
Continuous
 62
     8
100
AcDbLine
 10
166.80992
 20
108.34531
 30
0.0
 11
166.80992
 21
109.345435
 31
0.0
  0
LINE
  5
168
100
AcDbEntity
  8
0
  6
Continuous
 62
     8
100
AcDbLine
 10
166.80992
 20
110.345347
 30
0.0
 11
166.80992
 21
117.678251
 31
0.0
  0
LINE
  5
169
100
AcDbEntity
  8
0
  6
Continuous
 62
     8
100
AcDbLine
 10
166.80992
 20
118.678164
 30
0.0
 11
166.80992
 21
119.678076
 31
0.0
  0
LINE
  5
16A
100
AcDbEntity
  8
0
  6
Continuous
 62
     8
100
AcDbLine
 10
166.80992
 20
120.677989
 30
0.0
 11
166.80992
 21
128.010893
 31
0.0
  0
ENDBLK
  5
16B
100
AcDbEntity
  8
0
100
AcDbBlockEnd
  0
BLOCK
  5
16E
100
AcDbEntity
  8
0
100
AcDbBlockBegin
  2
*B31
 70
     0
 10
0.0
 20
0.0
 30
0.0
  3
*B31
  1

  0
LINE
  5
16F
100
AcDbEntity
  8
0
  6
Continuous
 62
     8
100
AcDbLine
 10
194.810019
 20
180.008042
 30
0.0
 11
194.810019
 21
184.007905
 31
0.0
  0
LINE
  5
170
100
AcDbEntity
  8
0
  6
Continuous
 62
     8
100
AcDbLine
 10
194.810019
 20
147.709828
 30
0.0
 11
194.810019
 21
152.509493
 31
0.0
  0
LINE
  5
171
100
AcDbEntity
  8
0
  6
Continuous
 62
     8
100
AcDbLine
 10
194.810019
 20
155.509443
 30
0.0
 11
194.810019
 21
161.675676
 31
0.0
  0
LINE
  5
172
100
AcDbEntity
  8
0
  6
Continuous
 62
     8
100
AcDbLine
 10
194.810019
 20
162.675588
 30
0.0
 11
194.810019
 21
163.675713
 31
0.0
  0
LINE
  5
173
100
AcDbEntity
  8
0
  6
Continuous
 62
     8
100
AcDbLine
 10
194.810019
 20
164.675626
 30
0.0
 11
194.810019
 21
170.841859
 31
0.0
  0
LINE
  5
174
100
AcDbEntity
  8
0
  6
Continuous
 62
     8
100
AcDbLine
 10
194.810019
 20
171.841772
 30
0.0
 11
194.810019
 21
172.841684
 31
0.0
  0
LINE
  5
175
100
AcDbEntity
  8
0
  6
Continuous
 62
     8
100
AcDbLine
 10
194.810019
 20
173.841597
 30
0.0
 11
194.810019
 21
180.008042
 31
0.0
  0
ENDBLK
  5
176
100
AcDbEntity
  8
0
100
AcDbBlockEnd
  0
BLOCK
  5
179
100
AcDbEntity
  8
0
100
AcDbBlockBegin
  2
*B32
 70
     0
 10
0.0
 20
0.0
 30
0.0
  3
*B32
  1

  0
LINE
  5
17A
100
AcDbEntity
  8
0
  6
Continuous
 62
     8
100
AcDbLine
 10
214.809968
 20
70.27747
 30
0.0
 11
240.018087
 21
70.27747
 31
0.0
  0
ENDBLK
  5
17B
100
AcDbEntity
  8
0
100
AcDbBlockEnd
  0
BLOCK
  5
17E
100
AcDbEntity
  8
0
100
AcDbBlockBegin
  2
*B33
 70
     0
 10
0.0
 20
0.0
 30
0.0
  3
*B33
  1

  0
LINE
  5
17F
100
AcDbEntity
  8
0
  6
Continuous
 62
     8
100
AcDbLine
 10
224.018213
 20
154.009468
 30
0.0
 11
228.018075
 21
154.009468
 31
0.0
  0
LINE
  5
180
100
AcDbEntity
  8
0
  6
Continuous
 62
     8
100
AcDbLine
 10
188.509954
 20
154.009468
 30
0.0
 11
193.310044
 21
154.009468
 31
0.0
  0
LINE
  5
181
100
AcDbEntity
  8
0
  6
Continuous
 62
     8
100
AcDbLine
 10
196.309994
 20
154.009468
 30
0.0
 11
203.546029
 21
154.009468
 31
0.0
  0
LINE
  5
182
100
AcDbEntity
  8
0
  6
Continuous
 62
     8
100
AcDbLine
 10
204.545942
 20
154.009468
 30
0.0
 11
205.546067
 21
154.009468
 31
0.0
  0
LINE
  5
183
100
AcDbEntity
  8
0
  6
Continuous
 62
     8
100
AcDbLine
 10
206.545979
 20
154.009468
 30
0.0
 11
213.782015
 21
154.009468
 31
0.0
  0
LINE
  5
184
100
AcDbEntity
  8
0
  6
Continuous
 62
     8
100
AcDbLine
 10
214.78214
 20
154.009468
 30
0.0
 11
215.782052
 21
154.009468
 31
0.0
  0
LINE
  5
185
100
AcDbEntity
  8
0
  6
Continuous
 62
     8
100
AcDbLine
 10
216.781965
 20
154.009468
 30
0.0
 11
224.018213
 21
154.009468
 31
0.0
  0
ENDBLK
  5
186
100
AcDbEntity
  8
0
100
AcDbBlockEnd
  0
BLOCK
  5
189
100
AcDbEntity
  8
0
100
AcDbBlockBegin
  2
*B34
 70
     0
 10
0.0
 20
0.0
 30
0.0
  3
*B34
  1

  0
LINE
  5
18A
100
AcDbEntity
  8
0
  6
Continuous
 62
     8
100
AcDbLine
 10
111.810059
 20
148.00978
 30
0.0
 11
111.810059
 21
154.50953
 31
0.0
  0
LINE
  5
18B
100
AcDbEntity
  8
0
  6
Continuous
 62
     8
100
AcDbLine
 10
111.810059
 20
155.509443
 30
0.0
 11
111.810059
 21
156.509355
 31
0.0
  0
LINE
  5
18C
100
AcDbEntity
  8
0
  6
Continuous
 62
     8
100
AcDbLine
 10
111.810059
 20
157.509268
 30
0.0
 11
111.810059
 21
164.009017
 31
0.0
  0
ENDBLK
  5
18D
100
AcDbEntity
  8
0
100
AcDbBlockEnd
  0
BLOCK
  5
190
100
AcDbEntity
  8
0
100
AcDbBlockBegin
  2
*B35
 70
     0
 10
0.0
 20
0.0
 30
0.0
  3
*B35
  1

  0
LINE
  5
191
100
AcDbEntity
  8
0
  6
Continuous
 62
     8
100
AcDbLine
 10
111.810059
 20
47.903605
 30
0.0
 11
111.810059
 21
53.778383
 31
0.0
  0
LINE
  5
192
100
AcDbEntity
  8
0
  6
Continuous
 62
     8
100
AcDbLine
 10
111.810059
 20
56.778121
 30
0.0
 11
111.810059
 21
62.652899
 31
0.0
  0
ENDBLK
  5
193
100
AcDbEntity
  8
0
100
AcDbBlockEnd
  0
BLOCK
  5
196
100
AcDbEntity
  8
0
100
AcDbBlockBegin
  2
*B36
 70
     0
 10
0.0
 20
0.0
 30
0.0
  3
*B36
  1

  0
LINE
  5
197
100
AcDbEntity
  8
0
  6
Continuous
 62
     8
100
AcDbLine
 10
132.509968
 20
154.009468
 30
0.0
 11
137.310058
 21
154.009468
 31
0.0
  0
LINE
  5
198
100
AcDbEntity
  8
0
  6
Continuous
 62
     8
100
AcDbLine
 10
140.310008
 20
154.009468
 30
0.0
 11
145.110098
 21
154.009468
 31
0.0
  0
ENDBLK
  5
199
100
AcDbEntity
  8
0
100
AcDbBlockEnd
  0
BLOCK
  5
19C
100
AcDbEntity
  8
0
100
AcDbBlockBegin
  2
*B37
 70
     0
 10
0.0
 20
0.0
 30
0.0
  3
*B37
  1

  0
LINE
  5
19D
100
AcDbEntity
  8
0
  6
Continuous
 62
     8
100
AcDbLine
 10
135.509918
 20
155.00938
 30
0.0
 11
135.509918
 21
174.008355
 31
0.0
  0
ENDBLK
  5
19E
100
AcDbEntity
  8
0
100
AcDbBlockEnd
  0
BLOCK
  5
1A1
100
AcDbEntity
  8
0
100
AcDbBlockBegin
  2
*B38
 70
     0
 10
0.0
 20
0.0
 30
0.0
  3
*B38
  1

  0
LINE
  5
1A2
100
AcDbEntity
  8
0
  6
Continuous
 62
     8
100
AcDbLine
 10
103.809909
 20
84.013468
 30
0.0
 11
103.809909
 21
110.012043
 31
0.0
  0
ENDBLK
  5
1A3
100
AcDbEntity
  8
0
100
AcDbBlockEnd
  0
BLOCK
  5
1A6
100
AcDbEntity
  8
0
100
AcDbBlockBegin
  2
*B39
 70
     0
 10
0.0
 20
0.0
 30
0.0
  3
*B39
  1

  0
LINE
  5
1A7
100
AcDbEntity
  8
0
  6
Continuous
 62
     8
100
AcDbLine
 10
152.810082
 20
44.778746
 30
0.0
 11
152.810082
 21
53.778383
 31
0.0
  0
LINE
  5
1A8
100
AcDbEntity
  8
0
  6
Continuous
 62
     8
100
AcDbLine
 10
152.810082
 20
56.778121
 30
0.0
 11
152.810082
 21
65.777545
 31
0.0
  0
ENDBLK
  5
1A9
100
AcDbEntity
  8
0
100
AcDbBlockEnd
  0
BLOCK
  5
1AC
100
AcDbEntity
  8
0
100
AcDbBlockBegin
  2
*B40
 70
     0
 10
0.0
 20
0.0
 30
0.0
  3
*B40
  1

  0
LINE
  5
1AD
100
AcDbEntity
  8
0
  6
Continuous
 62
     8
100
AcDbLine
 10
100.809959
 20
136.010405
 30
0.0
 11
106.310009
 21
136.010405
 31
0.0
  0
LINE
  5
1AE
100
AcDbEntity
  8
0
  6
Continuous
 62
     8
100
AcDbLine
 10
107.309921
 20
136.010405
 30
0.0
 11
108.310046
 21
136.010405
 31
0.0
  0
LINE
  5
1AF
100
AcDbEntity
  8
0
  6
Continuous
 62
     8
100
AcDbLine
 10
109.309959
 20
136.010405
 30
0.0
 11
114.810009
 21
136.010405
 31
0.0
  0
LINE
  5
1B0
100
AcDbEntity
  8
0
  6
Continuous
 62
     8
100
AcDbLine
 10
115.809921
 20
136.010405
 30
0.0
 11
116.810046
 21
136.010405
 31
0.0
  0
LINE
  5
1B1
100
AcDbEntity
  8
0
  6
Continuous
 62
     8
100
AcDbLine
 10
117.809958
 20
136.010405
 30
0.0
 11
123.310008
 21
136.010405
 31
0.0
  0
LINE
  5
1B2
100
AcDbEntity
  8
0
  6
Continuous
 62
     8
100
AcDbLine
 10
124.309921
 20
136.010405
 30
0.0
 11
125.310046
 21
136.010405
 31
0.0
  0
LINE
  5
1B3
100
AcDbEntity
  8
0
  6
Continuous
 62
     8
100
AcDbLine
 10
126.309958
 20
136.010405
 30
0.0
 11
131.810008
 21
136.010405
 31
0.0
  0
LINE
  5
1B4
100
AcDbEntity
  8
0
  6
Continuous
 62
     8
100
AcDbLine
 10
132.809921
 20
136.010405
 30
0.0
 11
133.810045
 21
136.010405
 31
0.0
  0
LINE
  5
1B5
100
AcDbEntity
  8
0
  6
Continuous
 62
     8
100
AcDbLine
 10
134.809958
 20
136.010405
 30
0.0
 11
140.310008
 21
136.010405
 31
0.0
  0
LINE
  5
1B6
100
AcDbEntity
  8
0
  6
Continuous
 62
     8
100
AcDbLine
 10
141.30992
 20
136.010405
 30
0.0
 11
142.310045
 21
136.010405
 31
0.0
  0
LINE
  5
1B7
100
AcDbEntity
  8
0
  6
Continuous
 62
     8
100
AcDbLine
 10
143.309958
 20
136.010405
 30
0.0
 11
148.810008
 21
136.010405
 31
0.0
  0
LINE
  5
1B8
100
AcDbEntity
  8
0
  6
Continuous
 62
     8
100
AcDbLine
 10
149.80992
 20
136.010405
 30
0.0
 11
150.810045
 21
136.010405
 31
0.0
  0
LINE
  5
1B9
100
AcDbEntity
  8
0
  6
Continuous
 62
     8
100
AcDbLine
 10
151.809958
 20
136.010405
 30
0.0
 11
157.310007
 21
136.010405
 31
0.0
  0
LINE
  5
1BA
100
AcDbEntity
  8
0
  6
Continuous
 62
     8
100
AcDbLine
 10
158.30992
 20
136.010405
 30
0.0
 11
159.310045
 21
136.010405
 31
0.0
  0
LINE
  5
1BB
100
AcDbEntity
  8
0
  6
Continuous
 62
     8
100
AcDbLine
 10
160.309957
 20
136.010405
 30
0.0
 11
165.810007
 21
136.010405
 31
0.0
  0
LINE
  5
1BC
100
AcDbEntity
  8
0
  6
Continuous
 62
     8
100
AcDbLine
 10
166.80992
 20
136.010405
 30
0.0
 11
167.810045
 21
136.010405
 31
0.0
  0
LINE
  5
1BD
100
AcDbEntity
  8
0
  6
Continuous
 62
     8
100
AcDbLine
 10
168.809957
 20
136.010405
 30
0.0
 11
174.310007
 21
136.010405
 31
0.0
  0
LINE
  5
1BE
100
AcDbEntity
  8
0
  6
Continuous
 62
     8
100
AcDbLine
 10
175.309919
 20
136.010405
 30
0.0
 11
176.310044
 21
136.010405
 31
0.0
  0
LINE
  5
1BF
100
AcDbEntity
  8
0
  6
Continuous
 62
     8
100
AcDbLine
 10
177.309957
 20
136.010405
 30
0.0
 11
182.810007
 21
136.010405
 31
0.0
  0
LINE
  5
1C0
100
AcDbEntity
  8
0
  6
Continuous
 62
     8
100
AcDbLine
 10
183.809919
 20
136.010405
 30
0.0
 11
184.810044
 21
136.010405
 31
0.0
  0
LINE
  5
1C1
100
AcDbEntity
  8
0
  6
Continuous
 62
     8
100
AcDbLine
 10
185.809957
 20
136.010405
 30
0.0
 11
191.310006
 21
136.010405
 31
0.0
  0
LINE
  5
1C2
100
AcDbEntity
  8
0
  6
Continuous
 62
     8
100
AcDbLine
 10
192.309919
 20
136.010405
 30
0.0
 11
193.310044
 21
136.010405
 31
0.0
  0
LINE
  5
1C3
100
AcDbEntity
  8
0
  6
Continuous
 62
     8
100
AcDbLine
 10
194.309956
 20
136.010405
 30
0.0
 11
199.810006
 21
136.010405
 31
0.0
  0
LINE
  5
1C4
100
AcDbEntity
  8
0
  6
Continuous
 62
     8
100
AcDbLine
 10
200.809919
 20
136.010405
 30
0.0
 11
201.810044
 21
136.010405
 31
0.0
  0
LINE
  5
1C5
100
AcDbEntity
  8
0
  6
Continuous
 62
     8
100
AcDbLine
 10
202.809956
 20
136.010405
 30
0.0
 11
208.310006
 21
136.010405
 31
0.0
  0
LINE
  5
1C6
100
AcDbEntity
  8
0
  6
Continuous
 62
     8
100
AcDbLine
 10
209.309918
 20
136.010405
 30
0.0
 11
210.310043
 21
136.010405
 31
0.0
  0
LINE
  5
1C7
100
AcDbEntity
  8
0
  6
Continuous
 62
     8
100
AcDbLine
 10
211.309956
 20
136.010405
 30
0.0
 11
216.810006
 21
136.010405
 31
0.0
  0
ENDBLK
  5
1C8
100
AcDbEntity
  8
0
100
AcDbBlockEnd
  0
BLOCK
  5
1CB
100
AcDbEntity
  8
0
100
AcDbBlockBegin
  2
*B41
 70
     0
 10
0.0
 20
0.0
 30
0.0
  3
*B41
  1

  0
LINE
  5
1CC
100
AcDbEntity
  8
0
  6
Continuous
 62
     8
100
AcDbLine
 10
194.810019
 20
96.012843
 30
0.0
 11
194.810019
 21
100.012493
 31
0.0
  0
LINE
  5
1CD
100
AcDbEntity
  8
0
  6
Continuous
 62
     8
100
AcDbLine
 10
194.810019
 20
100.012493
 30
0.0
 11
194.810019
 21
107.345397
 31
0.0
  0
LINE
  5
1CE
100
AcDbEntity
  8
0
  6
Continuous
 62
     8
100
AcDbLine
 10
194.810019
 20
108.34531
 30
0.0
 11
194.810019
 21
109.345435
 31
0.0
  0
LINE
  5
1CF
100
AcDbEntity
  8
0
  6
Continuous
 62
     8
100
AcDbLine
 10
194.810019
 20
110.345347
 30
0.0
 11
194.810019
 21
117.678251
 31
0.0
  0
LINE
  5
1D0
100
AcDbEntity
  8
0
  6
Continuous
 62
     8
100
AcDbLine
 10
194.810019
 20
118.678164
 30
0.0
 11
194.810019
 21
119.678076
 31
0.0
  0
LINE
  5
1D1
100
AcDbEntity
  8
0
  6
Continuous
 62
     8
100
AcDbLine
 10
194.810019
 20
120.677989
 30
0.0
 11
194.810019
 21
128.010893
 31
0.0
  0
ENDBLK
  5
1D2
100
AcDbEntity
  8
0
100
AcDbBlockEnd
  0
BLOCK
  5
1D5
100
AcDbEntity
  8
0
100
AcDbBlockBegin
  2
*B42
 70
     0
 10
0.0
 20
0.0
 30
0.0
  3
*B42
  1

  0
LINE
  5
1D6
100
AcDbEntity
  8
0
  6
Continuous
 62
     8
100
AcDbLine
 10
214.809968
 20
40.279033
 30
0.0
 11
240.018087
 21
40.279033
 31
0.0
  0
ENDBLK
  5
1D7
100
AcDbEntity
  8
0
100
AcDbBlockEnd
  0
BLOCK
  5
1DA
100
AcDbEntity
  8
0
100
AcDbBlockBegin
  2
*B43
 70
     0
 10
0.0
 20
0.0
 30
0.0
  3
*B43
  1

  0
LINE
  5
1DB
100
AcDbEntity
  8
0
  6
Continuous
 62
     8
100
AcDbLine
 10
213.810056
 20
84.013468
 30
0.0
 11
213.810056
 21
110.012043
 31
0.0
  0
LINE
  5
1DC
100
AcDbEntity
  8
0
  6
Continuous
 62
     8
100
AcDbLine
 10
213.810056
 20
162.00898
 30
0.0
 11
213.810056
 21
174.008355
 31
0.0
  0
ENDBLK
  5
1DD
100
AcDbEntity
  8
0
100
AcDbBlockEnd
  0
BLOCK
  5
1E0
100
AcDbEntity
  8
0
100
AcDbBlockBegin
  2
*B44
 70
     0
 10
0.0
 20
0.0
 30
0.0
  3
*B44
  1

  0
LINE
  5
1E1
100
AcDbEntity
  8
0
  6
Continuous
 62
     8
100
AcDbLine
 10
142.109935
 20
155.00938
 30
0.0
 11
142.109935
 21
174.008355
 31
0.0
  0
ENDBLK
  5
1E2
100
AcDbEntity
  8
0
100
AcDbBlockEnd
  0
BLOCK
  5
1E5
100
AcDbEntity
  8
0
100
AcDbBlockBegin
  2
*B45
 70
     0
 10
0.0
 20
0.0
 30
0.0
  3
*B45
  1

  0
LINE
  5
1E6
100
AcDbEntity
  8
0
  6
Continuous
 62
     8
100
AcDbLine
 10
173.309882
 20
26.016631
 30
0.0
 11
173.309882
 21
54.278233
 31
0.0
  0
ENDBLK
  5
1E7
100
AcDbEntity
  8
0
100
AcDbBlockEnd
  0
BLOCK
  5
1EA
100
AcDbEntity
  8
0
100
AcDbBlockBegin
  2
*B46
 70
     0
 10
0.0
 20
0.0
 30
0.0
  3
*B46
  1

  0
LINE
  5
1EB
100
AcDbEntity
  8
0
  6
Continuous
 62
     8
100
AcDbLine
 10
214.809968
 20
84.013468
 30
0.0
 11
214.809968
 21
126.011068
 31
0.0
  0
ENDBLK
  5
1EC
100
AcDbEntity
  8
0
100
AcDbBlockEnd
  0
BLOCK
  5
1EF
100
AcDbEntity
  8
0
100
AcDbBlockBegin
  2
*B47
 70
     0
 10
0.0
 20
0.0
 30
0.0
  3
*B47
  1

  0
LINE
  5
1F0
100
AcDbEntity
  8
0
  6
Continuous
 62
     8
100
AcDbLine
 10
152.810082
 20
170.008705
 30
0.0
 11
152.810082
 21
174.008355
 31
0.0
  0
LINE
  5
1F1
100
AcDbEntity
  8
0
  6
Continuous
 62
     8
100
AcDbLine
 10
152.810082
 20
111.711915
 30
0.0
 11
152.810082
 21
116.51158
 31
0.0
  0
LINE
  5
1F2
100
AcDbEntity
  8
0
  6
Continuous
 62
     8
100
AcDbLine
 10
152.810082
 20
119.51153
 30
0.0
 11
152.810082
 21
125.427732
 31
0.0
  0
LINE
  5
1F3
100
AcDbEntity
  8
0
  6
Continuous
 62
     8
100
AcDbLine
 10
152.810082
 20
126.427645
 30
0.0
 11
152.810082
 21
127.42777
 31
0.0
  0
LINE
  5
1F4
100
AcDbEntity
  8
0
  6
Continuous
 62
     8
100
AcDbLine
 10
152.810082
 20
128.427682
 30
0.0
 11
152.810082
 21
134.343884
 31
0.0
  0
LINE
  5
1F5
100
AcDbEntity
  8
0
  6
Continuous
 62
     8
100
AcDbLine
 10
152.810082
 20
135.343797
 30
0.0
 11
152.810082
 21
136.343922
 31
0.0
  0
LINE
  5
1F6
100
AcDbEntity
  8
0
  6
Continuous
 62
     8
100
AcDbLine
 10
152.810082
 20
137.343834
 30
0.0
 11
152.810082
 21
143.260036
 31
0.0
  0
LINE
  5
1F7
100
AcDbEntity
  8
0
  6
Continuous
 62
     8
100
AcDbLine
 10
152.810082
 20
144.260161
 30
0.0
 11
152.810082
 21
145.260074
 31
0.0
  0
LINE
  5
1F8
100
AcDbEntity
  8
0
  6
Continuous
 62
     8
100
AcDbLine
 10
152.810082
 20
146.259986
 30
0.0
 11
152.810082
 21
152.176188
 31
0.0
  0
LINE
  5
1F9
100
AcDbEntity
  8
0
  6
Continuous
 62
     8
100
AcDbLine
 10
152.810082
 20
153.176313
 30
0.0
 11
152.810082
 21
154.176226
 31
0.0
  0
LINE
  5
1FA
100
AcDbEntity
  8
0
  6
Continuous
 62
     8
100
AcDbLine
 10
152.810082
 20
155.176138
 30
0.0
 11
152.810082
 21
161.09234
 31
0.0
  0
LINE
  5
1FB
100
AcDbEntity
  8
0
  6
Continuous
 62
     8
100
AcDbLine
 10
152.810082
 20
162.092465
 30
0.0
 11
152.810082
 21
163.092378
 31
0.0
  0
LINE
  5
1FC
100
AcDbEntity
  8
0
  6
Continuous
 62
     8
100
AcDbLine
 10
152.810082
 20
164.09229
 30
0.0
 11
152.810082
 21
170.008705
 31
0.0
  0
ENDBLK
  5
1FD
100
AcDbEntity
  8
0
100
AcDbBlockEnd
  0
BLOCK
  5
200
100
AcDbEntity
  8
0
100
AcDbBlockBegin
  2
*B48
 70
     0
 10
0.0
 20
0.0
 30
0.0
  3
*B48
  1

  0
LINE
  5
201
100
AcDbEntity
  8
0
  6
Continuous
 62
     8
100
AcDbLine
 10
107.435043
 20
26.016631
 30
0.0
 11
107.435043
 21
54.278233
 31
0.0
  0
ENDBLK
  5
202
100
AcDbEntity
  8
0
100
AcDbBlockEnd
  0
BLOCK
  5
205
100
AcDbEntity
  8
0
100
AcDbBlockBegin
  2
*B49
 70
     0
 10
0.0
 20
0.0
 30
0.0
  3
*B49
  1

  0
LINE
  5
206
100
AcDbEntity
  8
0
  6
Continuous
 62
     6
100
AcDbLine
 10
194.810019
 20
153.509618
 30
0.0
 11
194.810019
 21
154.50953
 31
0.0
  0
LINE
  5
207
100
AcDbEntity
  8
0
  6
Continuous
 62
     6
100
AcDbLine
 10
194.309956
 20
154.009468
 30
0.0
 11
195.309869
 21
154.009468
 31
0.0
  0
ENDBLK
  5
208
100
AcDbEntity
  8
0
100
AcDbBlockEnd
  0
BLOCK
  5
20B
100
AcDbEntity
  8
0
100
AcDbBlockBegin
  2
*B50
 70
     0
 10
0.0
 20
0.0
 30
0.0
  3
*B50
  1

  0
LINE
  5
20C
100
AcDbEntity
  8
0
  6
Continuous
 62
     6
100
AcDbLine
 10
180.809969
 20
117.511493
 30
0.0
 11
180.809969
 21
118.511405
 31
0.0
  0
LINE
  5
20D
100
AcDbEntity
  8
0
  6
Continuous
 62
     6
100
AcDbLine
 10
180.309907
 20
118.011555
 30
0.0
 11
181.310032
 21
118.011555
 31
0.0
  0
ENDBLK
  5
20E
100
AcDbEntity
  8
0
100
AcDbBlockEnd
  0
BLOCK
  5
211
100
AcDbEntity
  8
0
100
AcDbBlockBegin
  2
*B51
 70
     0
 10
0.0
 20
0.0
 30
0.0
  3
*B51
  1

  0
LINE
  5
212
100
AcDbEntity
  8
0
  6
Continuous
 62
     6
100
AcDbLine
 10
152.31002
 20
118.011555
 30
0.0
 11
153.309932
 21
118.011555
 31
0.0
  0
LINE
  5
213
100
AcDbEntity
  8
0
  6
Continuous
 62
     6
100
AcDbLine
 10
152.810082
 20
117.511493
 30
0.0
 11
152.810082
 21
118.511405
 31
0.0
  0
ENDBLK
  5
214
100
AcDbEntity
  8
0
100
AcDbBlockEnd
  0
BLOCK
  5
217
100
AcDbEntity
  8
0
100
AcDbBlockBegin
  2
*B52
 70
     0
 10
0.0
 20
0.0
 30
0.0
  3
*B52
  1

  0
LINE
  5
218
100
AcDbEntity
  8
0
  6
Continuous
 62
     6
100
AcDbLine
 10
138.810033
 20
153.509618
 30
0.0
 11
138.810033
 21
154.50953
 31
0.0
  0
LINE
  5
219
100
AcDbEntity
  8
0
  6
Continuous
 62
     6
100
AcDbLine
 10
138.30997
 20
154.009468
 30
0.0
 11
139.310095
 21
154.009468
 31
0.0
  0
ENDBLK
  5
21A
100
AcDbEntity
  8
0
100
AcDbBlockEnd
  0
BLOCK
  5
21D
100
AcDbEntity
  8
0
100
AcDbBlockBegin
  2
*B53
 70
     0
 10
0.0
 20
0.0
 30
0.0
  3
*B53
  1

  0
LINE
  5
21E
100
AcDbEntity
  8
0
  6
Continuous
 62
     6
100
AcDbLine
 10
152.31002
 20
55.278146
 30
0.0
 11
153.309932
 21
55.278146
 31
0.0
  0
LINE
  5
21F
100
AcDbEntity
  8
0
  6
Continuous
 62
     6
100
AcDbLine
 10
152.810082
 20
54.778296
 30
0.0
 11
152.810082
 21
55.778208
 31
0.0
  0
ENDBLK
  5
220
100
AcDbEntity
  8
0
100
AcDbBlockEnd
  0
BLOCK
  5
223
100
AcDbEntity
  8
0
100
AcDbBlockBegin
  2
*B54
 70
     0
 10
0.0
 20
0.0
 30
0.0
  3
*B54
  1

  0
LINE
  5
224
100
AcDbEntity
  8
0
  6
Continuous
 62
     6
100
AcDbLine
 10
111.309996
 20
55.278146
 30
0.0
 11
112.309909
 21
55.278146
 31
0.0
  0
LINE
  5
225
100
AcDbEntity
  8
0
  6
Continuous
 62
     6
100
AcDbLine
 10
111.810059
 20
54.778296
 30
0.0
 11
111.810059
 21
55.778208
 31
0.0
  0
ENDBLK
  5
226
100
AcDbEntity
  8
0
100
AcDbBlockEnd
  0
BLOCK
  5
229
100
AcDbEntity
  8
0
100
AcDbBlockBegin
  2
*B55
 70
     0
 10
0.0
 20
0.0
 30
0.0
  3
*B55
  1

  0
LINE
  5
22A
100
AcDbEntity
  8
0
  6
Continuous
 62
     6
100
AcDbLine
 10
180.809969
 20
54.778296
 30
0.0
 11
180.809969
 21
55.778208
 31
0.0
  0
LINE
  5
22B
100
AcDbEntity
  8
0
  6
Continuous
 62
     6
100
AcDbLine
 10
180.309907
 20
55.278146
 30
0.0
 11
181.310032
 21
55.278146
 31
0.0
  0
ENDBLK
  5
22C
100
AcDbEntity
  8
0
100
AcDbBlockEnd
  0
BLOCK
  5
22F
100
AcDbEntity
  8
0
100
AcDbBlockBegin
  2
*B56
 70
     0
 10
0.0
 20
0.0
 30
0.0
  3
*B56
  1

  0
TEXT
  5
230
100
AcDbEntity
  8
TEXT
  6
Continuous
 62
     0
100
AcDbText
 10
164.73575
 20
115.5
 30
0.0
 40
5.0
  1
1
100
AcDbText
  0
ENDBLK
  5
231
100
AcDbEntity
  8
0
100
AcDbBlockEnd
  0
BLOCK
  5
234
100
AcDbEntity
  8
0
100
AcDbBlockBegin
  2
*B57
 70
     0
 10
0.0
 20
0.0
 30
0.0
  3
*B57
  1

  0
TEXT
  5
235
100
AcDbEntity
  8
TEXT
  6
Continuous
 62
     0
100
AcDbText
 10
151.23575
 20
152.5
 30
0.0
 40
5.0
  1
4
100
AcDbText
  0
ENDBLK
  5
236
100
AcDbEntity
  8
0
100
AcDbBlockEnd
  0
BLOCK
  5
239
100
AcDbEntity
  8
0
100
AcDbBlockBegin
  2
*B58
 70
     0
 10
0.0
 20
0.0
 30
0.0
  3
*B58
  1

  0
TEXT
  5
23A
100
AcDbEntity
  8
TEXT
  6
Continuous
 62
     0
100
AcDbText
 10
137.23575
 20
115.5
 30
0.0
 40
5.0
  1
5
100
AcDbText
  0
ENDBLK
  5
23B
100
AcDbEntity
  8
0
100
AcDbBlockEnd
  0
BLOCK
  5
23E
100
AcDbEntity
  8
0
100
AcDbBlockBegin
  2
*B59
 70
     0
 10
0.0
 20
0.0
 30
0.0
  3
*B59
  1

  0
TEXT
  5
23F
100
AcDbEntity
  8
TEXT
  6
Continuous
 62
     0
100
AcDbText
 10
122.471499
 20
134.0
 30
0.0
 40
5.0
  1
14
100
AcDbText
  0
ENDBLK
  5
240
100
AcDbEntity
  8
0
100
AcDbBlockEnd
  0
BLOCK
  5
243
100
AcDbEntity
  8
0
100
AcDbBlockBegin
  2
*B60
 70
     0
 10
0.0
 20
0.0
 30
0.0
  3
*B60
  1

  0
TEXT
  5
244
100
AcDbEntity
  8
TEXT
  6
Continuous
 62
     0
100
AcDbText
 10
204.471499
 20
134.5
 30
0.0
 40
5.0
  1
12
100
AcDbText
  0
ENDBLK
  5
245
100
AcDbEntity
  8
0
100
AcDbBlockEnd
  0
BLOCK
  5
248
100
AcDbEntity
  8
0
100
AcDbBlockBegin
  2
*B61
 70
     0
 10
0.0
 20
0.0
 30
0.0
  3
*B61
  1

  0
TEXT
  5
249
100
AcDbEntity
  8
TEXT
  6
Continuous
 62
     0
100
AcDbText
 10
193.23575
 20
115.5
 30
0.0
 40
5.0
  1
3
100
AcDbText
  0
ENDBLK
  5
24A
100
AcDbEntity
  8
0
100
AcDbBlockEnd
  0
BLOCK
  5
24D
100
AcDbEntity
  8
0
100
AcDbBlockBegin
  2
*B62
 70
     0
 10
0.0
 20
0.0
 30
0.0
  3
*B62
  1

  0
TEXT
  5
24E
100
AcDbEntity
  8
TEXT
  6
Continuous
 62
     0
100
AcDbText
 10
179.23575
 20
152.5
 30
0.0
 40
5.0
  1
2
100
AcDbText
  0
ENDBLK
  5
24F
100
AcDbEntity
  8
0
100
AcDbBlockEnd
  0
BLOCK
  5
252
100
AcDbEntity
  8
0
100
AcDbBlockBegin
  2
*B63
 70
     0
 10
0.0
 20
0.0
 30
0.0
  3
*B63
  1

  0
TEXT
  5
253
100
AcDbEntity
  8
TEXT
  6
Continuous
 62
     0
100
AcDbText
 10
164.497223
 20
173.5
 30
0.0
 40
3.0
  1
28
100
AcDbText
  0
ENDBLK
  5
254
100
AcDbEntity
  8
0
100
AcDbBlockEnd
  0
BLOCK
  5
257
100
AcDbEntity
  8
0
100
AcDbBlockBegin
  2
*B64
 70
     0
 10
0.0
 20
0.0
 30
0.0
  3
*B64
  1

  0
TEXT
  5
258
100
AcDbEntity
  8
TEXT
  6
Continuous
 62
     0
100
AcDbText
 10
164.497223
 20
183.5
 30
0.0
 40
3.0
  1
56
100
AcDbText
  0
ENDBLK
  5
259
100
AcDbEntity
  8
0
100
AcDbBlockEnd
  0
BLOCK
  5
25C
100
AcDbEntity
  8
0
100
AcDbBlockBegin
  2
*B65
 70
     0
 10
0.0
 20
0.0
 30
0.0
  3
*B65
  1

  0
TEXT
  5
25D
100
AcDbEntity
  8
TEXT
  6
Continuous
 62
     0
100
AcDbText
 10
224.5
 20
133.705356
 30
0.0
 40
3.0
  1
36
 50
90.0
100
AcDbText
  0
ENDBLK
  5
25E
100
AcDbEntity
  8
0
100
AcDbBlockEnd
  0
BLOCK
  5
261
100
AcDbEntity
  8
0
100
AcDbBlockBegin
  2
*B66
 70
     0
 10
0.0
 20
0.0
 30
0.0
  3
*B66
  1

  0
TEXT
  5
262
100
AcDbEntity
  8
TEXT
  6
Continuous
 62
     0
100
AcDbText
 10
236.5
 20
133.705356
 30
0.0
 40
3.0
  1
50
 50
90.0
100
AcDbText
  0
ENDBLK
  5
263
100
AcDbEntity
  8
0
100
AcDbBlockEnd
  0
BLOCK
  5
266
100
AcDbEntity
  8
0
100
AcDbBlockBegin
  2
*B67
 70
     0
 10
0.0
 20
0.0
 30
0.0
  3
*B67
  1

  0
TEXT
  5
267
100
AcDbEntity
  8
TEXT
  6
Continuous
 62
     0
100
AcDbText
 10
201.997223
 20
99.5
 30
0.0
 40
3.0
  1
19
100
AcDbText
  0
ENDBLK
  5
268
100
AcDbEntity
  8
0
100
AcDbBlockEnd
  0
BLOCK
  5
26B
100
AcDbEntity
  8
0
100
AcDbBlockBegin
  2
*B68
 70
     0
 10
0.0
 20
0.0
 30
0.0
  3
*B68
  1

  0
TEXT
  5
26C
100
AcDbEntity
  8
TEXT
  6
Continuous
 62
     0
100
AcDbText
 10
178.497223
 20
99.5
 30
0.0
 40
3.0
  1
28
100
AcDbText
  0
ENDBLK
  5
26D
100
AcDbEntity
  8
0
100
AcDbBlockEnd
  0
BLOCK
  5
270
100
AcDbEntity
  8
0
100
AcDbBlockBegin
  2
*B69
 70
     0
 10
0.0
 20
0.0
 30
0.0
  3
*B69
  1

  0
TEXT
  5
271
100
AcDbEntity
  8
TEXT
  6
Continuous
 62
     0
100
AcDbText
 10
150.497223
 20
99.5
 30
0.0
 40
3.0
  1
28
100
AcDbText
  0
ENDBLK
  5
272
100
AcDbEntity
  8
0
100
AcDbBlockEnd
  0
BLOCK
  5
275
100
AcDbEntity
  8
0
100
AcDbBlockBegin
  2
*B70
 70
     0
 10
0.0
 20
0.0
 30
0.0
  3
*B70
  1

  0
TEXT
  5
276
100
AcDbEntity
  8
TEXT
  6
Continuous
 62
     0
100
AcDbText
 10
126.997223
 20
99.5
 30
0.0
 40
3.0
  1
19
100
AcDbText
  0
ENDBLK
  5
277
100
AcDbEntity
  8
0
100
AcDbBlockEnd
  0
BLOCK
  5
27A
100
AcDbEntity
  8
0
100
AcDbBlockBegin
  2
*B71
 70
     0
 10
0.0
 20
0.0
 30
0.0
  3
*B71
  1

  0
TEXT
  5
27B
100
AcDbEntity
  8
TEXT
  6
Continuous
 62
     0
100
AcDbText
 10
155.068652
 20
87.5
 30
0.0
 40
3.0
  1
110
100
AcDbText
  0
ENDBLK
  5
27C
100
AcDbEntity
  8
0
100
AcDbBlockEnd
  0
BLOCK
  5
27F
100
AcDbEntity
  8
0
100
AcDbBlockBegin
  2
*B72
 70
     0
 10
0.0
 20
0.0
 30
0.0
  3
*B72
  1

  0
TEXT
  5
280
100
AcDbEntity
  8
TEXT
  6
Continuous
 62
     0
100
AcDbText
 10
192.785714
 20
29.5
 30
0.0
 40
3.0
  1
G 3/8"
100
AcDbText
  0
ENDBLK
  5
281
100
AcDbEntity
  8
0
100
AcDbBlockEnd
  0
BLOCK
  5
284
100
AcDbEntity
  8
0
100
AcDbBlockBegin
  2
*B73
 70
     0
 10
0.0
 20
0.0
 30
0.0
  3
*B73
  1

  0
TEXT
  5
285
100
AcDbEntity
  8
TEXT
  6
Continuous
 62
     0
100
AcDbText
 10
122.785714
 20
29.5
 30
0.0
 40
3.0
  1
G 1/8"
100
AcDbText
  0
ENDBLK
  5
286
100
AcDbEntity
  8
0
100
AcDbBlockEnd
  0
BLOCK
  5
289
100
AcDbEntity
  8
0
100
AcDbBlockBegin
  2
*B74
 70
     0
 10
0.0
 20
0.0
 30
0.0
  3
*B74
  1

  0
TEXT
  5
28A
100
AcDbEntity
  8
TEXT
  6
Continuous
 62
     0
100
AcDbText
 10
236.5
 20
52.968516
 30
0.0
 40
3.0
  1
30
 50
90.0
100
AcDbText
  0
ENDBLK
  5
28B
100
AcDbEntity
  8
0
100
AcDbBlockEnd
  0
BLOCK
  5
28E
100
AcDbEntity
  8
0
100
AcDbBlockBegin
  2
*B75
 70
     0
 10
0.0
 20
0.0
 30
0.0
  3
*B75
  1

  0
TEXT
  5
28F
100
AcDbEntity
  8
TEXT
  6
Continuous
 62
     0
100
AcDbText
 10
220.133929
 20
87.5
 30
0.0
 40
3.0
  1
1
100
AcDbText
  0
ENDBLK
  5
290
100
AcDbEntity
  8
0
100
AcDbBlockEnd
  0
BLOCK
  5
293
100
AcDbEntity
  8
0
100
AcDbBlockBegin
  2
*B76
 70
     0
 10
0.0
 20
0.0
 30
0.0
  3
*B76
  1

  0
TEXT
  5
294
100
AcDbEntity
  8
TEXT
  6
Continuous
 62
     0
100
AcDbText
 10
118.891071
 20
173.5
 30
0.0
 40
3.0
  1
%%c6,6
100
AcDbText
  0
ENDBLK
  5
295
100
AcDbEntity
  8
0
100
AcDbBlockEnd
  0
BLOCK
  5
298
100
AcDbEntity
  8
0
100
AcDbBlockBegin
  2
*B77
 70
     0
 10
0.0
 20
0.0
 30
0.0
  3
*B77
  1

  0
TEXT
  5
299
100
AcDbEntity
  8
TEXT
  6
Continuous
 62
     0
100
AcDbText
 10
194.997223
 20
173.5
 30
0.0
 40
3.0
  1
33
100
AcDbText
  0
ENDBLK
  5
29A
100
AcDbEntity
  8
0
100
AcDbBlockEnd
  0
ENDSEC
  0
SECTION
  2
ENTITIES
  0
INSERT
  5
6F
100
AcDbEntity
  8
0
  6
HIDDEN
 62
   174
100
AcDbBlockReference
  2
*B1
 10
0.0
 20
0.0
 30
0.0
  0
INSERT
  5
85
100
AcDbEntity
  8
0
  6
Continuous
 62
   174
100
AcDbBlockReference
  2
*B2
 10
0.0
 20
0.0
 30
0.0
  0
INSERT
  5
8C
100
AcDbEntity
  8
0
  6
Continuous
 62
     0
100
AcDbBlockReference
  2
*B3
 10
0.0
 20
0.0
 30
0.0
  0
INSERT
  5
93
100
AcDbEntity
  8
0
  6
Continuous
 62
     0
100
AcDbBlockReference
  2
*B4
 10
0.0
 20
0.0
 30
0.0
  0
INSERT
  5
9A
100
AcDbEntity
  8
0
  6
Continuous
 62
     0
100
AcDbBlockReference
  2
*B5
 10
0.0
 20
0.0
 30
0.0
  0
INSERT
  5
A1
100
AcDbEntity
  8
0
  6
Continuous
 62
     0
100
AcDbBlockReference
  2
*B6
 10
0.0
 20
0.0
 30
0.0
  0
INSERT
  5
A8
100
AcDbEntity
  8
0
  6
Continuous
 62
     0
100
AcDbBlockReference
  2
*B7
 10
0.0
 20
0.0
 30
0.0
  0
INSERT
  5
AF
100
AcDbEntity
  8
0
  6
Continuous
 62
     0
100
AcDbBlockReference
  2
*B8
 10
0.0
 20
0.0
 30
0.0
  0
INSERT
  5
B6
100
AcDbEntity
  8
0
  6
Continuous
 62
     0
100
AcDbBlockReference
  2
*B9
 10
0.0
 20
0.0
 30
0.0
  0
INSERT
  5
BD
100
AcDbEntity
  8
0
  6
Continuous
 62
     0
100
AcDbBlockReference
  2
*B10
 10
0.0
 20
0.0
 30
0.0
  0
INSERT
  5
C4
100
AcDbEntity
  8
0
  6
Continuous
 62
     0
100
AcDbBlockReference
  2
*B11
 10
0.0
 20
0.0
 30
0.0
  0
INSERT
  5
CB
100
AcDbEntity
  8
0
  6
Continuous
 62
     0
100
AcDbBlockReference
  2
*B12
 10
0.0
 20
0.0
 30
0.0
  0
INSERT
  5
D2
100
AcDbEntity
  8
0
  6
Continuous
 62
     0
100
AcDbBlockReference
  2
*B13
 10
0.0
 20
0.0
 30
0.0
  0
INSERT
  5
D9
100
AcDbEntity
  8
0
  6
Continuous
 62
     0
100
AcDbBlockReference
  2
*B14
 10
0.0
 20
0.0
 30
0.0
  0
INSERT
  5
E0
100
AcDbEntity
  8
0
  6
Continuous
 62
     0
100
AcDbBlockReference
  2
*B15
 10
0.0
 20
0.0
 30
0.0
  0
INSERT
  5
E7
100
AcDbEntity
  8
0
  6
Continuous
 62
     0
100
AcDbBlockReference
  2
*B16
 10
0.0
 20
0.0
 30
0.0
  0
INSERT
  5
EE
100
AcDbEntity
  8
0
  6
Continuous
 62
     0
100
AcDbBlockReference
  2
*B17
 10
0.0
 20
0.0
 30
0.0
  0
INSERT
  5
F3
100
AcDbEntity
  8
0
  6
Continuous
 62
     8
100
AcDbBlockReference
  2
*B18
 10
0.0
 20
0.0
 30
0.0
  0
INSERT
  5
F9
100
AcDbEntity
  8
0
  6
Continuous
 62
     8
100
AcDbBlockReference
  2
*B19
 10
0.0
 20
0.0
 30
0.0
  0
INSERT
  5
10A
100
AcDbEntity
  8
0
  6
Continuous
 62
     8
100
AcDbBlockReference
  2
*B20
 10
0.0
 20
0.0
 30
0.0
  0
INSERT
  5
10F
100
AcDbEntity
  8
0
  6
Continuous
 62
     8
100
AcDbBlockReference
  2
*B21
 10
0.0
 20
0.0
 30
0.0
  0
INSERT
  5
114
100
AcDbEntity
  8
0
  6
Continuous
 62
     8
100
AcDbBlockReference
  2
*B22
 10
0.0
 20
0.0
 30
0.0
  0
INSERT
  5
12E
100
AcDbEntity
  8
0
  6
Continuous
 62
     8
100
AcDbBlockReference
  2
*B23
 10
0.0
 20
0.0
 30
0.0
  0
INSERT
  5
133
100
AcDbEntity
  8
0
  6
Continuous
 62
     8
100
AcDbBlockReference
  2
*B24
 10
0.0
 20
0.0
 30
0.0
  0
INSERT
  5
13D
100
AcDbEntity
  8
0
  6
Continuous
 62
     8
100
AcDbBlockReference
  2
*B25
 10
0.0
 20
0.0
 30
0.0
  0
INSERT
  5
148
100
AcDbEntity
  8
0
  6
Continuous
 62
     8
100
AcDbBlockReference
  2
*B26
 10
0.0
 20
0.0
 30
0.0
  0
INSERT
  5
14D
100
AcDbEntity
  8
0
  6
Continuous
 62
     8
100
AcDbBlockReference
  2
*B27
 10
0.0
 20
0.0
 30
0.0
  0
INSERT
  5
153
100
AcDbEntity
  8
0
  6
Continuous
 62
     8
100
AcDbBlockReference
  2
*B28
 10
0.0
 20
0.0
 30
0.0
  0
INSERT
  5
162
100
AcDbEntity
  8
0
  6
Continuous
 62
     8
100
AcDbBlockReference
  2
*B29
 10
0.0
 20
0.0
 30
0.0
  0
INSERT
  5
16C
100
AcDbEntity
  8
0
  6
Continuous
 62
     8
100
AcDbBlockReference
  2
*B30
 10
0.0
 20
0.0
 30
0.0
  0
INSERT
  5
177
100
AcDbEntity
  8
0
  6
Continuous
 62
     8
100
AcDbBlockReference
  2
*B31
 10
0.0
 20
0.0
 30
0.0
  0
INSERT
  5
17C
100
AcDbEntity
  8
0
  6
Continuous
 62
     8
100
AcDbBlockReference
  2
*B32
 10
0.0
 20
0.0
 30
0.0
  0
INSERT
  5
187
100
AcDbEntity
  8
0
  6
Continuous
 62
     8
100
AcDbBlockReference
  2
*B33
 10
0.0
 20
0.0
 30
0.0
  0
INSERT
  5
18E
100
AcDbEntity
  8
0
  6
Continuous
 62
     8
100
AcDbBlockReference
  2
*B34
 10
0.0
 20
0.0
 30
0.0
  0
INSERT
  5
194
100
AcDbEntity
  8
0
  6
Continuous
 62
     8
100
AcDbBlockReference
  2
*B35
 10
0.0
 20
0.0
 30
0.0
  0
INSERT
  5
19A
100
AcDbEntity
  8
0
  6
Continuous
 62
     8
100
AcDbBlockReference
  2
*B36
 10
0.0
 20
0.0
 30
0.0
  0
INSERT
  5
19F
100
AcDbEntity
  8
0
  6
Continuous
 62
     8
100
AcDbBlockReference
  2
*B37
 10
0.0
 20
0.0
 30
0.0
  0
INSERT
  5
1A4
100
AcDbEntity
  8
0
  6
Continuous
 62
     8
100
AcDbBlockReference
  2
*B38
 10
0.0
 20
0.0
 30
0.0
  0
INSERT
  5
1AA
100
AcDbEntity
  8
0
  6
Continuous
 62
     8
100
AcDbBlockReference
  2
*B39
 10
0.0
 20
0.0
 30
0.0
  0
INSERT
  5
1C9
100
AcDbEntity
  8
0
  6
Continuous
 62
     8
100
AcDbBlockReference
  2
*B40
 10
0.0
 20
0.0
 30
0.0
  0
INSERT
  5
1D3
100
AcDbEntity
  8
0
  6
Continuous
 62
     8
100
AcDbBlockReference
  2
*B41
 10
0.0
 20
0.0
 30
0.0
  0
INSERT
  5
1D8
100
AcDbEntity
  8
0
  6
Continuous
 62
     8
100
AcDbBlockReference
  2
*B42
 10
0.0
 20
0.0
 30
0.0
  0
INSERT
  5
1DE
100
AcDbEntity
  8
0
  6
Continuous
 62
     8
100
AcDbBlockReference
  2
*B43
 10
0.0
 20
0.0
 30
0.0
  0
INSERT
  5
1E3
100
AcDbEntity
  8
0
  6
Continuous
 62
     8
100
AcDbBlockReference
  2
*B44
 10
0.0
 20
0.0
 30
0.0
  0
INSERT
  5
1E8
100
AcDbEntity
  8
0
  6
Continuous
 62
     8
100
AcDbBlockReference
  2
*B45
 10
0.0
 20
0.0
 30
0.0
  0
INSERT
  5
1ED
100
AcDbEntity
  8
0
  6
Continuous
 62
     8
100
AcDbBlockReference
  2
*B46
 10
0.0
 20
0.0
 30
0.0
  0
INSERT
  5
1FE
100
AcDbEntity
  8
0
  6
Continuous
 62
     8
100
AcDbBlockReference
  2
*B47
 10
0.0
 20
0.0
 30
0.0
  0
INSERT
  5
203
100
AcDbEntity
  8
0
  6
Continuous
 62
     8
100
AcDbBlockReference
  2
*B48
 10
0.0
 20
0.0
 30
0.0
  0
INSERT
  5
209
100
AcDbEntity
  8
0
  6
Continuous
 62
     6
100
AcDbBlockReference
  2
*B49
 10
0.0
 20
0.0
 30
0.0
  0
INSERT
  5
20F
100
AcDbEntity
  8
0
  6
Continuous
 62
     6
100
AcDbBlockReference
  2
*B50
 10
0.0
 20
0.0
 30
0.0
  0
INSERT
  5
215
100
AcDbEntity
  8
0
  6
Continuous
 62
     6
100
AcDbBlockReference
  2
*B51
 10
0.0
 20
0.0
 30
0.0
  0
INSERT
  5
21B
100
AcDbEntity
  8
0
  6
Continuous
 62
     6
100
AcDbBlockReference
  2
*B52
 10
0.0
 20
0.0
 30
0.0
  0
INSERT
  5
221
100
AcDbEntity
  8
0
  6
Continuous
 62
     6
100
AcDbBlockReference
  2
*B53
 10
0.0
 20
0.0
 30
0.0
  0
INSERT
  5
227
100
AcDbEntity
  8
0
  6
Continuous
 62
     6
100
AcDbBlockReference
  2
*B54
 10
0.0
 20
0.0
 30
0.0
  0
INSERT
  5
22D
100
AcDbEntity
  8
0
  6
Continuous
 62
     6
100
AcDbBlockReference
  2
*B55
 10
0.0
 20
0.0
 30
0.0
  0
INSERT
  5
232
100
AcDbEntity
  8
TEXT
  6
Continuous
 62
     0
100
AcDbBlockReference
  2
*B56
 10
0.0
 20
0.0
 30
0.0
  0
INSERT
  5
237
100
AcDbEntity
  8
TEXT
  6
Continuous
 62
     0
100
AcDbBlockReference
  2
*B57
 10
0.0
 20
0.0
 30
0.0
  0
INSERT
  5
23C
100
AcDbEntity
  8
TEXT
  6
Continuous
 62
     0
100
AcDbBlockReference
  2
*B58
 10
0.0
 20
0.0
 30
0.0
  0
INSERT
  5
241
100
AcDbEntity
  8
TEXT
  6
Continuous
 62
     0
100
AcDbBlockReference
  2
*B59
 10
0.0
 20
0.0
 30
0.0
  0
INSERT
  5
246
100
AcDbEntity
  8
TEXT
  6
Continuous
 62
     0
100
AcDbBlockReference
  2
*B60
 10
0.0
 20
0.0
 30
0.0
  0
INSERT
  5
24B
100
AcDbEntity
  8
TEXT
  6
Continuous
 62
     0
100
AcDbBlockReference
  2
*B61
 10
0.0
 20
0.0
 30
0.0
  0
INSERT
  5
250
100
AcDbEntity
  8
TEXT
  6
Continuous
 62
     0
100
AcDbBlockReference
  2
*B62
 10
0.0
 20
0.0
 30
0.0
  0
INSERT
  5
255
100
AcDbEntity
  8
TEXT
  6
Continuous
 62
     0
100
AcDbBlockReference
  2
*B63
 10
0.0
 20
0.0
 30
0.0
  0
INSERT
  5
25A
100
AcDbEntity
  8
TEXT
  6
Continuous
 62
     0
100
AcDbBlockReference
  2
*B64
 10
0.0
 20
0.0
 30
0.0
  0
INSERT
  5
25F
100
AcDbEntity
  8
TEXT
  6
Continuous
 62
     0
100
AcDbBlockReference
  2
*B65
 10
0.0
 20
0.0
 30
0.0
  0
INSERT
  5
264
100
AcDbEntity
  8
TEXT
  6
Continuous
 62
     0
100
AcDbBlockReference
  2
*B66
 10
0.0
 20
0.0
 30
0.0
  0
INSERT
  5
269
100
AcDbEntity
  8
TEXT
  6
Continuous
 62
     0
100
AcDbBlockReference
  2
*B67
 10
0.0
 20
0.0
 30
0.0
  0
INSERT
  5
26E
100
AcDbEntity
  8
TEXT
  6
Continuous
 62
     0
100
AcDbBlockReference
  2
*B68
 10
0.0
 20
0.0
 30
0.0
  0
INSERT
  5
273
100
AcDbEntity
  8
TEXT
  6
Continuous
 62
     0
100
AcDbBlockReference
  2
*B69
 10
0.0
 20
0.0
 30
0.0
  0
INSERT
  5
278
100
AcDbEntity
  8
TEXT
  6
Continuous
 62
     0
100
AcDbBlockReference
  2
*B70
 10
0.0
 20
0.0
 30
0.0
  0
INSERT
  5
27D
100
AcDbEntity
  8
TEXT
  6
Continuous
 62
     0
100
AcDbBlockReference
  2
*B71
 10
0.0
 20
0.0
 30
0.0
  0
INSERT
  5
282
100
AcDbEntity
  8
TEXT
  6
Continuous
 62
     0
100
AcDbBlockReference
  2
*B72
 10
0.0
 20
0.0
 30
0.0
  0
INSERT
  5
287
100
AcDbEntity
  8
TEXT
  6
Continuous
 62
     0
100
AcDbBlockReference
  2
*B73
 10
0.0
 20
0.0
 30
0.0
  0
INSERT
  5
28C
100
AcDbEntity
  8
TEXT
  6
Continuous
 62
     0
100
AcDbBlockReference
  2
*B74
 10
0.0
 20
0.0
 30
0.0
  0
INSERT
  5
291
100
AcDbEntity
  8
TEXT
  6
Continuous
 62
     0
100
AcDbBlockReference
  2
*B75
 10
0.0
 20
0.0
 30
0.0
  0
INSERT
  5
296
100
AcDbEntity
  8
TEXT
  6
Continuous
 62
     0
100
AcDbBlockReference
  2
*B76
 10
0.0
 20
0.0
 30
0.0
  0
INSERT
  5
29B
100
AcDbEntity
  8
TEXT
  6
Continuous
 62
     0
100
AcDbBlockReference
  2
*B77
 10
0.0
 20
0.0
 30
0.0
  0
ENDSEC
  0
SECTION
  2
OBJECTS
  0
DICTIONARY
  5
19
100
AcDbDictionary
280
     0
281
     1
  3
ACAD_GROUP
350
1A
  3
ACAD_MLINESTYLE
350
1B
  3
ACAD_LAYOUT
350
1E
  3
ACAD_PLOTSETTINGS
350
22
  3
ACAD_PLOTSTYLENAME
350
1F
  3
ACAD_WIPEOUT_VARS
350
23
  0
DICTIONARY
  5
1A
102
{ACAD_REACTORS
330
19
102
}
100
AcDbDictionary
280
     0
281
     1
  0
DICTIONARY
  5
1B
102
{ACAD_REACTORS
330
19
102
}
100
AcDbDictionary
280
     0
281
     1
  3
Standard
350
1C
  0
MLINESTYLE
  5
1C
102
{ACAD_REACTORS
330
1B
102
}
100
AcDbMlineStyle
  2
Standard
 70
     0
  3

 62
     0
 51
90.0
 52
90.0
 71
     2
 49
0.5
 62
   256
  6
BYLAYER
 49
-0.5
 62
   256
  6
BYLAYER
  0
ACDBDICTIONARYWDFLT
  5
1F
102
{ACAD_REACTORS
330
19
102
}
100
AcDbDictionary
281
     1
  3
Normal
350
1D
100
AcDbDictionaryWithDefault
340
1D
  0
ACDBPLACEHOLDER
  5
1D
102
{ACAD_REACTORS
330
1F
102
}
  0
LAYOUT
  5
20
102
{ACAD_REACTORS
330
1E
102
}
100
AcDbPlotSettings
  1

  2

  4

  6

 40
0.0
 41
0.0
 42
0.0
 43
0.0
 44
0.0
 45
0.0
 46
0.0
 47
0.0
 48
0.0
 49
0.0
140
0.0
141
0.0
142
1.0
143
1.0
 70
     0
 72
     0
 73
     0
 74
     0
  7

 75
     0
147
1.0
148
0.0
149
0.0
100
AcDbLayout
  1
Model
 70
     0
 71
     0
 10
0.0
 20
0.0
 11
0.0
 21
0.0
 12
0.0
 22
0.0
 32
0.0
 14
0.0
 24
0.0
 34
0.0
 15
0.0
 25
0.0
 35
0.0
146
0.0
 13
0.0
 23
0.0
 33
0.0
 16
0.0
 26
0.0
 36
0.0
 17
0.0
 27
0.0
 37
0.0
 76
     0
330
A
331
0
345
0
346
0
  0
LAYOUT
  5
21
102
{ACAD_REACTORS
330
1E
102
}
100
AcDbPlotSettings
  1

  2

  4

  6

 40
0.0
 41
0.0
 42
0.0
 43
0.0
 44
0.0
 45
0.0
 46
0.0
 47
0.0
 48
0.0
 49
0.0
140
0.0
141
0.0
142
1.0
143
1.0
 70
     0
 72
     0
 73
     0
 74
     0
  7

 75
     0
147
1.0
148
0.0
149
0.0
100
AcDbLayout
  1
Layout1
 70
     0
 71
     0
 10
0.0
 20
0.0
 11
0.0
 21
0.0
 12
0.0
 22
0.0
 32
0.0
 14
0.0
 24
0.0
 34
0.0
 15
0.0
 25
0.0
 35
0.0
146
0.0
 13
0.0
 23
0.0
 33
0.0
 16
0.0
 26
0.0
 36
0.0
 17
0.0
 27
0.0
 37
0.0
 76
     0
330
B
331
0
345
0
346
0
  0
DICTIONARY
  5
1E
102
{ACAD_REACTORS
330
19
102
}
100
AcDbDictionary
280
     0
281
     1
  3
Layout1
350
21
  3
Model
350
20
  0
DICTIONARY
  5
22
102
{ACAD_REACTORS
330
19
102
}
100
AcDbDictionary
280
     0
281
     1
  0
WIPEOUTVARIABLES
  5
23
100
AcDbWipeoutVariables
 70
     1
  0
ENDSEC
  0
EOF
