  0
SECTION
  2
HEADER
  9
$ACADVER
  1
AC1015
  9
$ACADMAINTVER
 70
     6
  9
$DWGCODEPAGE
  3
DOS850
  9
$INSBASE
 10
0.0
 20
0.0
 30
0.0
  9
$EXTMIN
 10
0.0
 20
0.0
 30
0.0
  9
$EXTMAX
 10
297.0
 20
210.0
 30
0.0
  9
$LIMMIN
 10
0.0
 20
0.0
  9
$LIMMAX
 10
297.0
 20
210.0
  9
$ORTHOMODE
 70
     0
  9
$REGENMODE
 70
     1
  9
$FILLMODE
 70
     1
  9
$QTEXTMODE
 70
     0
  9
$MIRRTEXT
 70
     1
  9
$LTSCALE
 40
25.4
  9
$ATTMODE
 70
     1
  9
$TEXTSIZE
 40
3.5
  9
$TRACEWID
 40
0.05
  9
$TEXTSTYLE
  7
Standard
  9
$CLAYER
  8
0
  9
$CELTYPE
  6
Continuous
  9
$CECOLOR
 62
   256
  9
$CELTSCALE
 40
1.0
  9
$DISPSILH
 70
     0
  9
$DIMSCALE
 40
1.0
  9
$DIMASZ
 40
5.0
  9
$DIMEXO
 40
3.0
  9
$DIMDLI
 40
0.38
  9
$DIMRND
 40
0.0
  9
$DIMDLE
 40
0.0
  9
$DIMEXE
 40
2.0
  9
$DIMTP
 40
0.0
  9
$DIMTM
 40
0.0
  9
$DIMTXT
 40
3.5
  9
$DIMCEN
 40
4.0
  9
$DIMTSZ
 40
0.0
  9
$DIMTOL
 70
     0
  9
$DIMLIM
 70
     0
  9
$DIMTIH
 70
     1
  9
$DIMTOH
 70
     1
  9
$DIMSE1
 70
     0
  9
$DIMSE2
 70
     0
  9
$DIMTAD
 70
     0
  9
$DIMZIN
 70
     0
  9
$DIMBLK
  1

  9
$DIMASO
 70
     1
  9
$DIMSHO
 70
     1
  9
$DIMPOST
  1

  9
$DIMAPOST
  1

  9
$DIMALT
 70
     0
  9
$DIMALTD
 70
     2
  9
$DIMALTF
 40
25.4
  9
$DIMLFAC
 40
1.0
  9
$DIMTOFL
 70
     0
  9
$DIMTVP
 40
0.0
  9
$DIMTIX
 70
     0
  9
$DIMSOXD
 70
     0
  9
$DIMSAH
 70
     0
  9
$DIMBLK1
  1

  9
$DIMBLK2
  1

  9
$DIMSTYLE
  2
Standard
  9
$DIMCLRD
 70
     0
  9
$DIMCLRE
 70
     0
  9
$DIMCLRT
 70
     0
  9
$DIMTFAC
 40
1.0
  9
$DIMGAP
 40
1.0
  9
$DIMJUST
 70
     0
  9
$DIMSD1
 70
     0
  9
$DIMSD2
 70
     0
  9
$DIMTOLJ
 70
     1
  9
$DIMTZIN
 70
     0
  9
$DIMALTZ
 70
     0
  9
$DIMALTTZ
 70
     0
  9
$DIMUPT
 70
     0
  9
$DIMDEC
 70
     4
  9
$DIMTDEC
 70
     4
  9
$DIMALTU
 70
     2
  9
$DIMALTTD
 70
     2
  9
$DIMTXSTY
  7
Standard
  9
$DIMAUNIT
 70
     0
  9
$DIMADEC
 70
     0
  9
$DIMALTRND
 40
0.0
  9
$DIMAZIN
 70
     0
  9
$DIMDSEP
 70
     0
  9
$DIMATFIT
 70
     3
  9
$DIMFRAC
 70
     0
  9
$DIMLDRBLK
  1

  9
$DIMLUNIT
 70
     2
  9
$DIMLWD
 70
     0
  9
$DIMLWE
 70
     0
  9
$DIMTMOVE
 70
     0
  9
$LUNITS
 70
     2
  9
$LUPREC
 70
     4
  9
$SKETCHINC
 40
0.1
  9
$FILLETRAD
 40
0.0
  9
$AUNITS
 70
     0
  9
$AUPREC
 70
     0
  9
$MENU
  1
acad
  9
$ELEVATION
 40
0.0
  9
$PELEVATION
 40
0.0
  9
$THICKNESS
 40
0.0
  9
$LIMCHECK
 70
     0
  9
$CHAMFERA
 40
0.0
  9
$CHAMFERB
 40
0.0
  9
$CHAMFERC
 40
0.0
  9
$CHAMFERD
 40
0.0
  9
$SKPOLY
 70
     0
  9
$TDCREATE
 40
0.000000000
  9
$TDUCREATE
 40
0.000000000
  9
$TDUPDATE
 40
0.000000000
  9
$TDUUPDATE
 40
0.000000000
  9
$TDINDWG
 40
0.0000000000
  9
$TDUSRTIMER
 40
0.0000000000
  9
$USRTIMER
 70
     1
  9
$ANGBASE
 50
0.0
  9
$ANGDIR
 70
     0
  9
$PDMODE
 70
     0
  9
$PDSIZE
 40
0.0
  9
$PLINEWID
 40
0.0
  9
$SPLFRAME
 70
     0
  9
$SPLINETYPE
 70
     6
  9
$SPLINESEGS
 70
     8
  9
$HANDSEED
  5
26C
  9
$SURFTAB1
 70
     6
  9
$SURFTAB2
 70
     6
  9
$SURFTYPE
 70
     6
  9
$SURFU
 70
     6
  9
$SURFV
 70
     6
  9
$UCSBASE
  2

  9
$UCSNAME
  2

  9
$UCSORG
 10
0.0
 20
0.0
 30
0.0
  9
$UCSXDIR
 10
1.0
 20
0.0
 30
0.0
  9
$UCSYDIR
 10
0.0
 20
1.0
 30
0.0
  9
$UCSORTHOREF
  2

  9
$UCSORTHOVIEW
 70
     0
  9
$UCSORGTOP
 10
0.0
 20
0.0
 30
0.0
  9
$UCSORGBOTTOM
 10
0.0
 20
0.0
 30
0.0
  9
$UCSORGLEFT
 10
0.0
 20
0.0
 30
0.0
  9
$UCSORGRIGHT
 10
0.0
 20
0.0
 30
0.0
  9
$UCSORGFRONT
 10
0.0
 20
0.0
 30
0.0
  9
$UCSORGBACK
 10
0.0
 20
0.0
 30
0.0
  9
$PUCSBASE
  2

  9
$PUCSNAME
  2

  9
$PUCSORG
 10
0.0
 20
0.0
 30
0.0
  9
$PUCSXDIR
 10
1.0
 20
0.0
 30
0.0
  9
$PUCSYDIR
 10
0.0
 20
1.0
 30
0.0
  9
$PUCSORTHOREF
  2

  9
$PUCSORTHOVIEW
 70
     0
  9
$PUCSORGTOP
 10
0.0
 20
0.0
 30
0.0
  9
$PUCSORGBOTTOM
 10
0.0
 20
0.0
 30
0.0
  9
$PUCSORGLEFT
 10
0.0
 20
0.0
 30
0.0
  9
$PUCSORGRIGHT
 10
0.0
 20
0.0
 30
0.0
  9
$PUCSORGFRONT
 10
0.0
 20
0.0
 30
0.0
  9
$PUCSORGBACK
 10
0.0
 20
0.0
 30
0.0
  9
$USERI1
 70
     0
  9
$USERI2
 70
     0
  9
$USERI3
 70
     0
  9
$USERI4
 70
     0
  9
$USERI5
 70
     0
  9
$USERR1
 40
0.0
  9
$USERR2
 40
0.0
  9
$USERR3
 40
0.0
  9
$USERR4
 40
0.0
  9
$USERR5
 40
0.0
  9
$WORLDVIEW
 70
     1
  9
$SHADEDGE
 70
     3
  9
$SHADEDIF
 70
    70
  9
$TILEMODE
 70
     1
  9
$MAXACTVP
 70
    16
  9
$PINSBASE
 10
0.0
 20
0.0
 30
0.0
  9
$PLIMCHECK
 70
     0
  9
$PEXTMIN
 10
1.000000E+20
 20
1.000000E+20
 30
1.000000E+20
  9
$PEXTMAX
 10
-1.000000E+20
 20
-1.000000E+20
 30
-1.000000E+20
  9
$PLIMMIN
 10
0.0
 20
0.0
  9
$PLIMMAX
 10
297.0
 20
210.0
  9
$UNITMODE
 70
     0
  9
$VISRETAIN
 70
     0
  9
$PLINEGEN
 70
     1
  9
$PSLTSCALE
 70
     0
  9
$TREEDEPTH
 70
  3020
  9
$CMLSTYLE
  2
Standard
  9
$CMLJUST
 70
     0
  9
$CMLSCALE
 40
1.0
  9
$PROXYGRAPHICS
 70
     0
  9
$MEASUREMENT
 70
     0
  9
$CELWEIGHT
370
     0
  9
$ENDCAPS
280
     0
  9
$JOINSTYLE
280
     0
  9
$LWDISPLAY
290
     0
  9
$INSUNITS
 70
     0
  9
$HYPERLINKBASE
  1

  9
$XEDIT
290
     1
  9
$CEPSNTYPE
380
     0
  9
$PSTYLEMODE
290
     0
  9
$FINGERPRINTGUID
  2

  9
$VERSIONGUID
  2

  9
$EXTNAMES
290
     1
  9
$PSVPSCALE
 40
0.0
  0
ENDSEC
  0
SECTION
  2
CLASSES
  0
CLASS
  1
LWPOLYLINE
  2
AcDbPolyline
  3
"AutoCAD"
 90
        0
280
     0
281
     1
  0
CLASS
  1
IMAGE
  2
AcDbRasterImage
  3
ISM
 90
      127
280
     0
281
     1
  0
CLASS
  1
OLE2FRAME
  2
AcDbOle2Frame
  3
""
 90
        0
280
     0
281
     1
  0
CLASS
  1
HATCH
  2
AcDbHatch
  3
"ACAD_SEDONA"
 90
        0
280
     0
281
     1
  0
CLASS
  1
DICTIONARYVAR
  2
AcDbDictionaryVar
  3
"AutoCAD"
 90
        0
280
     0
281
     0
  0
CLASS
  1
RASTERVARIABLES
  2
AcDbRasterVariables
  3
ISM
 90
        0
280
     0
281
     0
  0
CLASS
  1
IMAGEDEF
  2
AcDbRasterImageDef
  3
ISM
 90
        0
280
     0
281
     0
  0
CLASS
  1
IMAGEDEF_REACTOR
  2
AcDbRasterImageDefReactor
  3
ISM
 90
        1
280
     0
281
     0
  0
CLASS
  1
IDBUFFER
  2
AcDbIdBuffer
  3
"Acad"
 90
        0
280
     0
281
     0
  0
CLASS
  1
SPATIAL_FILTER
  2
AcDbSpatialFilter
  3
"Acad"
 90
        0
280
     0
281
     0
  0
CLASS
  1
XRECORD
  2
AcDbXrecord
  3
"<Built In>"
 90
        0
280
     0
281
     0
  0
CLASS
  1
SORTENTSTABLE
  2
AcDbSortentsTable
  3
"AutoCAD"
 90
        0
280
     0
281
     0
  0
CLASS
  1
LAYER_INDEX
  2
AcDbLayerIndex
  3
"Acad"
 90
        0
280
     0
281
     0
  0
CLASS
  1
SPATIAL_INDEX
  2
AcDbSpatialIndex
  3
"Acad"
 90
        0
280
     0
281
     0
  0
CLASS
  1
OBJECT_PTR
  2
CAseDLPNTableRecord
  3
"ASE-LPNTableRecord"
 90
        1
280
     0
281
     0
  0
CLASS
  1
LAYOUT
  2
AcDbLayout
  3
"AutoCAD 2000"
 90
        1
280
     0
281
     0
  0
CLASS
  1
PLOTSETTINGS
  2
AcDbPlotSettings
  3
"AutoCAD 2000"
 90
        1
280
     0
281
     0
  0
CLASS
  1
ACDBDICTIONARYWDFLT
  2
AcDbDictionaryWithDefault
  3
"AutoCAD 2000"
 90
        1
280
     0
281
     0
  0
CLASS
  1
ACDBPLACEHOLDER
  2
AcDbPlaceHolder
  3
"AutoCAD 2000"
 90
        1
280
     0
281
     0
  0
CLASS
  1
VBA_PROJECT
  2
AcDbVbaProject
  3
"acadvba"
 90
        1
280
     0
281
     0
  0
CLASS
  1
WIPEOUT
  2
AcDbWipeout
  3
WipeOut|AutoCAD Express Tool|expresstools@autodesk.com
 90
      127
280
     0
281
     1
  0
CLASS
  1
WIPEOUTVARIABLES
  2
AcDbWipeoutVariables
  3
WipeOut|AutoCAD Express Tool|expresstools@autodesk.com
 90
        0
280
     0
281
     0
  0
CLASS
  1
RTEXT
  2
RText
  3
RText|AutoCAD Express Tool|expresstools@autodesk.com
 90
        0
280
     0
281
     1
  0
CLASS
  1
ARCALIGNEDTEXT
  2
AcDbArcAlignedText
  3
ATEXT|AutoCAD Express Tool|expresstools@autodesk.com
 90
        0
280
     0
281
     1
  0
ENDSEC
  0
SECTION
  2
TABLES
  0
TABLE
  2
VPORT
  5
7
100
AcDbSymbolTable
 70
     1
  0
VPORT
  5
15
100
AcDbSymbolTableRecord
100
AcDbViewportTableRecord
  2
*ACTIVE
 70
     0
 10
0.0
 20
0.0
 11
1.0
 21
1.0
 12
6.591288
 22
4.579184
 13
0.0
 23
0.0
 14
1.0
 24
1.0
 15
0.0
 25
0.0
 16
0.0
 26
0.0
 36
1.0
 17
0.0
 27
0.0
 37
0.0
 40
9.158369
 41
0.688564
 42
50.0
 43
0.0
 44
0.0
 50
0.0
 51
0.0
 71
     0
 72
   100
 73
     1
 74
     1
 75
     0
 76
     0
 77
     0
 78
     0
281
     0
 65
     0
110
0.0
120
0.0
130
0.0
111
1.0
121
0.0
131
0.0
112
0.0
122
1.0
132
0.0
345
0
346
0
 79
     0
146
0.0
  0
ENDTAB
  0
TABLE
  2
LTYPE
  5
4
100
AcDbSymbolTable
 70
     7
  0
LTYPE
  5
11
100
AcDbSymbolTableRecord
100
AcDbLinetypeTableRecord
  2
ByBlock
 70
    64
  3

 72
    65
 73
     0
 40
0.0
  0
LTYPE
  5
12
100
AcDbSymbolTableRecord
100
AcDbLinetypeTableRecord
  2
ByLayer
 70
    64
  3

 72
    65
 73
     0
 40
0.0
  0
LTYPE
  5
13
100
AcDbSymbolTableRecord
100
AcDbLinetypeTableRecord
  2
Continuous
 70
    64
  3
Solid line
 72
    65
 73
     0
 40
0.0
  0
LTYPE
  5
24
100
AcDbSymbolTableRecord
100
AcDbLinetypeTableRecord
  2
HIDDEN
 70
    64
  3
_ _ _ _ _ _ _ _ _ _ _ _ _ _ _ _ _ _ _ _ _ _ _ _
 72
    65
 73
     2
 40
0.1875
 49
0.125
 74
     0
 49
-0.0625
 74
     0
  0
LTYPE
  5
25
100
AcDbSymbolTableRecord
100
AcDbLinetypeTableRecord
  2
DOTTED
 70
    64
  3
...............................................
 72
    65
 73
     2
 40
0.125
 49
0.0
 74
     0
 49
-0.125
 74
     0
  0
LTYPE
  5
26
100
AcDbSymbolTableRecord
100
AcDbLinetypeTableRecord
  2
CENTER
 70
    64
  3
____ _ ____ _ ____ _ ____ _ ____ _ ____ _ ____ 
 72
    65
 73
     4
 40
1.125
 49
0.75
 74
     0
 49
-0.125
 74
     0
 49
0.125
 74
     0
 49
-0.125
 74
     0
  0
LTYPE
  5
27
100
AcDbSymbolTableRecord
100
AcDbLinetypeTableRecord
  2
PHANTOM
 70
    64
  3
______  __  __  ______  __  __  ______  __  __ 
 72
    65
 73
     6
 40
1.25
 49
0.625
 74
     0
 49
-0.125
 74
     0
 49
0.125
 74
     0
 49
-0.125
 74
     0
 49
0.125
 74
     0
 49
-0.125
 74
     0
  0
ENDTAB
  0
TABLE
  2
LAYER
  5
2
100
AcDbSymbolTable
 70
     2
  0
LAYER
  5
14
100
AcDbSymbolTableRecord
100
AcDbLayerTableRecord
  2
0
 70
     0
 62
     7
  6
Continuous
290
     1
370
    -3
390
1D
  0
LAYER
  5
28
100
AcDbSymbolTableRecord
100
AcDbLayerTableRecord
  2
TEXT
 70
     0
 62
     8
  6
Continuous
290
     1
370
    -3
390
1F
  0
ENDTAB
  0
TABLE
  2
STYLE
  5
3
100
AcDbSymbolTable
 70
     1
  0
STYLE
  5
17
100
AcDbSymbolTableRecord
100
AcDbTextStyleTableRecord
  2
Standard
 70
     0
 40
0.0
 41
1.0
 50
0.0
 71
     0
 42
0.0
  3
txt
  4

  0
ENDTAB
  0
TABLE
  2
VIEW
  5
5
100
AcDbSymbolTable
 70
     0
  0
ENDTAB
  0
TABLE
  2
UCS
  5
6
100
AcDbSymbolTable
 70
     0
  0
ENDTAB
  0
TABLE
  2
APPID
  5
8
100
AcDbSymbolTable
 70
     1
  0
APPID
  5
16
100
AcDbSymbolTableRecord
100
AcDbRegAppTableRecord
  2
ACAD
 70
     0
  0
ENDTAB
  0
TABLE
  2
DIMSTYLE
  5
9
100
AcDbSymbolTable
 70
     1
100
AcDbDimStyleTable
 71
     0
  0
DIMSTYLE
105
18
100
AcDbSymbolTableRecord
100
AcDbDimStyleTableRecord
  2
Standard
 70
     0
  3

  4

 40
1.0
 41
0.18
 42
0.0625
 43
0.38
 44
0.18
 45
0.0
 46
0.0
 47
0.0
 48
0.0
 71
     0
 72
     0
 73
     1
 74
     1
 75
     0
 76
     0
 77
     0
 78
     0
 79
     0
140
0.18
141
0.09
142
0.0
143
25.4
144
1.0
145
0.0
146
1.0
147
0.09
148
0.0
170
     0
171
     2
172
     0
173
     0
174
     0
175
     0
176
     0
177
     0
178
     0
179
     0
271
     4
272
     4
273
     2
274
     2
275
     0
276
     0
277
     2
278
    46
279
     0
280
     0
281
     0
282
     0
283
     1
284
     0
285
     0
286
     0
288
     0
340
17
341
0
342
0
343
0
344
0
371
    -2
372
    -2
  0
ENDTAB
  0
TABLE
  2
BLOCK_RECORD
  5
1
100
AcDbSymbolTable
 70
    75
  0
BLOCK_RECORD
  5
A
100
AcDbSymbolTableRecord
100
AcDbBlockTableRecord
  2
*MODEL_SPACE
340
20
  0
BLOCK_RECORD
  5
B
100
AcDbSymbolTableRecord
100
AcDbBlockTableRecord
  2
*PAPER_SPACE
340
21
  0
BLOCK_RECORD
  5
29
100
AcDbSymbolTableRecord
100
AcDbBlockTableRecord
  2
*B0
340
0
  0
BLOCK_RECORD
  5
2C
100
AcDbSymbolTableRecord
100
AcDbBlockTableRecord
  2
*B1
340
0
  0
BLOCK_RECORD
  5
6A
100
AcDbSymbolTableRecord
100
AcDbBlockTableRecord
  2
*B2
340
0
  0
BLOCK_RECORD
  5
80
100
AcDbSymbolTableRecord
100
AcDbBlockTableRecord
  2
*B3
340
0
  0
BLOCK_RECORD
  5
87
100
AcDbSymbolTableRecord
100
AcDbBlockTableRecord
  2
*B4
340
0
  0
BLOCK_RECORD
  5
8E
100
AcDbSymbolTableRecord
100
AcDbBlockTableRecord
  2
*B5
340
0
  0
BLOCK_RECORD
  5
95
100
AcDbSymbolTableRecord
100
AcDbBlockTableRecord
  2
*B6
340
0
  0
BLOCK_RECORD
  5
9C
100
AcDbSymbolTableRecord
100
AcDbBlockTableRecord
  2
*B7
340
0
  0
BLOCK_RECORD
  5
A3
100
AcDbSymbolTableRecord
100
AcDbBlockTableRecord
  2
*B8
340
0
  0
BLOCK_RECORD
  5
AA
100
AcDbSymbolTableRecord
100
AcDbBlockTableRecord
  2
*B9
340
0
  0
BLOCK_RECORD
  5
B1
100
AcDbSymbolTableRecord
100
AcDbBlockTableRecord
  2
*B10
340
0
  0
BLOCK_RECORD
  5
B8
100
AcDbSymbolTableRecord
100
AcDbBlockTableRecord
  2
*B11
340
0
  0
BLOCK_RECORD
  5
BF
100
AcDbSymbolTableRecord
100
AcDbBlockTableRecord
  2
*B12
340
0
  0
BLOCK_RECORD
  5
C6
100
AcDbSymbolTableRecord
100
AcDbBlockTableRecord
  2
*B13
340
0
  0
BLOCK_RECORD
  5
CD
100
AcDbSymbolTableRecord
100
AcDbBlockTableRecord
  2
*B14
340
0
  0
BLOCK_RECORD
  5
D4
100
AcDbSymbolTableRecord
100
AcDbBlockTableRecord
  2
*B15
340
0
  0
BLOCK_RECORD
  5
DB
100
AcDbSymbolTableRecord
100
AcDbBlockTableRecord
  2
*B16
340
0
  0
BLOCK_RECORD
  5
E2
100
AcDbSymbolTableRecord
100
AcDbBlockTableRecord
  2
*B17
340
0
  0
BLOCK_RECORD
  5
E7
100
AcDbSymbolTableRecord
100
AcDbBlockTableRecord
  2
*B18
340
0
  0
BLOCK_RECORD
  5
EC
100
AcDbSymbolTableRecord
100
AcDbBlockTableRecord
  2
*B19
340
0
  0
BLOCK_RECORD
  5
F1
100
AcDbSymbolTableRecord
100
AcDbBlockTableRecord
  2
*B20
340
0
  0
BLOCK_RECORD
  5
F6
100
AcDbSymbolTableRecord
100
AcDbBlockTableRecord
  2
*B21
340
0
  0
BLOCK_RECORD
  5
FB
100
AcDbSymbolTableRecord
100
AcDbBlockTableRecord
  2
*B22
340
0
  0
BLOCK_RECORD
  5
100
100
AcDbSymbolTableRecord
100
AcDbBlockTableRecord
  2
*B23
340
0
  0
BLOCK_RECORD
  5
10D
100
AcDbSymbolTableRecord
100
AcDbBlockTableRecord
  2
*B24
340
0
  0
BLOCK_RECORD
  5
113
100
AcDbSymbolTableRecord
100
AcDbBlockTableRecord
  2
*B25
340
0
  0
BLOCK_RECORD
  5
11A
100
AcDbSymbolTableRecord
100
AcDbBlockTableRecord
  2
*B26
340
0
  0
BLOCK_RECORD
  5
120
100
AcDbSymbolTableRecord
100
AcDbBlockTableRecord
  2
*B27
340
0
  0
BLOCK_RECORD
  5
12F
100
AcDbSymbolTableRecord
100
AcDbBlockTableRecord
  2
*B28
340
0
  0
BLOCK_RECORD
  5
134
100
AcDbSymbolTableRecord
100
AcDbBlockTableRecord
  2
*B29
340
0
  0
BLOCK_RECORD
  5
13A
100
AcDbSymbolTableRecord
100
AcDbBlockTableRecord
  2
*B30
340
0
  0
BLOCK_RECORD
  5
144
100
AcDbSymbolTableRecord
100
AcDbBlockTableRecord
  2
*B31
340
0
  0
BLOCK_RECORD
  5
149
100
AcDbSymbolTableRecord
100
AcDbBlockTableRecord
  2
*B32
340
0
  0
BLOCK_RECORD
  5
14E
100
AcDbSymbolTableRecord
100
AcDbBlockTableRecord
  2
*B33
340
0
  0
BLOCK_RECORD
  5
154
100
AcDbSymbolTableRecord
100
AcDbBlockTableRecord
  2
*B34
340
0
  0
BLOCK_RECORD
  5
159
100
AcDbSymbolTableRecord
100
AcDbBlockTableRecord
  2
*B35
340
0
  0
BLOCK_RECORD
  5
15E
100
AcDbSymbolTableRecord
100
AcDbBlockTableRecord
  2
*B36
340
0
  0
BLOCK_RECORD
  5
167
100
AcDbSymbolTableRecord
100
AcDbBlockTableRecord
  2
*B37
340
0
  0
BLOCK_RECORD
  5
16C
100
AcDbSymbolTableRecord
100
AcDbBlockTableRecord
  2
*B38
340
0
  0
BLOCK_RECORD
  5
171
100
AcDbSymbolTableRecord
100
AcDbBlockTableRecord
  2
*B39
340
0
  0
BLOCK_RECORD
  5
177
100
AcDbSymbolTableRecord
100
AcDbBlockTableRecord
  2
*B40
340
0
  0
BLOCK_RECORD
  5
186
100
AcDbSymbolTableRecord
100
AcDbBlockTableRecord
  2
*B41
340
0
  0
BLOCK_RECORD
  5
195
100
AcDbSymbolTableRecord
100
AcDbBlockTableRecord
  2
*B42
340
0
  0
BLOCK_RECORD
  5
19B
100
AcDbSymbolTableRecord
100
AcDbBlockTableRecord
  2
*B43
340
0
  0
BLOCK_RECORD
  5
1AA
100
AcDbSymbolTableRecord
100
AcDbBlockTableRecord
  2
*B44
340
0
  0
BLOCK_RECORD
  5
1C1
100
AcDbSymbolTableRecord
100
AcDbBlockTableRecord
  2
*B45
340
0
  0
BLOCK_RECORD
  5
1D3
100
AcDbSymbolTableRecord
100
AcDbBlockTableRecord
  2
*B46
340
0
  0
BLOCK_RECORD
  5
1D9
100
AcDbSymbolTableRecord
100
AcDbBlockTableRecord
  2
*B47
340
0
  0
BLOCK_RECORD
  5
1DF
100
AcDbSymbolTableRecord
100
AcDbBlockTableRecord
  2
*B48
340
0
  0
BLOCK_RECORD
  5
1E5
100
AcDbSymbolTableRecord
100
AcDbBlockTableRecord
  2
*B49
340
0
  0
BLOCK_RECORD
  5
1EB
100
AcDbSymbolTableRecord
100
AcDbBlockTableRecord
  2
*B50
340
0
  0
BLOCK_RECORD
  5
1F1
100
AcDbSymbolTableRecord
100
AcDbBlockTableRecord
  2
*B51
340
0
  0
BLOCK_RECORD
  5
1F7
100
AcDbSymbolTableRecord
100
AcDbBlockTableRecord
  2
*B52
340
0
  0
BLOCK_RECORD
  5
1FD
100
AcDbSymbolTableRecord
100
AcDbBlockTableRecord
  2
*B53
340
0
  0
BLOCK_RECORD
  5
203
100
AcDbSymbolTableRecord
100
AcDbBlockTableRecord
  2
*B54
340
0
  0
BLOCK_RECORD
  5
208
100
AcDbSymbolTableRecord
100
AcDbBlockTableRecord
  2
*B55
340
0
  0
BLOCK_RECORD
  5
20D
100
AcDbSymbolTableRecord
100
AcDbBlockTableRecord
  2
*B56
340
0
  0
BLOCK_RECORD
  5
212
100
AcDbSymbolTableRecord
100
AcDbBlockTableRecord
  2
*B57
340
0
  0
BLOCK_RECORD
  5
217
100
AcDbSymbolTableRecord
100
AcDbBlockTableRecord
  2
*B58
340
0
  0
BLOCK_RECORD
  5
21C
100
AcDbSymbolTableRecord
100
AcDbBlockTableRecord
  2
*B59
340
0
  0
BLOCK_RECORD
  5
221
100
AcDbSymbolTableRecord
100
AcDbBlockTableRecord
  2
*B60
340
0
  0
BLOCK_RECORD
  5
226
100
AcDbSymbolTableRecord
100
AcDbBlockTableRecord
  2
*B61
340
0
  0
BLOCK_RECORD
  5
22B
100
AcDbSymbolTableRecord
100
AcDbBlockTableRecord
  2
*B62
340
0
  0
BLOCK_RECORD
  5
230
100
AcDbSymbolTableRecord
100
AcDbBlockTableRecord
  2
*B63
340
0
  0
BLOCK_RECORD
  5
235
100
AcDbSymbolTableRecord
100
AcDbBlockTableRecord
  2
*B64
340
0
  0
BLOCK_RECORD
  5
23A
100
AcDbSymbolTableRecord
100
AcDbBlockTableRecord
  2
*B65
340
0
  0
BLOCK_RECORD
  5
23F
100
AcDbSymbolTableRecord
100
AcDbBlockTableRecord
  2
*B66
340
0
  0
BLOCK_RECORD
  5
244
100
AcDbSymbolTableRecord
100
AcDbBlockTableRecord
  2
*B67
340
0
  0
BLOCK_RECORD
  5
249
100
AcDbSymbolTableRecord
100
AcDbBlockTableRecord
  2
*B68
340
0
  0
BLOCK_RECORD
  5
24E
100
AcDbSymbolTableRecord
100
AcDbBlockTableRecord
  2
*B69
340
0
  0
BLOCK_RECORD
  5
253
100
AcDbSymbolTableRecord
100
AcDbBlockTableRecord
  2
*B70
340
0
  0
BLOCK_RECORD
  5
258
100
AcDbSymbolTableRecord
100
AcDbBlockTableRecord
  2
*B71
340
0
  0
BLOCK_RECORD
  5
25D
100
AcDbSymbolTableRecord
100
AcDbBlockTableRecord
  2
*B72
340
0
  0
BLOCK_RECORD
  5
262
100
AcDbSymbolTableRecord
100
AcDbBlockTableRecord
  2
*B73
340
0
  0
BLOCK_RECORD
  5
267
100
AcDbSymbolTableRecord
100
AcDbBlockTableRecord
  2
*B74
340
0
  0
ENDTAB
  0
ENDSEC
  0
SECTION
  2
BLOCKS
  0
BLOCK
  5
D
100
AcDbEntity
  8
0
100
AcDbBlockBegin
  2
*MODEL_SPACE
 70
     0
 10
0.0
 20
0.0
 30
0.0
  3
*MODEL_SPACE
  1

  0
ENDBLK
  5
E
100
AcDbEntity
  8
0
100
AcDbBlockEnd
  0
BLOCK
  5
F
100
AcDbEntity
 67
     1
  8
0
100
AcDbBlockBegin
  2
*PAPER_SPACE
 70
     0
 10
0.0
 20
0.0
 30
0.0
  3
*PAPER_SPACE
  1

  0
ENDBLK
  5
10
100
AcDbEntity
 67
     1
  8
0
100
AcDbBlockEnd
  0
BLOCK
  5
2A
100
AcDbEntity
  8
0
100
AcDbBlockBegin
  2
*B0
 70
     0
 10
0.0
 20
0.0
 30
0.0
  3
*B0
  1

  0
ENDBLK
  5
2B
100
AcDbEntity
  8
0
100
AcDbBlockEnd
  0
BLOCK
  5
2D
100
AcDbEntity
  8
0
100
AcDbBlockBegin
  2
*B1
 70
     0
 10
0.0
 20
0.0
 30
0.0
  3
*B1
  1

  0
CIRCLE
  5
2E
100
AcDbEntity
  8
0
  6
Continuous
 62
   174
100
AcDbCircle
 10
154.196166
 20
112.327062
 30
0.0
 40
2.25
  0
CIRCLE
  5
2F
100
AcDbEntity
  8
0
  6
Continuous
 62
   174
100
AcDbCircle
 10
136.196166
 20
112.327062
 30
0.0
 40
2.25
  0
LINE
  5
30
100
AcDbEntity
  8
0
  6
HIDDEN
 62
   174
100
AcDbLine
 10
110.696166
 20
106.827062
 30
0.0
 11
110.696166
 21
106.847062
 31
0.0
  0
LINE
  5
31
100
AcDbEntity
  8
0
  6
HIDDEN
 62
   174
100
AcDbLine
 10
109.696166
 20
106.827062
 30
0.0
 11
109.696166
 21
106.847062
 31
0.0
  0
LINE
  5
32
100
AcDbEntity
  8
0
  6
HIDDEN
 62
   174
100
AcDbLine
 10
140.821166
 20
116.827062
 30
0.0
 11
140.821166
 21
106.827062
 31
0.0
  0
LINE
  5
33
100
AcDbEntity
  8
0
  6
HIDDEN
 62
   174
100
AcDbLine
 10
149.571166
 20
106.827062
 30
0.0
 11
149.571166
 21
116.827062
 31
0.0
  0
LINE
  5
34
100
AcDbEntity
  8
0
  6
HIDDEN
 62
   174
100
AcDbLine
 10
140.349308
 20
114.827062
 30
0.0
 11
145.214401
 21
114.827062
 31
0.0
  0
LINE
  5
35
100
AcDbEntity
  8
0
  6
HIDDEN
 62
   174
100
AcDbLine
 10
145.214401
 20
114.827062
 30
0.0
 11
150.079283
 21
114.827062
 31
0.0
  0
LINE
  5
36
100
AcDbEntity
  8
0
  6
HIDDEN
 62
   174
100
AcDbLine
 10
150.061166
 20
106.827062
 30
0.0
 11
150.061166
 21
114.827062
 31
0.0
  0
LINE
  5
37
100
AcDbEntity
  8
0
  6
HIDDEN
 62
   174
100
AcDbLine
 10
140.331166
 20
114.827062
 30
0.0
 11
140.331166
 21
106.827062
 31
0.0
  0
LINE
  5
38
100
AcDbEntity
  8
0
  6
HIDDEN
 62
   174
100
AcDbLine
 10
140.839386
 20
116.827062
 30
0.0
 11
149.589204
 21
116.827062
 31
0.0
  0
LINE
  5
39
100
AcDbEntity
  8
0
  6
HIDDEN
 62
   174
100
AcDbLine
 10
107.214327
 20
106.847062
 30
0.0
 11
113.214227
 21
106.847062
 31
0.0
  0
LINE
  5
3A
100
AcDbEntity
  8
0
  6
HIDDEN
 62
   174
100
AcDbLine
 10
122.821166
 20
116.827062
 30
0.0
 11
122.821166
 21
106.827062
 31
0.0
  0
LINE
  5
3B
100
AcDbEntity
  8
0
  6
HIDDEN
 62
   174
100
AcDbLine
 10
168.061166
 20
106.827062
 30
0.0
 11
168.061166
 21
114.827062
 31
0.0
  0
LINE
  5
3C
100
AcDbEntity
  8
0
  6
HIDDEN
 62
   174
100
AcDbLine
 10
158.34922
 20
114.827062
 30
0.0
 11
163.214313
 21
114.827062
 31
0.0
  0
CIRCLE
  5
3D
100
AcDbEntity
  8
0
  6
Continuous
 62
   174
100
AcDbCircle
 10
163.196166
 20
137.327062
 30
0.0
 40
2.25
  0
LINE
  5
3E
100
AcDbEntity
  8
0
  6
HIDDEN
 62
   174
100
AcDbLine
 10
158.589267
 20
132.827062
 30
0.0
 11
149.839236
 21
132.827062
 31
0.0
  0
LINE
  5
3F
100
AcDbEntity
  8
0
  6
HIDDEN
 62
   174
100
AcDbLine
 10
140.571166
 20
132.827062
 30
0.0
 11
140.571166
 21
142.827062
 31
0.0
  0
LINE
  5
40
100
AcDbEntity
  8
0
  6
HIDDEN
 62
   174
100
AcDbLine
 10
122.331166
 20
114.827062
 30
0.0
 11
122.331166
 21
106.827062
 31
0.0
  0
LINE
  5
41
100
AcDbEntity
  8
0
  6
HIDDEN
 62
   174
100
AcDbLine
 10
158.821166
 20
116.827062
 30
0.0
 11
158.821166
 21
106.827062
 31
0.0
  0
LINE
  5
42
100
AcDbEntity
  8
0
  6
HIDDEN
 62
   174
100
AcDbLine
 10
102.821166
 20
142.827062
 30
0.0
 11
102.821166
 21
132.827062
 31
0.0
  0
LINE
  5
43
100
AcDbEntity
  8
0
  6
Continuous
 62
   174
100
AcDbLine
 10
175.196166
 20
142.827062
 30
0.0
 11
115.196166
 21
142.827062
 31
0.0
  0
LINE
  5
44
100
AcDbEntity
  8
0
  6
Continuous
 62
   174
100
AcDbLine
 10
115.196166
 20
106.827062
 30
0.0
 11
175.196166
 21
106.827062
 31
0.0
  0
LINE
  5
45
100
AcDbEntity
  8
0
  6
Continuous
 62
   174
100
AcDbLine
 10
115.196166
 20
142.827062
 30
0.0
 11
115.196166
 21
106.827062
 31
0.0
  0
LINE
  5
46
100
AcDbEntity
  8
0
  6
HIDDEN
 62
   174
100
AcDbLine
 10
127.214277
 20
114.827062
 30
0.0
 11
132.07937
 21
114.827062
 31
0.0
  0
LINE
  5
47
100
AcDbEntity
  8
0
  6
HIDDEN
 62
   174
100
AcDbLine
 10
158.331166
 20
114.827062
 30
0.0
 11
158.331166
 21
106.827062
 31
0.0
  0
LINE
  5
48
100
AcDbEntity
  8
0
  6
Continuous
 62
   174
100
AcDbLine
 10
175.196166
 20
106.827062
 30
0.0
 11
175.196166
 21
142.827062
 31
0.0
  0
CIRCLE
  5
49
100
AcDbEntity
  8
0
  6
Continuous
 62
   174
100
AcDbCircle
 10
127.196166
 20
137.327062
 30
0.0
 40
2.25
  0
LINE
  5
4A
100
AcDbEntity
  8
0
  6
Continuous
 62
   174
100
AcDbLine
 10
115.196166
 20
106.827062
 30
0.0
 11
99.196166
 21
106.827062
 31
0.0
  0
LINE
  5
4B
100
AcDbEntity
  8
0
  6
Continuous
 62
   174
100
AcDbLine
 10
115.196166
 20
142.827062
 30
0.0
 11
115.196166
 21
106.827062
 31
0.0
  0
LINE
  5
4C
100
AcDbEntity
  8
0
  6
HIDDEN
 62
   174
100
AcDbLine
 10
149.821166
 20
142.827062
 30
0.0
 11
149.821166
 21
132.827062
 31
0.0
  0
LINE
  5
4D
100
AcDbEntity
  8
0
  6
HIDDEN
 62
   174
100
AcDbLine
 10
131.821166
 20
142.827062
 30
0.0
 11
131.821166
 21
132.827062
 31
0.0
  0
LINE
  5
4E
100
AcDbEntity
  8
0
  6
HIDDEN
 62
   174
100
AcDbLine
 10
122.349396
 20
114.827062
 30
0.0
 11
127.214277
 21
114.827062
 31
0.0
  0
LINE
  5
4F
100
AcDbEntity
  8
0
  6
HIDDEN
 62
   174
100
AcDbLine
 10
102.331166
 20
142.827062
 30
0.0
 11
102.331166
 21
134.827062
 31
0.0
  0
LINE
  5
50
100
AcDbEntity
  8
0
  6
HIDDEN
 62
   174
100
AcDbLine
 10
112.079209
 20
134.827062
 30
0.0
 11
102.349234
 21
134.827062
 31
0.0
  0
LINE
  5
51
100
AcDbEntity
  8
0
  6
HIDDEN
 62
   174
100
AcDbLine
 10
107.214327
 20
132.827062
 30
0.0
 11
102.839312
 21
132.827062
 31
0.0
  0
LINE
  5
52
100
AcDbEntity
  8
0
  6
HIDDEN
 62
   174
100
AcDbLine
 10
140.589355
 20
132.827062
 30
0.0
 11
131.839324
 21
132.827062
 31
0.0
  0
LINE
  5
53
100
AcDbEntity
  8
0
  6
HIDDEN
 62
   174
100
AcDbLine
 10
131.571166
 20
106.827062
 30
0.0
 11
131.571166
 21
116.827062
 31
0.0
  0
LINE
  5
54
100
AcDbEntity
  8
0
  6
HIDDEN
 62
   174
100
AcDbLine
 10
111.589343
 20
132.827062
 30
0.0
 11
107.214327
 21
132.827062
 31
0.0
  0
LINE
  5
55
100
AcDbEntity
  8
0
  6
HIDDEN
 62
   174
100
AcDbLine
 10
149.331166
 20
142.827062
 30
0.0
 11
149.331166
 21
134.827062
 31
0.0
  0
LINE
  5
56
100
AcDbEntity
  8
0
  6
HIDDEN
 62
   174
100
AcDbLine
 10
131.331166
 20
142.827062
 30
0.0
 11
131.331166
 21
134.827062
 31
0.0
  0
LINE
  5
57
100
AcDbEntity
  8
0
  6
HIDDEN
 62
   174
100
AcDbLine
 10
122.839261
 20
116.827062
 30
0.0
 11
131.589292
 21
116.827062
 31
0.0
  0
LINE
  5
58
100
AcDbEntity
  8
0
  6
HIDDEN
 62
   174
100
AcDbLine
 10
111.571166
 20
132.827062
 30
0.0
 11
111.571166
 21
142.827062
 31
0.0
  0
LINE
  5
59
100
AcDbEntity
  8
0
  6
HIDDEN
 62
   174
100
AcDbLine
 10
112.061166
 20
134.827062
 30
0.0
 11
112.061166
 21
142.827062
 31
0.0
  0
LINE
  5
5A
100
AcDbEntity
  8
0
  6
HIDDEN
 62
   174
100
AcDbLine
 10
159.079345
 20
134.827062
 30
0.0
 11
149.34937
 21
134.827062
 31
0.0
  0
LINE
  5
5B
100
AcDbEntity
  8
0
  6
HIDDEN
 62
   174
100
AcDbLine
 10
141.07922
 20
134.827062
 30
0.0
 11
131.349245
 21
134.827062
 31
0.0
  0
LINE
  5
5C
100
AcDbEntity
  8
0
  6
Continuous
 62
   174
100
AcDbLine
 10
176.196166
 20
131.327062
 30
0.0
 11
175.196166
 21
131.327062
 31
0.0
  0
LINE
  5
5D
100
AcDbEntity
  8
0
  6
Continuous
 62
   174
100
AcDbLine
 10
176.196166
 20
118.338487
 30
0.0
 11
176.196166
 21
131.337774
 31
0.0
  0
LINE
  5
5E
100
AcDbEntity
  8
0
  6
HIDDEN
 62
   174
100
AcDbLine
 10
132.061166
 20
106.827062
 30
0.0
 11
132.061166
 21
114.827062
 31
0.0
  0
LINE
  5
5F
100
AcDbEntity
  8
0
  6
HIDDEN
 62
   174
100
AcDbLine
 10
167.571166
 20
106.827062
 30
0.0
 11
167.571166
 21
116.827062
 31
0.0
  0
LINE
  5
60
100
AcDbEntity
  8
0
  6
HIDDEN
 62
   174
100
AcDbLine
 10
158.839298
 20
116.827062
 30
0.0
 11
167.589329
 21
116.827062
 31
0.0
  0
LINE
  5
61
100
AcDbEntity
  8
0
  6
Continuous
 62
   174
100
AcDbLine
 10
99.196166
 20
142.827062
 30
0.0
 11
115.196166
 21
142.827062
 31
0.0
  0
LINE
  5
62
100
AcDbEntity
  8
0
  6
Continuous
 62
   174
100
AcDbLine
 10
99.196166
 20
106.827062
 30
0.0
 11
99.196166
 21
142.827062
 31
0.0
  0
LINE
  5
63
100
AcDbEntity
  8
0
  6
HIDDEN
 62
   174
100
AcDbLine
 10
159.061166
 20
134.827062
 30
0.0
 11
159.061166
 21
142.827062
 31
0.0
  0
LINE
  5
64
100
AcDbEntity
  8
0
  6
HIDDEN
 62
   174
100
AcDbLine
 10
141.061166
 20
134.827062
 30
0.0
 11
141.061166
 21
142.827062
 31
0.0
  0
LINE
  5
65
100
AcDbEntity
  8
0
  6
HIDDEN
 62
   174
100
AcDbLine
 10
163.214313
 20
114.827062
 30
0.0
 11
168.079195
 21
114.827062
 31
0.0
  0
LINE
  5
66
100
AcDbEntity
  8
0
  6
HIDDEN
 62
   174
100
AcDbLine
 10
158.571166
 20
132.827062
 30
0.0
 11
158.571166
 21
142.827062
 31
0.0
  0
LINE
  5
67
100
AcDbEntity
  8
0
  6
Continuous
 62
   174
100
AcDbLine
 10
175.196166
 20
118.327062
 30
0.0
 11
176.196166
 21
118.327062
 31
0.0
  0
ENDBLK
  5
68
100
AcDbEntity
  8
0
100
AcDbBlockEnd
  0
BLOCK
  5
6B
100
AcDbEntity
  8
0
100
AcDbBlockBegin
  2
*B2
 70
     0
 10
0.0
 20
0.0
 30
0.0
  3
*B2
  1

  0
LINE
  5
6C
100
AcDbEntity
  8
0
  6
Continuous
 62
   174
100
AcDbLine
 10
175.196166
 20
38.888039
 30
0.0
 11
175.196166
 21
60.888039
 31
0.0
  0
LINE
  5
6D
100
AcDbEntity
  8
0
  6
Continuous
 62
   174
100
AcDbLine
 10
115.196166
 20
38.888039
 30
0.0
 11
115.196166
 21
60.888039
 31
0.0
  0
LINE
  5
6E
100
AcDbEntity
  8
0
  6
Continuous
 62
   174
100
AcDbLine
 10
99.196166
 20
60.888039
 30
0.0
 11
99.196166
 21
38.888039
 31
0.0
  0
ARC
  5
6F
100
AcDbEntity
  8
0
  6
Continuous
 62
   174
100
AcDbCircle
 10
107.196166
 20
49.888039
 30
0.0
 40
4.865
100
AcDbArc
 50
-105.0
 51
195.0
  0
LINE
  5
70
100
AcDbEntity
  8
0
  6
Continuous
 62
   174
100
AcDbLine
 10
115.196166
 20
60.888039
 30
0.0
 11
115.196166
 21
38.888039
 31
0.0
  0
LINE
  5
71
100
AcDbEntity
  8
0
  6
Continuous
 62
   174
100
AcDbLine
 10
175.196166
 20
38.888039
 30
0.0
 11
115.196166
 21
38.888039
 31
0.0
  0
LINE
  5
72
100
AcDbEntity
  8
0
  6
Continuous
 62
   174
100
AcDbLine
 10
99.196166
 20
60.888039
 30
0.0
 11
115.196166
 21
60.888039
 31
0.0
  0
CIRCLE
  5
73
100
AcDbEntity
  8
0
  6
Continuous
 62
   174
100
AcDbCircle
 10
107.196166
 20
49.888039
 30
0.0
 40
4.375
  0
LINE
  5
74
100
AcDbEntity
  8
0
  6
Continuous
 62
   174
100
AcDbLine
 10
175.196166
 20
60.888039
 30
0.0
 11
115.196166
 21
60.888039
 31
0.0
  0
LINE
  5
75
100
AcDbEntity
  8
0
  6
Continuous
 62
   174
100
AcDbLine
 10
99.196166
 20
38.888039
 30
0.0
 11
115.196166
 21
38.888039
 31
0.0
  0
ARC
  5
76
100
AcDbEntity
  8
0
  6
Continuous
 62
   174
100
AcDbCircle
 10
154.196166
 20
49.888039
 30
0.0
 40
4.865
100
AcDbArc
 50
-105.0
 51
195.0
  0
ARC
  5
77
100
AcDbEntity
  8
0
  6
Continuous
 62
   174
100
AcDbCircle
 10
136.196166
 20
49.888039
 30
0.0
 40
4.865
100
AcDbArc
 50
-105.0
 51
195.0
  0
CIRCLE
  5
78
100
AcDbEntity
  8
0
  6
Continuous
 62
   174
100
AcDbCircle
 10
154.196166
 20
49.888039
 30
0.0
 40
4.375
  0
CIRCLE
  5
79
100
AcDbEntity
  8
0
  6
Continuous
 62
   174
100
AcDbCircle
 10
136.196166
 20
49.888039
 30
0.0
 40
4.375
  0
LINE
  5
7A
100
AcDbEntity
  8
0
  6
Continuous
 62
   174
100
AcDbLine
 10
176.196166
 20
56.388039
 30
0.0
 11
175.196166
 21
56.388039
 31
0.0
  0
LINE
  5
7B
100
AcDbEntity
  8
0
  6
Continuous
 62
   174
100
AcDbLine
 10
176.196166
 20
49.90343
 30
0.0
 11
176.196166
 21
56.402967
 31
0.0
  0
LINE
  5
7C
100
AcDbEntity
  8
0
  6
Continuous
 62
   174
100
AcDbLine
 10
175.196166
 20
43.388039
 30
0.0
 11
176.196166
 21
43.388039
 31
0.0
  0
LINE
  5
7D
100
AcDbEntity
  8
0
  6
Continuous
 62
   174
100
AcDbLine
 10
176.196166
 20
43.403893
 30
0.0
 11
176.196166
 21
49.90343
 31
0.0
  0
ENDBLK
  5
7E
100
AcDbEntity
  8
0
100
AcDbBlockEnd
  0
BLOCK
  5
81
100
AcDbEntity
  8
0
100
AcDbBlockBegin
  2
*B3
 70
     0
 10
0.0
 20
0.0
 30
0.0
  3
*B3
  1

  0
LINE
  5
82
100
AcDbEntity
  8
0
  6
Continuous
 62
     0
100
AcDbLine
 10
95.839287
 20
71.014181
 30
0.0
 11
134.35748
 21
71.014181
 31
0.0
  0
SOLID
  5
83
100
AcDbEntity
  8
0
  6
Continuous
 62
     0
100
AcDbTrace
 10
99.339299
 20
70.414276
 30
0.0
 11
102.839312
 21
71.014181
 31
0.0
 12
99.339299
 22
71.614086
 32
0.0
 13
99.339299
 23
71.614086
 33
0.0
  0
SOLID
  5
84
100
AcDbEntity
  8
0
  6
Continuous
 62
     0
100
AcDbTrace
 10
115.089355
 20
71.614086
 30
0.0
 11
111.589343
 21
71.014181
 31
0.0
 12
115.089355
 22
70.414276
 32
0.0
 13
115.089355
 23
70.414276
 33
0.0
  0
ENDBLK
  5
85
100
AcDbEntity
  8
0
100
AcDbBlockEnd
  0
BLOCK
  5
88
100
AcDbEntity
  8
0
100
AcDbBlockBegin
  2
*B4
 70
     0
 10
0.0
 20
0.0
 30
0.0
  3
*B4
  1

  0
LINE
  5
89
100
AcDbEntity
  8
0
  6
Continuous
 62
     0
100
AcDbLine
 10
175.214325
 20
83.013556
 30
0.0
 11
99.21439
 21
83.013556
 31
0.0
  0
SOLID
  5
8A
100
AcDbEntity
  8
0
  6
Continuous
 62
     0
100
AcDbTrace
 10
171.714313
 20
82.413651
 30
0.0
 11
175.214325
 21
83.013556
 31
0.0
 12
171.714313
 22
83.613461
 32
0.0
 13
171.714313
 23
83.613461
 33
0.0
  0
SOLID
  5
8B
100
AcDbEntity
  8
0
  6
Continuous
 62
     0
100
AcDbTrace
 10
102.714402
 20
83.613461
 30
0.0
 11
99.21439
 21
83.013556
 31
0.0
 12
102.714402
 22
82.413651
 32
0.0
 13
102.714402
 23
82.413651
 33
0.0
  0
ENDBLK
  5
8C
100
AcDbEntity
  8
0
100
AcDbBlockEnd
  0
BLOCK
  5
8F
100
AcDbEntity
  8
0
100
AcDbBlockBegin
  2
*B5
 70
     0
 10
0.0
 20
0.0
 30
0.0
  3
*B5
  1

  0
LINE
  5
90
100
AcDbEntity
  8
0
  6
Continuous
 62
     0
100
AcDbLine
 10
168.214301
 20
83.013556
 30
0.0
 11
185.134214
 21
83.013556
 31
0.0
  0
SOLID
  5
91
100
AcDbEntity
  8
0
  6
Continuous
 62
     0
100
AcDbTrace
 10
171.714313
 20
82.413651
 30
0.0
 11
175.214325
 21
83.013556
 31
0.0
 12
171.714313
 22
83.613461
 32
0.0
 13
171.714313
 23
83.613461
 33
0.0
  0
SOLID
  5
92
100
AcDbEntity
  8
0
  6
Continuous
 62
     0
100
AcDbTrace
 10
179.71425
 20
83.613461
 30
0.0
 11
176.214238
 21
83.013556
 31
0.0
 12
179.71425
 22
82.413651
 32
0.0
 13
179.71425
 23
82.413651
 33
0.0
  0
ENDBLK
  5
93
100
AcDbEntity
  8
0
100
AcDbBlockEnd
  0
BLOCK
  5
96
100
AcDbEntity
  8
0
100
AcDbBlockBegin
  2
*B6
 70
     0
 10
0.0
 20
0.0
 30
0.0
  3
*B6
  1

  0
LINE
  5
97
100
AcDbEntity
  8
0
  6
Continuous
 62
     0
100
AcDbLine
 10
127.214277
 20
94.012806
 30
0.0
 11
115.214265
 21
94.012806
 31
0.0
  0
SOLID
  5
98
100
AcDbEntity
  8
0
  6
Continuous
 62
     0
100
AcDbTrace
 10
123.714264
 20
93.412901
 30
0.0
 11
127.214277
 21
94.012806
 31
0.0
 12
123.714264
 22
94.612923
 32
0.0
 13
123.714264
 23
94.612923
 33
0.0
  0
SOLID
  5
99
100
AcDbEntity
  8
0
  6
Continuous
 62
     0
100
AcDbTrace
 10
118.714277
 20
94.612923
 30
0.0
 11
115.214265
 21
94.012806
 31
0.0
 12
118.714277
 22
93.412901
 32
0.0
 13
118.714277
 23
93.412901
 33
0.0
  0
ENDBLK
  5
9A
100
AcDbEntity
  8
0
100
AcDbBlockEnd
  0
BLOCK
  5
9D
100
AcDbEntity
  8
0
100
AcDbBlockBegin
  2
*B7
 70
     0
 10
0.0
 20
0.0
 30
0.0
  3
*B7
  1

  0
LINE
  5
9E
100
AcDbEntity
  8
0
  6
Continuous
 62
     0
100
AcDbLine
 10
127.214277
 20
94.012806
 30
0.0
 11
145.214401
 21
94.012806
 31
0.0
  0
SOLID
  5
9F
100
AcDbEntity
  8
0
  6
Continuous
 62
     0
100
AcDbTrace
 10
130.714289
 20
94.612923
 30
0.0
 11
127.214277
 21
94.012806
 31
0.0
 12
130.714289
 22
93.412901
 32
0.0
 13
130.714289
 23
93.412901
 33
0.0
  0
SOLID
  5
A0
100
AcDbEntity
  8
0
  6
Continuous
 62
     0
100
AcDbTrace
 10
141.714389
 20
93.412901
 30
0.0
 11
145.214401
 21
94.012806
 31
0.0
 12
141.714389
 22
94.612923
 32
0.0
 13
141.714389
 23
94.612923
 33
0.0
  0
ENDBLK
  5
A1
100
AcDbEntity
  8
0
100
AcDbBlockEnd
  0
BLOCK
  5
A4
100
AcDbEntity
  8
0
100
AcDbBlockBegin
  2
*B8
 70
     0
 10
0.0
 20
0.0
 30
0.0
  3
*B8
  1

  0
LINE
  5
A5
100
AcDbEntity
  8
0
  6
Continuous
 62
     0
100
AcDbLine
 10
145.214401
 20
94.012806
 30
0.0
 11
163.214313
 21
94.012806
 31
0.0
  0
SOLID
  5
A6
100
AcDbEntity
  8
0
  6
Continuous
 62
     0
100
AcDbTrace
 10
148.714201
 20
94.612923
 30
0.0
 11
145.214401
 21
94.012806
 31
0.0
 12
148.714201
 22
93.412901
 32
0.0
 13
148.714201
 23
93.412901
 33
0.0
  0
SOLID
  5
A7
100
AcDbEntity
  8
0
  6
Continuous
 62
     0
100
AcDbTrace
 10
159.714301
 20
93.412901
 30
0.0
 11
163.214313
 21
94.012806
 31
0.0
 12
159.714301
 22
94.612923
 32
0.0
 13
159.714301
 23
94.612923
 33
0.0
  0
ENDBLK
  5
A8
100
AcDbEntity
  8
0
100
AcDbBlockEnd
  0
BLOCK
  5
AB
100
AcDbEntity
  8
0
100
AcDbBlockBegin
  2
*B9
 70
     0
 10
0.0
 20
0.0
 30
0.0
  3
*B9
  1

  0
LINE
  5
AC
100
AcDbEntity
  8
0
  6
Continuous
 62
     0
100
AcDbLine
 10
163.214313
 20
94.012806
 30
0.0
 11
175.214325
 21
94.012806
 31
0.0
  0
SOLID
  5
AD
100
AcDbEntity
  8
0
  6
Continuous
 62
     0
100
AcDbTrace
 10
166.714326
 20
94.612923
 30
0.0
 11
163.214313
 21
94.012806
 31
0.0
 12
166.714326
 22
93.412901
 32
0.0
 13
166.714326
 23
93.412901
 33
0.0
  0
SOLID
  5
AE
100
AcDbEntity
  8
0
  6
Continuous
 62
     0
100
AcDbTrace
 10
171.714313
 20
93.412901
 30
0.0
 11
175.214325
 21
94.012806
 31
0.0
 12
171.714313
 22
94.612923
 32
0.0
 13
171.714313
 23
94.612923
 33
0.0
  0
ENDBLK
  5
AF
100
AcDbEntity
  8
0
100
AcDbBlockEnd
  0
BLOCK
  5
B2
100
AcDbEntity
  8
0
100
AcDbBlockBegin
  2
*B10
 70
     0
 10
0.0
 20
0.0
 30
0.0
  3
*B10
  1

  0
LINE
  5
B3
100
AcDbEntity
  8
0
  6
Continuous
 62
     0
100
AcDbLine
 10
154.214251
 20
154.009468
 30
0.0
 11
175.214325
 21
154.009468
 31
0.0
  0
SOLID
  5
B4
100
AcDbEntity
  8
0
  6
Continuous
 62
     0
100
AcDbTrace
 10
157.714263
 20
154.609373
 30
0.0
 11
154.214251
 21
154.009468
 31
0.0
 12
157.714263
 22
153.409563
 32
0.0
 13
157.714263
 23
153.409563
 33
0.0
  0
SOLID
  5
B5
100
AcDbEntity
  8
0
  6
Continuous
 62
     0
100
AcDbTrace
 10
171.714313
 20
153.409563
 30
0.0
 11
175.214325
 21
154.009468
 31
0.0
 12
171.714313
 22
154.609373
 32
0.0
 13
171.714313
 23
154.609373
 33
0.0
  0
ENDBLK
  5
B6
100
AcDbEntity
  8
0
100
AcDbBlockEnd
  0
BLOCK
  5
B9
100
AcDbEntity
  8
0
100
AcDbBlockBegin
  2
*B11
 70
     0
 10
0.0
 20
0.0
 30
0.0
  3
*B11
  1

  0
LINE
  5
BA
100
AcDbEntity
  8
0
  6
Continuous
 62
     0
100
AcDbLine
 10
154.214251
 20
154.009468
 30
0.0
 11
136.214339
 21
154.009468
 31
0.0
  0
SOLID
  5
BB
100
AcDbEntity
  8
0
  6
Continuous
 62
     0
100
AcDbTrace
 10
150.714239
 20
153.409563
 30
0.0
 11
154.214251
 21
154.009468
 31
0.0
 12
150.714239
 22
154.609373
 32
0.0
 13
150.714239
 23
154.609373
 33
0.0
  0
SOLID
  5
BC
100
AcDbEntity
  8
0
  6
Continuous
 62
     0
100
AcDbTrace
 10
139.714351
 20
154.609373
 30
0.0
 11
136.214339
 21
154.009468
 31
0.0
 12
139.714351
 22
153.409563
 32
0.0
 13
139.714351
 23
153.409563
 33
0.0
  0
ENDBLK
  5
BD
100
AcDbEntity
  8
0
100
AcDbBlockEnd
  0
BLOCK
  5
C0
100
AcDbEntity
  8
0
100
AcDbBlockBegin
  2
*B12
 70
     0
 10
0.0
 20
0.0
 30
0.0
  3
*B12
  1

  0
LINE
  5
C1
100
AcDbEntity
  8
0
  6
Continuous
 62
     0
100
AcDbLine
 10
136.46437
 20
154.009468
 30
0.0
 11
107.78428
 21
154.009468
 31
0.0
  0
SOLID
  5
C2
100
AcDbEntity
  8
0
  6
Continuous
 62
     0
100
AcDbTrace
 10
132.964358
 20
154.609373
 30
0.0
 11
129.464345
 21
154.009468
 31
0.0
 12
132.964358
 22
153.409563
 32
0.0
 13
132.964358
 23
153.409563
 33
0.0
  0
SOLID
  5
C3
100
AcDbEntity
  8
0
  6
Continuous
 62
     0
100
AcDbTrace
 10
121.464196
 20
153.409563
 30
0.0
 11
124.964208
 21
154.009468
 31
0.0
 12
121.464196
 22
154.609373
 32
0.0
 13
121.464196
 23
154.609373
 33
0.0
  0
ENDBLK
  5
C4
100
AcDbEntity
  8
0
100
AcDbBlockEnd
  0
BLOCK
  5
C7
100
AcDbEntity
  8
0
100
AcDbBlockBegin
  2
*B13
 70
     0
 10
0.0
 20
0.0
 30
0.0
  3
*B13
  1

  0
LINE
  5
C8
100
AcDbEntity
  8
0
  6
Continuous
 62
     0
100
AcDbLine
 10
186.018139
 20
137.337461
 30
0.0
 11
186.018139
 21
112.339012
 31
0.0
  0
SOLID
  5
C9
100
AcDbEntity
  8
0
  6
Continuous
 62
     0
100
AcDbTrace
 10
186.618044
 20
133.837662
 30
0.0
 11
186.018139
 21
137.337461
 31
0.0
 12
185.418021
 22
133.837662
 32
0.0
 13
185.418021
 23
133.837662
 33
0.0
  0
SOLID
  5
CA
100
AcDbEntity
  8
0
  6
Continuous
 62
     0
100
AcDbTrace
 10
185.418021
 20
115.838812
 30
0.0
 11
186.018139
 21
112.339012
 31
0.0
 12
186.618044
 22
115.838812
 32
0.0
 13
186.618044
 23
115.838812
 33
0.0
  0
ENDBLK
  5
CB
100
AcDbEntity
  8
0
100
AcDbBlockEnd
  0
BLOCK
  5
CE
100
AcDbEntity
  8
0
100
AcDbBlockBegin
  2
*B14
 70
     0
 10
0.0
 20
0.0
 30
0.0
  3
*B14
  1

  0
LINE
  5
CF
100
AcDbEntity
  8
0
  6
Continuous
 62
     0
100
AcDbLine
 10
196.018114
 20
106.839174
 30
0.0
 11
196.018114
 21
142.837299
 31
0.0
  0
SOLID
  5
D0
100
AcDbEntity
  8
0
  6
Continuous
 62
     0
100
AcDbTrace
 10
195.418209
 20
110.338974
 30
0.0
 11
196.018114
 21
106.839174
 31
0.0
 12
196.618019
 22
110.338974
 32
0.0
 13
196.618019
 23
110.338974
 33
0.0
  0
SOLID
  5
D1
100
AcDbEntity
  8
0
  6
Continuous
 62
     0
100
AcDbTrace
 10
196.618019
 20
139.337499
 30
0.0
 11
196.018114
 21
142.837299
 31
0.0
 12
195.418209
 22
139.337499
 32
0.0
 13
195.418209
 23
139.337499
 33
0.0
  0
ENDBLK
  5
D2
100
AcDbEntity
  8
0
100
AcDbBlockEnd
  0
BLOCK
  5
D5
100
AcDbEntity
  8
0
100
AcDbBlockBegin
  2
*B15
 70
     0
 10
0.0
 20
0.0
 30
0.0
  3
*B15
  1

  0
LINE
  5
D6
100
AcDbEntity
  8
0
  6
Continuous
 62
     0
100
AcDbLine
 10
195.518051
 20
38.903968
 30
0.0
 11
195.518051
 21
60.902892
 31
0.0
  0
SOLID
  5
D7
100
AcDbEntity
  8
0
  6
Continuous
 62
     0
100
AcDbTrace
 10
194.918146
 20
42.403768
 30
0.0
 11
195.518051
 21
38.903968
 31
0.0
 12
196.118169
 22
42.403768
 32
0.0
 13
196.118169
 23
42.403768
 33
0.0
  0
SOLID
  5
D8
100
AcDbEntity
  8
0
  6
Continuous
 62
     0
100
AcDbTrace
 10
196.118169
 20
57.403092
 30
0.0
 11
195.518051
 21
60.902892
 31
0.0
 12
194.918146
 22
57.403092
 32
0.0
 13
194.918146
 23
57.403092
 33
0.0
  0
ENDBLK
  5
D9
100
AcDbEntity
  8
0
100
AcDbBlockEnd
  0
BLOCK
  5
DC
100
AcDbEntity
  8
0
100
AcDbBlockBegin
  2
*B16
 70
     0
 10
0.0
 20
0.0
 30
0.0
  3
*B16
  1

  0
LINE
  5
DD
100
AcDbEntity
  8
0
  6
Continuous
 62
     0
100
AcDbLine
 10
180.357491
 20
71.014181
 30
0.0
 11
142.839211
 21
71.014181
 31
0.0
  0
SOLID
  5
DE
100
AcDbEntity
  8
0
  6
Continuous
 62
     0
100
AcDbTrace
 10
162.089279
 20
71.614086
 30
0.0
 11
158.589267
 21
71.014181
 31
0.0
 12
162.089279
 22
70.414276
 32
0.0
 13
162.089279
 23
70.414276
 33
0.0
  0
SOLID
  5
DF
100
AcDbEntity
  8
0
  6
Continuous
 62
     0
100
AcDbTrace
 10
146.339223
 20
70.414276
 30
0.0
 11
149.839236
 21
71.014181
 31
0.0
 12
146.339223
 22
71.614086
 32
0.0
 13
146.339223
 23
71.614086
 33
0.0
  0
ENDBLK
  5
E0
100
AcDbEntity
  8
0
100
AcDbBlockEnd
  0
BLOCK
  5
E3
100
AcDbEntity
  8
0
100
AcDbBlockBegin
  2
*B17
 70
     0
 10
0.0
 20
0.0
 30
0.0
  3
*B17
  1

  0
LINE
  5
E4
100
AcDbEntity
  8
0
  6
Continuous
 62
     8
100
AcDbLine
 10
158.589267
 20
50.903342
 30
0.0
 11
158.589267
 21
73.014006
 31
0.0
  0
ENDBLK
  5
E5
100
AcDbEntity
  8
0
100
AcDbBlockEnd
  0
BLOCK
  5
E8
100
AcDbEntity
  8
0
100
AcDbBlockBegin
  2
*B18
 70
     0
 10
0.0
 20
0.0
 30
0.0
  3
*B18
  1

  0
LINE
  5
E9
100
AcDbEntity
  8
0
  6
Continuous
 62
     8
100
AcDbLine
 10
102.839312
 20
50.903342
 30
0.0
 11
102.839312
 21
73.014006
 31
0.0
  0
ENDBLK
  5
EA
100
AcDbEntity
  8
0
100
AcDbBlockEnd
  0
BLOCK
  5
ED
100
AcDbEntity
  8
0
100
AcDbBlockBegin
  2
*B19
 70
     0
 10
0.0
 20
0.0
 30
0.0
  3
*B19
  1

  0
LINE
  5
EE
100
AcDbEntity
  8
0
  6
Continuous
 62
     8
100
AcDbLine
 10
176.214238
 20
38.903968
 30
0.0
 11
197.518089
 21
38.903968
 31
0.0
  0
ENDBLK
  5
EF
100
AcDbEntity
  8
0
100
AcDbBlockEnd
  0
BLOCK
  5
F2
100
AcDbEntity
  8
0
100
AcDbBlockBegin
  2
*B20
 70
     0
 10
0.0
 20
0.0
 30
0.0
  3
*B20
  1

  0
LINE
  5
F3
100
AcDbEntity
  8
0
  6
Continuous
 62
     8
100
AcDbLine
 10
124.964208
 20
138.337374
 30
0.0
 11
124.964208
 21
156.009293
 31
0.0
  0
ENDBLK
  5
F4
100
AcDbEntity
  8
0
100
AcDbBlockEnd
  0
BLOCK
  5
F7
100
AcDbEntity
  8
0
100
AcDbBlockBegin
  2
*B21
 70
     0
 10
0.0
 20
0.0
 30
0.0
  3
*B21
  1

  0
LINE
  5
F8
100
AcDbEntity
  8
0
  6
Continuous
 62
     8
100
AcDbLine
 10
176.214238
 20
142.837299
 30
0.0
 11
198.018151
 21
142.837299
 31
0.0
  0
ENDBLK
  5
F9
100
AcDbEntity
  8
0
100
AcDbBlockEnd
  0
BLOCK
  5
FC
100
AcDbEntity
  8
0
100
AcDbBlockBegin
  2
*B22
 70
     0
 10
0.0
 20
0.0
 30
0.0
  3
*B22
  1

  0
LINE
  5
FD
100
AcDbEntity
  8
0
  6
Continuous
 62
     8
100
AcDbLine
 10
99.21439
 20
81.013518
 30
0.0
 11
99.21439
 21
105.839262
 31
0.0
  0
ENDBLK
  5
FE
100
AcDbEntity
  8
0
100
AcDbBlockEnd
  0
BLOCK
  5
101
100
AcDbEntity
  8
0
100
AcDbBlockBegin
  2
*B23
 70
     0
 10
0.0
 20
0.0
 30
0.0
  3
*B23
  1

  0
LINE
  5
102
100
AcDbEntity
  8
0
  6
Continuous
 62
     8
100
AcDbLine
 10
184.018101
 20
112.339012
 30
0.0
 11
188.018176
 21
112.339012
 31
0.0
  0
LINE
  5
103
100
AcDbEntity
  8
0
  6
Continuous
 62
     8
100
AcDbLine
 10
148.964232
 20
112.339012
 30
0.0
 11
152.714276
 21
112.339012
 31
0.0
  0
LINE
  5
104
100
AcDbEntity
  8
0
  6
Continuous
 62
     8
100
AcDbLine
 10
155.714226
 20
112.339012
 30
0.0
 11
160.540232
 21
112.339012
 31
0.0
  0
LINE
  5
105
100
AcDbEntity
  8
0
  6
Continuous
 62
     8
100
AcDbLine
 10
161.540145
 20
112.339012
 30
0.0
 11
162.54027
 21
112.339012
 31
0.0
  0
LINE
  5
106
100
AcDbEntity
  8
0
  6
Continuous
 62
     8
100
AcDbLine
 10
163.540182
 20
112.339012
 30
0.0
 11
168.366189
 21
112.339012
 31
0.0
  0
LINE
  5
107
100
AcDbEntity
  8
0
  6
Continuous
 62
     8
100
AcDbLine
 10
169.366101
 20
112.339012
 30
0.0
 11
170.366226
 21
112.339012
 31
0.0
  0
LINE
  5
108
100
AcDbEntity
  8
0
  6
Continuous
 62
     8
100
AcDbLine
 10
171.366139
 20
112.339012
 30
0.0
 11
176.192145
 21
112.339012
 31
0.0
  0
LINE
  5
109
100
AcDbEntity
  8
0
  6
Continuous
 62
     8
100
AcDbLine
 10
177.192058
 20
112.339012
 30
0.0
 11
178.192183
 21
112.339012
 31
0.0
  0
LINE
  5
10A
100
AcDbEntity
  8
0
  6
Continuous
 62
     8
100
AcDbLine
 10
179.192095
 20
112.339012
 30
0.0
 11
184.018101
 21
112.339012
 31
0.0
  0
ENDBLK
  5
10B
100
AcDbEntity
  8
0
100
AcDbBlockEnd
  0
BLOCK
  5
10E
100
AcDbEntity
  8
0
100
AcDbBlockBegin
  2
*B24
 70
     0
 10
0.0
 20
0.0
 30
0.0
  3
*B24
  1

  0
LINE
  5
10F
100
AcDbEntity
  8
0
  6
Continuous
 62
     8
100
AcDbLine
 10
130.96432
 20
112.339012
 30
0.0
 11
134.714364
 21
112.339012
 31
0.0
  0
LINE
  5
110
100
AcDbEntity
  8
0
  6
Continuous
 62
     8
100
AcDbLine
 10
137.714314
 20
112.339012
 30
0.0
 11
141.464358
 21
112.339012
 31
0.0
  0
ENDBLK
  5
111
100
AcDbEntity
  8
0
100
AcDbBlockEnd
  0
BLOCK
  5
114
100
AcDbEntity
  8
0
100
AcDbBlockBegin
  2
*B25
 70
     0
 10
0.0
 20
0.0
 30
0.0
  3
*B25
  1

  0
LINE
  5
115
100
AcDbEntity
  8
0
  6
Continuous
 62
     8
100
AcDbLine
 10
107.214327
 20
129.838012
 30
0.0
 11
107.214327
 21
136.337549
 31
0.0
  0
LINE
  5
116
100
AcDbEntity
  8
0
  6
Continuous
 62
     8
100
AcDbLine
 10
107.214327
 20
137.337461
 30
0.0
 11
107.214327
 21
138.337374
 31
0.0
  0
LINE
  5
117
100
AcDbEntity
  8
0
  6
Continuous
 62
     8
100
AcDbLine
 10
107.214327
 20
139.337499
 30
0.0
 11
107.214327
 21
145.837036
 31
0.0
  0
ENDBLK
  5
118
100
AcDbEntity
  8
0
100
AcDbBlockEnd
  0
BLOCK
  5
11B
100
AcDbEntity
  8
0
100
AcDbBlockBegin
  2
*B26
 70
     0
 10
0.0
 20
0.0
 30
0.0
  3
*B26
  1

  0
LINE
  5
11C
100
AcDbEntity
  8
0
  6
Continuous
 62
     8
100
AcDbLine
 10
107.214327
 20
42.528889
 30
0.0
 11
107.214327
 21
48.403455
 31
0.0
  0
LINE
  5
11D
100
AcDbEntity
  8
0
  6
Continuous
 62
     8
100
AcDbLine
 10
107.214327
 20
51.403405
 30
0.0
 11
107.214327
 21
57.277971
 31
0.0
  0
ENDBLK
  5
11E
100
AcDbEntity
  8
0
100
AcDbBlockEnd
  0
BLOCK
  5
121
100
AcDbEntity
  8
0
100
AcDbBlockBegin
  2
*B27
 70
     0
 10
0.0
 20
0.0
 30
0.0
  3
*B27
  1

  0
LINE
  5
122
100
AcDbEntity
  8
0
  6
Continuous
 62
     8
100
AcDbLine
 10
127.214277
 20
92.012981
 30
0.0
 11
127.214277
 21
96.012843
 31
0.0
  0
LINE
  5
123
100
AcDbEntity
  8
0
  6
Continuous
 62
     8
100
AcDbLine
 10
127.214277
 20
96.012843
 30
0.0
 11
127.214277
 21
101.577897
 31
0.0
  0
LINE
  5
124
100
AcDbEntity
  8
0
  6
Continuous
 62
     8
100
AcDbLine
 10
127.214277
 20
102.577809
 30
0.0
 11
127.214277
 21
103.577722
 31
0.0
  0
LINE
  5
125
100
AcDbEntity
  8
0
  6
Continuous
 62
     8
100
AcDbLine
 10
127.214277
 20
104.577634
 30
0.0
 11
127.214277
 21
110.1429
 31
0.0
  0
LINE
  5
126
100
AcDbEntity
  8
0
  6
Continuous
 62
     8
100
AcDbLine
 10
127.214277
 20
111.142813
 30
0.0
 11
127.214277
 21
112.142725
 31
0.0
  0
LINE
  5
127
100
AcDbEntity
  8
0
  6
Continuous
 62
     8
100
AcDbLine
 10
127.214277
 20
113.142638
 30
0.0
 11
127.214277
 21
118.707692
 31
0.0
  0
LINE
  5
128
100
AcDbEntity
  8
0
  6
Continuous
 62
     8
100
AcDbLine
 10
127.214277
 20
119.707604
 30
0.0
 11
127.214277
 21
120.707517
 31
0.0
  0
LINE
  5
129
100
AcDbEntity
  8
0
  6
Continuous
 62
     8
100
AcDbLine
 10
127.214277
 20
121.707642
 30
0.0
 11
127.214277
 21
127.272695
 31
0.0
  0
LINE
  5
12A
100
AcDbEntity
  8
0
  6
Continuous
 62
     8
100
AcDbLine
 10
127.214277
 20
128.272608
 30
0.0
 11
127.214277
 21
129.27252
 31
0.0
  0
LINE
  5
12B
100
AcDbEntity
  8
0
  6
Continuous
 62
     8
100
AcDbLine
 10
127.214277
 20
130.272433
 30
0.0
 11
127.214277
 21
135.837699
 31
0.0
  0
LINE
  5
12C
100
AcDbEntity
  8
0
  6
Continuous
 62
     8
100
AcDbLine
 10
127.214277
 20
138.837436
 30
0.0
 11
127.214277
 21
142.587268
 31
0.0
  0
ENDBLK
  5
12D
100
AcDbEntity
  8
0
100
AcDbBlockEnd
  0
BLOCK
  5
130
100
AcDbEntity
  8
0
100
AcDbBlockBegin
  2
*B28
 70
     0
 10
0.0
 20
0.0
 30
0.0
  3
*B28
  1

  0
LINE
  5
131
100
AcDbEntity
  8
0
  6
Continuous
 62
     8
100
AcDbLine
 10
149.839236
 20
50.903342
 30
0.0
 11
149.839236
 21
73.014006
 31
0.0
  0
ENDBLK
  5
132
100
AcDbEntity
  8
0
100
AcDbBlockEnd
  0
BLOCK
  5
135
100
AcDbEntity
  8
0
100
AcDbBlockBegin
  2
*B29
 70
     0
 10
0.0
 20
0.0
 30
0.0
  3
*B29
  1

  0
LINE
  5
136
100
AcDbEntity
  8
0
  6
Continuous
 62
     8
100
AcDbLine
 10
136.214339
 20
42.528889
 30
0.0
 11
136.214339
 21
48.403455
 31
0.0
  0
LINE
  5
137
100
AcDbEntity
  8
0
  6
Continuous
 62
     8
100
AcDbLine
 10
136.214339
 20
51.403405
 30
0.0
 11
136.214339
 21
57.277971
 31
0.0
  0
ENDBLK
  5
138
100
AcDbEntity
  8
0
100
AcDbBlockEnd
  0
BLOCK
  5
13B
100
AcDbEntity
  8
0
100
AcDbBlockBegin
  2
*B30
 70
     0
 10
0.0
 20
0.0
 30
0.0
  3
*B30
  1

  0
LINE
  5
13C
100
AcDbEntity
  8
0
  6
Continuous
 62
     8
100
AcDbLine
 10
145.214401
 20
92.012981
 30
0.0
 11
145.214401
 21
96.012843
 31
0.0
  0
LINE
  5
13D
100
AcDbEntity
  8
0
  6
Continuous
 62
     8
100
AcDbLine
 10
145.214401
 20
96.012843
 30
0.0
 11
145.214401
 21
101.954749
 31
0.0
  0
LINE
  5
13E
100
AcDbEntity
  8
0
  6
Continuous
 62
     8
100
AcDbLine
 10
145.214401
 20
102.954662
 30
0.0
 11
145.214401
 21
103.954787
 31
0.0
  0
LINE
  5
13F
100
AcDbEntity
  8
0
  6
Continuous
 62
     8
100
AcDbLine
 10
145.214401
 20
104.954699
 30
0.0
 11
145.214401
 21
110.896605
 31
0.0
  0
LINE
  5
140
100
AcDbEntity
  8
0
  6
Continuous
 62
     8
100
AcDbLine
 10
145.214401
 20
111.896518
 30
0.0
 11
145.214401
 21
112.89643
 31
0.0
  0
LINE
  5
141
100
AcDbEntity
  8
0
  6
Continuous
 62
     8
100
AcDbLine
 10
145.214401
 20
113.896555
 30
0.0
 11
145.214401
 21
119.838462
 31
0.0
  0
ENDBLK
  5
142
100
AcDbEntity
  8
0
100
AcDbBlockEnd
  0
BLOCK
  5
145
100
AcDbEntity
  8
0
100
AcDbBlockBegin
  2
*B31
 70
     0
 10
0.0
 20
0.0
 30
0.0
  3
*B31
  1

  0
LINE
  5
146
100
AcDbEntity
  8
0
  6
Continuous
 62
     8
100
AcDbLine
 10
176.214238
 20
60.902892
 30
0.0
 11
197.518089
 21
60.902892
 31
0.0
  0
ENDBLK
  5
147
100
AcDbEntity
  8
0
100
AcDbBlockEnd
  0
BLOCK
  5
14A
100
AcDbEntity
  8
0
100
AcDbBlockBegin
  2
*B32
 70
     0
 10
0.0
 20
0.0
 30
0.0
  3
*B32
  1

  0
LINE
  5
14B
100
AcDbEntity
  8
0
  6
Continuous
 62
     8
100
AcDbLine
 10
115.214265
 20
92.012981
 30
0.0
 11
115.214265
 21
105.839262
 31
0.0
  0
ENDBLK
  5
14C
100
AcDbEntity
  8
0
100
AcDbBlockEnd
  0
BLOCK
  5
14F
100
AcDbEntity
  8
0
100
AcDbBlockBegin
  2
*B33
 70
     0
 10
0.0
 20
0.0
 30
0.0
  3
*B33
  1

  0
LINE
  5
150
100
AcDbEntity
  8
0
  6
Continuous
 62
     8
100
AcDbLine
 10
175.214325
 20
81.013518
 30
0.0
 11
175.214325
 21
105.839262
 31
0.0
  0
LINE
  5
151
100
AcDbEntity
  8
0
  6
Continuous
 62
     8
100
AcDbLine
 10
175.214325
 20
143.837211
 30
0.0
 11
175.214325
 21
156.009293
 31
0.0
  0
ENDBLK
  5
152
100
AcDbEntity
  8
0
100
AcDbBlockEnd
  0
BLOCK
  5
155
100
AcDbEntity
  8
0
100
AcDbBlockBegin
  2
*B34
 70
     0
 10
0.0
 20
0.0
 30
0.0
  3
*B34
  1

  0
LINE
  5
156
100
AcDbEntity
  8
0
  6
Continuous
 62
     8
100
AcDbLine
 10
176.214238
 20
106.839174
 30
0.0
 11
198.018151
 21
106.839174
 31
0.0
  0
ENDBLK
  5
157
100
AcDbEntity
  8
0
100
AcDbBlockEnd
  0
BLOCK
  5
15A
100
AcDbEntity
  8
0
100
AcDbBlockBegin
  2
*B35
 70
     0
 10
0.0
 20
0.0
 30
0.0
  3
*B35
  1

  0
LINE
  5
15B
100
AcDbEntity
  8
0
  6
Continuous
 62
     8
100
AcDbLine
 10
111.589343
 20
50.903342
 30
0.0
 11
111.589343
 21
73.014006
 31
0.0
  0
ENDBLK
  5
15C
100
AcDbEntity
  8
0
100
AcDbBlockEnd
  0
BLOCK
  5
15F
100
AcDbEntity
  8
0
100
AcDbBlockBegin
  2
*B36
 70
     0
 10
0.0
 20
0.0
 30
0.0
  3
*B36
  1

  0
LINE
  5
160
100
AcDbEntity
  8
0
  6
Continuous
 62
     8
100
AcDbLine
 10
184.018101
 20
137.337461
 30
0.0
 11
188.018176
 21
137.337461
 31
0.0
  0
LINE
  5
161
100
AcDbEntity
  8
0
  6
Continuous
 62
     8
100
AcDbLine
 10
157.964295
 20
137.337461
 30
0.0
 11
161.714338
 21
137.337461
 31
0.0
  0
LINE
  5
162
100
AcDbEntity
  8
0
  6
Continuous
 62
     8
100
AcDbLine
 10
164.714288
 20
137.337461
 30
0.0
 11
172.866114
 21
137.337461
 31
0.0
  0
LINE
  5
163
100
AcDbEntity
  8
0
  6
Continuous
 62
     8
100
AcDbLine
 10
173.866239
 20
137.337461
 30
0.0
 11
174.866151
 21
137.337461
 31
0.0
  0
LINE
  5
164
100
AcDbEntity
  8
0
  6
Continuous
 62
     8
100
AcDbLine
 10
175.866276
 20
137.337461
 30
0.0
 11
184.018101
 21
137.337461
 31
0.0
  0
ENDBLK
  5
165
100
AcDbEntity
  8
0
100
AcDbBlockEnd
  0
BLOCK
  5
168
100
AcDbEntity
  8
0
100
AcDbBlockBegin
  2
*B37
 70
     0
 10
0.0
 20
0.0
 30
0.0
  3
*B37
  1

  0
LINE
  5
169
100
AcDbEntity
  8
0
  6
Continuous
 62
     8
100
AcDbLine
 10
129.464345
 20
138.337374
 30
0.0
 11
129.464345
 21
156.009293
 31
0.0
  0
ENDBLK
  5
16A
100
AcDbEntity
  8
0
100
AcDbBlockEnd
  0
BLOCK
  5
16D
100
AcDbEntity
  8
0
100
AcDbBlockBegin
  2
*B38
 70
     0
 10
0.0
 20
0.0
 30
0.0
  3
*B38
  1

  0
LINE
  5
16E
100
AcDbEntity
  8
0
  6
Continuous
 62
     8
100
AcDbLine
 10
176.214238
 20
81.013518
 30
0.0
 11
176.214238
 21
117.338574
 31
0.0
  0
ENDBLK
  5
16F
100
AcDbEntity
  8
0
100
AcDbBlockEnd
  0
BLOCK
  5
172
100
AcDbEntity
  8
0
100
AcDbBlockBegin
  2
*B39
 70
     0
 10
0.0
 20
0.0
 30
0.0
  3
*B39
  1

  0
LINE
  5
173
100
AcDbEntity
  8
0
  6
Continuous
 62
     8
100
AcDbLine
 10
121.964258
 20
137.337461
 30
0.0
 11
125.714302
 21
137.337461
 31
0.0
  0
LINE
  5
174
100
AcDbEntity
  8
0
  6
Continuous
 62
     8
100
AcDbLine
 10
128.714252
 20
137.337461
 30
0.0
 11
132.464295
 21
137.337461
 31
0.0
  0
ENDBLK
  5
175
100
AcDbEntity
  8
0
100
AcDbBlockEnd
  0
BLOCK
  5
178
100
AcDbEntity
  8
0
100
AcDbBlockBegin
  2
*B40
 70
     0
 10
0.0
 20
0.0
 30
0.0
  3
*B40
  1

  0
LINE
  5
179
100
AcDbEntity
  8
0
  6
Continuous
 62
     8
100
AcDbLine
 10
163.214313
 20
92.012981
 30
0.0
 11
163.214313
 21
96.012843
 31
0.0
  0
LINE
  5
17A
100
AcDbEntity
  8
0
  6
Continuous
 62
     8
100
AcDbLine
 10
163.214313
 20
96.012843
 30
0.0
 11
163.214313
 21
101.577897
 31
0.0
  0
LINE
  5
17B
100
AcDbEntity
  8
0
  6
Continuous
 62
     8
100
AcDbLine
 10
163.214313
 20
102.577809
 30
0.0
 11
163.214313
 21
103.577722
 31
0.0
  0
LINE
  5
17C
100
AcDbEntity
  8
0
  6
Continuous
 62
     8
100
AcDbLine
 10
163.214313
 20
104.577634
 30
0.0
 11
163.214313
 21
110.1429
 31
0.0
  0
LINE
  5
17D
100
AcDbEntity
  8
0
  6
Continuous
 62
     8
100
AcDbLine
 10
163.214313
 20
111.142813
 30
0.0
 11
163.214313
 21
112.142725
 31
0.0
  0
LINE
  5
17E
100
AcDbEntity
  8
0
  6
Continuous
 62
     8
100
AcDbLine
 10
163.214313
 20
113.142638
 30
0.0
 11
163.214313
 21
118.707692
 31
0.0
  0
LINE
  5
17F
100
AcDbEntity
  8
0
  6
Continuous
 62
     8
100
AcDbLine
 10
163.214313
 20
119.707604
 30
0.0
 11
163.214313
 21
120.707517
 31
0.0
  0
LINE
  5
180
100
AcDbEntity
  8
0
  6
Continuous
 62
     8
100
AcDbLine
 10
163.214313
 20
121.707642
 30
0.0
 11
163.214313
 21
127.272695
 31
0.0
  0
LINE
  5
181
100
AcDbEntity
  8
0
  6
Continuous
 62
     8
100
AcDbLine
 10
163.214313
 20
128.272608
 30
0.0
 11
163.214313
 21
129.27252
 31
0.0
  0
LINE
  5
182
100
AcDbEntity
  8
0
  6
Continuous
 62
     8
100
AcDbLine
 10
163.214313
 20
130.272433
 30
0.0
 11
163.214313
 21
135.837699
 31
0.0
  0
LINE
  5
183
100
AcDbEntity
  8
0
  6
Continuous
 62
     8
100
AcDbLine
 10
163.214313
 20
138.837436
 30
0.0
 11
163.214313
 21
142.587268
 31
0.0
  0
ENDBLK
  5
184
100
AcDbEntity
  8
0
100
AcDbBlockEnd
  0
BLOCK
  5
187
100
AcDbEntity
  8
0
100
AcDbBlockBegin
  2
*B41
 70
     0
 10
0.0
 20
0.0
 30
0.0
  3
*B41
  1

  0
LINE
  5
188
100
AcDbEntity
  8
0
  6
Continuous
 62
     8
100
AcDbLine
 10
136.214339
 20
152.009643
 30
0.0
 11
136.214339
 21
156.009293
 31
0.0
  0
LINE
  5
189
100
AcDbEntity
  8
0
  6
Continuous
 62
     8
100
AcDbLine
 10
136.214339
 20
107.089206
 30
0.0
 11
136.214339
 21
110.839037
 31
0.0
  0
LINE
  5
18A
100
AcDbEntity
  8
0
  6
Continuous
 62
     8
100
AcDbLine
 10
136.214339
 20
113.838774
 30
0.0
 11
136.214339
 21
119.073073
 31
0.0
  0
LINE
  5
18B
100
AcDbEntity
  8
0
  6
Continuous
 62
     8
100
AcDbLine
 10
136.214339
 20
120.072985
 30
0.0
 11
136.214339
 21
121.07311
 31
0.0
  0
LINE
  5
18C
100
AcDbEntity
  8
0
  6
Continuous
 62
     8
100
AcDbLine
 10
136.214339
 20
122.073023
 30
0.0
 11
136.214339
 21
127.307322
 31
0.0
  0
LINE
  5
18D
100
AcDbEntity
  8
0
  6
Continuous
 62
     8
100
AcDbLine
 10
136.214339
 20
128.307234
 30
0.0
 11
136.214339
 21
129.307147
 31
0.0
  0
LINE
  5
18E
100
AcDbEntity
  8
0
  6
Continuous
 62
     8
100
AcDbLine
 10
136.214339
 20
130.307059
 30
0.0
 11
136.214339
 21
135.541358
 31
0.0
  0
LINE
  5
18F
100
AcDbEntity
  8
0
  6
Continuous
 62
     8
100
AcDbLine
 10
136.214339
 20
136.54127
 30
0.0
 11
136.214339
 21
137.541183
 31
0.0
  0
LINE
  5
190
100
AcDbEntity
  8
0
  6
Continuous
 62
     8
100
AcDbLine
 10
136.214339
 20
138.541095
 30
0.0
 11
136.214339
 21
143.775394
 31
0.0
  0
LINE
  5
191
100
AcDbEntity
  8
0
  6
Continuous
 62
     8
100
AcDbLine
 10
136.214339
 20
144.775519
 30
0.0
 11
136.214339
 21
145.775431
 31
0.0
  0
LINE
  5
192
100
AcDbEntity
  8
0
  6
Continuous
 62
     8
100
AcDbLine
 10
136.214339
 20
146.775344
 30
0.0
 11
136.214339
 21
152.009643
 31
0.0
  0
ENDBLK
  5
193
100
AcDbEntity
  8
0
100
AcDbBlockEnd
  0
BLOCK
  5
196
100
AcDbEntity
  8
0
100
AcDbBlockBegin
  2
*B42
 70
     0
 10
0.0
 20
0.0
 30
0.0
  3
*B42
  1

  0
LINE
  5
197
100
AcDbEntity
  8
0
  6
Continuous
 62
     8
100
AcDbLine
 10
154.214251
 20
42.528889
 30
0.0
 11
154.214251
 21
48.403455
 31
0.0
  0
LINE
  5
198
100
AcDbEntity
  8
0
  6
Continuous
 62
     8
100
AcDbLine
 10
154.214251
 20
51.403405
 30
0.0
 11
154.214251
 21
57.277971
 31
0.0
  0
ENDBLK
  5
199
100
AcDbEntity
  8
0
100
AcDbBlockEnd
  0
BLOCK
  5
19C
100
AcDbEntity
  8
0
100
AcDbBlockBegin
  2
*B43
 70
     0
 10
0.0
 20
0.0
 30
0.0
  3
*B43
  1

  0
LINE
  5
19D
100
AcDbEntity
  8
0
  6
Continuous
 62
     8
100
AcDbLine
 10
154.214251
 20
152.009643
 30
0.0
 11
154.214251
 21
156.009293
 31
0.0
  0
LINE
  5
19E
100
AcDbEntity
  8
0
  6
Continuous
 62
     8
100
AcDbLine
 10
154.214251
 20
107.089206
 30
0.0
 11
154.214251
 21
110.839037
 31
0.0
  0
LINE
  5
19F
100
AcDbEntity
  8
0
  6
Continuous
 62
     8
100
AcDbLine
 10
154.214251
 20
113.838774
 30
0.0
 11
154.214251
 21
119.073073
 31
0.0
  0
LINE
  5
1A0
100
AcDbEntity
  8
0
  6
Continuous
 62
     8
100
AcDbLine
 10
154.214251
 20
120.072985
 30
0.0
 11
154.214251
 21
121.07311
 31
0.0
  0
LINE
  5
1A1
100
AcDbEntity
  8
0
  6
Continuous
 62
     8
100
AcDbLine
 10
154.214251
 20
122.073023
 30
0.0
 11
154.214251
 21
127.307322
 31
0.0
  0
LINE
  5
1A2
100
AcDbEntity
  8
0
  6
Continuous
 62
     8
100
AcDbLine
 10
154.214251
 20
128.307234
 30
0.0
 11
154.214251
 21
129.307147
 31
0.0
  0
LINE
  5
1A3
100
AcDbEntity
  8
0
  6
Continuous
 62
     8
100
AcDbLine
 10
154.214251
 20
130.307059
 30
0.0
 11
154.214251
 21
135.541358
 31
0.0
  0
LINE
  5
1A4
100
AcDbEntity
  8
0
  6
Continuous
 62
     8
100
AcDbLine
 10
154.214251
 20
136.54127
 30
0.0
 11
154.214251
 21
137.541183
 31
0.0
  0
LINE
  5
1A5
100
AcDbEntity
  8
0
  6
Continuous
 62
     8
100
AcDbLine
 10
154.214251
 20
138.541095
 30
0.0
 11
154.214251
 21
143.775394
 31
0.0
  0
LINE
  5
1A6
100
AcDbEntity
  8
0
  6
Continuous
 62
     8
100
AcDbLine
 10
154.214251
 20
144.775519
 30
0.0
 11
154.214251
 21
145.775431
 31
0.0
  0
LINE
  5
1A7
100
AcDbEntity
  8
0
  6
Continuous
 62
     8
100
AcDbLine
 10
154.214251
 20
146.775344
 30
0.0
 11
154.214251
 21
152.009643
 31
0.0
  0
ENDBLK
  5
1A8
100
AcDbEntity
  8
0
100
AcDbBlockEnd
  0
BLOCK
  5
1AB
100
AcDbEntity
  8
0
100
AcDbBlockBegin
  2
*B44
 70
     0
 10
0.0
 20
0.0
 30
0.0
  3
*B44
  1

  0
LINE
  5
1AC
100
AcDbEntity
  8
0
  6
Continuous
 62
     8
100
AcDbLine
 10
99.71424
 20
124.838237
 30
0.0
 11
104.864416
 21
124.838237
 31
0.0
  0
LINE
  5
1AD
100
AcDbEntity
  8
0
  6
Continuous
 62
     8
100
AcDbLine
 10
105.864329
 20
124.838237
 30
0.0
 11
106.864241
 21
124.838237
 31
0.0
  0
LINE
  5
1AE
100
AcDbEntity
  8
0
  6
Continuous
 62
     8
100
AcDbLine
 10
107.864366
 20
124.838237
 30
0.0
 11
113.01433
 21
124.838237
 31
0.0
  0
LINE
  5
1AF
100
AcDbEntity
  8
0
  6
Continuous
 62
     8
100
AcDbLine
 10
114.014242
 20
124.838237
 30
0.0
 11
115.014367
 21
124.838237
 31
0.0
  0
LINE
  5
1B0
100
AcDbEntity
  8
0
  6
Continuous
 62
     8
100
AcDbLine
 10
116.01428
 20
124.838237
 30
0.0
 11
121.164243
 21
124.838237
 31
0.0
  0
LINE
  5
1B1
100
AcDbEntity
  8
0
  6
Continuous
 62
     8
100
AcDbLine
 10
122.164368
 20
124.838237
 30
0.0
 11
123.164281
 21
124.838237
 31
0.0
  0
LINE
  5
1B2
100
AcDbEntity
  8
0
  6
Continuous
 62
     8
100
AcDbLine
 10
124.164193
 20
124.838237
 30
0.0
 11
129.314369
 21
124.838237
 31
0.0
  0
LINE
  5
1B3
100
AcDbEntity
  8
0
  6
Continuous
 62
     8
100
AcDbLine
 10
130.314282
 20
124.838237
 30
0.0
 11
131.314407
 21
124.838237
 31
0.0
  0
LINE
  5
1B4
100
AcDbEntity
  8
0
  6
Continuous
 62
     8
100
AcDbLine
 10
132.314319
 20
124.838237
 30
0.0
 11
137.464283
 21
124.838237
 31
0.0
  0
LINE
  5
1B5
100
AcDbEntity
  8
0
  6
Continuous
 62
     8
100
AcDbLine
 10
138.464195
 20
124.838237
 30
0.0
 11
139.46432
 21
124.838237
 31
0.0
  0
LINE
  5
1B6
100
AcDbEntity
  8
0
  6
Continuous
 62
     8
100
AcDbLine
 10
140.464233
 20
124.838237
 30
0.0
 11
145.614196
 21
124.838237
 31
0.0
  0
LINE
  5
1B7
100
AcDbEntity
  8
0
  6
Continuous
 62
     8
100
AcDbLine
 10
146.614321
 20
124.838237
 30
0.0
 11
147.614234
 21
124.838237
 31
0.0
  0
LINE
  5
1B8
100
AcDbEntity
  8
0
  6
Continuous
 62
     8
100
AcDbLine
 10
148.614359
 20
124.838237
 30
0.0
 11
153.764322
 21
124.838237
 31
0.0
  0
LINE
  5
1B9
100
AcDbEntity
  8
0
  6
Continuous
 62
     8
100
AcDbLine
 10
154.764235
 20
124.838237
 30
0.0
 11
155.76436
 21
124.838237
 31
0.0
  0
LINE
  5
1BA
100
AcDbEntity
  8
0
  6
Continuous
 62
     8
100
AcDbLine
 10
156.764272
 20
124.838237
 30
0.0
 11
161.914236
 21
124.838237
 31
0.0
  0
LINE
  5
1BB
100
AcDbEntity
  8
0
  6
Continuous
 62
     8
100
AcDbLine
 10
162.914361
 20
124.838237
 30
0.0
 11
163.914273
 21
124.838237
 31
0.0
  0
LINE
  5
1BC
100
AcDbEntity
  8
0
  6
Continuous
 62
     8
100
AcDbLine
 10
164.914186
 20
124.838237
 30
0.0
 11
170.064362
 21
124.838237
 31
0.0
  0
LINE
  5
1BD
100
AcDbEntity
  8
0
  6
Continuous
 62
     8
100
AcDbLine
 10
171.064274
 20
124.838237
 30
0.0
 11
172.064187
 21
124.838237
 31
0.0
  0
LINE
  5
1BE
100
AcDbEntity
  8
0
  6
Continuous
 62
     8
100
AcDbLine
 10
173.064312
 20
124.838237
 30
0.0
 11
178.214275
 21
124.838237
 31
0.0
  0
ENDBLK
  5
1BF
100
AcDbEntity
  8
0
100
AcDbBlockEnd
  0
BLOCK
  5
1C2
100
AcDbEntity
  8
0
100
AcDbBlockBegin
  2
*B45
 70
     0
 10
0.0
 20
0.0
 30
0.0
  3
*B45
  1

  0
LINE
  5
1C3
100
AcDbEntity
  8
0
  6
Continuous
 62
     8
100
AcDbLine
 10
96.214228
 20
49.90343
 30
0.0
 11
105.714352
 21
49.90343
 31
0.0
  0
LINE
  5
1C4
100
AcDbEntity
  8
0
  6
Continuous
 62
     8
100
AcDbLine
 10
108.714302
 20
49.90343
 30
0.0
 11
115.381023
 21
49.90343
 31
0.0
  0
LINE
  5
1C5
100
AcDbEntity
  8
0
  6
Continuous
 62
     8
100
AcDbLine
 10
116.380935
 20
49.90343
 30
0.0
 11
117.38106
 21
49.90343
 31
0.0
  0
LINE
  5
1C6
100
AcDbEntity
  8
0
  6
Continuous
 62
     8
100
AcDbLine
 10
118.380973
 20
49.90343
 30
0.0
 11
125.047693
 21
49.90343
 31
0.0
  0
LINE
  5
1C7
100
AcDbEntity
  8
0
  6
Continuous
 62
     8
100
AcDbLine
 10
126.047606
 20
49.90343
 30
0.0
 11
127.047731
 21
49.90343
 31
0.0
  0
LINE
  5
1C8
100
AcDbEntity
  8
0
  6
Continuous
 62
     8
100
AcDbLine
 10
128.047643
 20
49.90343
 30
0.0
 11
134.714364
 21
49.90343
 31
0.0
  0
LINE
  5
1C9
100
AcDbEntity
  8
0
  6
Continuous
 62
     8
100
AcDbLine
 10
137.714314
 20
49.90343
 30
0.0
 11
143.714214
 21
49.90343
 31
0.0
  0
LINE
  5
1CA
100
AcDbEntity
  8
0
  6
Continuous
 62
     8
100
AcDbLine
 10
144.714339
 20
49.90343
 30
0.0
 11
145.714251
 21
49.90343
 31
0.0
  0
LINE
  5
1CB
100
AcDbEntity
  8
0
  6
Continuous
 62
     8
100
AcDbLine
 10
146.714376
 20
49.90343
 30
0.0
 11
152.714276
 21
49.90343
 31
0.0
  0
LINE
  5
1CC
100
AcDbEntity
  8
0
  6
Continuous
 62
     8
100
AcDbLine
 10
155.714226
 20
49.90343
 30
0.0
 11
161.54758
 21
49.90343
 31
0.0
  0
LINE
  5
1CD
100
AcDbEntity
  8
0
  6
Continuous
 62
     8
100
AcDbLine
 10
162.547705
 20
49.90343
 30
0.0
 11
163.547617
 21
49.90343
 31
0.0
  0
LINE
  5
1CE
100
AcDbEntity
  8
0
  6
Continuous
 62
     8
100
AcDbLine
 10
164.54753
 20
49.90343
 30
0.0
 11
170.380884
 21
49.90343
 31
0.0
  0
LINE
  5
1CF
100
AcDbEntity
  8
0
  6
Continuous
 62
     8
100
AcDbLine
 10
171.381009
 20
49.90343
 30
0.0
 11
172.380921
 21
49.90343
 31
0.0
  0
LINE
  5
1D0
100
AcDbEntity
  8
0
  6
Continuous
 62
     8
100
AcDbLine
 10
173.381046
 20
49.90343
 30
0.0
 11
179.214188
 21
49.90343
 31
0.0
  0
ENDBLK
  5
1D1
100
AcDbEntity
  8
0
100
AcDbBlockEnd
  0
BLOCK
  5
1D4
100
AcDbEntity
  8
0
100
AcDbBlockBegin
  2
*B46
 70
     0
 10
0.0
 20
0.0
 30
0.0
  3
*B46
  1

  0
LINE
  5
1D5
100
AcDbEntity
  8
0
  6
Continuous
 62
     6
100
AcDbLine
 10
162.714251
 20
137.337461
 30
0.0
 11
163.714376
 21
137.337461
 31
0.0
  0
LINE
  5
1D6
100
AcDbEntity
  8
0
  6
Continuous
 62
     6
100
AcDbLine
 10
163.214313
 20
136.837611
 30
0.0
 11
163.214313
 21
137.837524
 31
0.0
  0
ENDBLK
  5
1D7
100
AcDbEntity
  8
0
100
AcDbBlockEnd
  0
BLOCK
  5
1DA
100
AcDbEntity
  8
0
100
AcDbBlockBegin
  2
*B47
 70
     0
 10
0.0
 20
0.0
 30
0.0
  3
*B47
  1

  0
LINE
  5
1DB
100
AcDbEntity
  8
0
  6
Continuous
 62
     6
100
AcDbLine
 10
98.714328
 20
124.838237
 30
0.0
 11
99.71424
 21
124.838237
 31
0.0
  0
LINE
  5
1DC
100
AcDbEntity
  8
0
  6
Continuous
 62
     6
100
AcDbLine
 10
99.21439
 20
124.338174
 30
0.0
 11
99.21439
 21
125.338087
 31
0.0
  0
ENDBLK
  5
1DD
100
AcDbEntity
  8
0
100
AcDbBlockEnd
  0
BLOCK
  5
1E0
100
AcDbEntity
  8
0
100
AcDbBlockBegin
  2
*B48
 70
     0
 10
0.0
 20
0.0
 30
0.0
  3
*B48
  1

  0
LINE
  5
1E1
100
AcDbEntity
  8
0
  6
Continuous
 62
     6
100
AcDbLine
 10
153.714189
 20
112.339012
 30
0.0
 11
154.714314
 21
112.339012
 31
0.0
  0
LINE
  5
1E2
100
AcDbEntity
  8
0
  6
Continuous
 62
     6
100
AcDbLine
 10
154.214251
 20
111.838949
 30
0.0
 11
154.214251
 21
112.838862
 31
0.0
  0
ENDBLK
  5
1E3
100
AcDbEntity
  8
0
100
AcDbBlockEnd
  0
BLOCK
  5
1E6
100
AcDbEntity
  8
0
100
AcDbBlockBegin
  2
*B49
 70
     0
 10
0.0
 20
0.0
 30
0.0
  3
*B49
  1

  0
LINE
  5
1E7
100
AcDbEntity
  8
0
  6
Continuous
 62
     6
100
AcDbLine
 10
136.214339
 20
49.403368
 30
0.0
 11
136.214339
 21
50.403492
 31
0.0
  0
LINE
  5
1E8
100
AcDbEntity
  8
0
  6
Continuous
 62
     6
100
AcDbLine
 10
135.714277
 20
49.90343
 30
0.0
 11
136.714189
 21
49.90343
 31
0.0
  0
ENDBLK
  5
1E9
100
AcDbEntity
  8
0
100
AcDbBlockEnd
  0
BLOCK
  5
1EC
100
AcDbEntity
  8
0
100
AcDbBlockBegin
  2
*B50
 70
     0
 10
0.0
 20
0.0
 30
0.0
  3
*B50
  1

  0
LINE
  5
1ED
100
AcDbEntity
  8
0
  6
Continuous
 62
     6
100
AcDbLine
 10
127.214277
 20
136.837611
 30
0.0
 11
127.214277
 21
137.837524
 31
0.0
  0
LINE
  5
1EE
100
AcDbEntity
  8
0
  6
Continuous
 62
     6
100
AcDbLine
 10
126.714214
 20
137.337461
 30
0.0
 11
127.714339
 21
137.337461
 31
0.0
  0
ENDBLK
  5
1EF
100
AcDbEntity
  8
0
100
AcDbBlockEnd
  0
BLOCK
  5
1F2
100
AcDbEntity
  8
0
100
AcDbBlockBegin
  2
*B51
 70
     0
 10
0.0
 20
0.0
 30
0.0
  3
*B51
  1

  0
LINE
  5
1F3
100
AcDbEntity
  8
0
  6
Continuous
 62
     6
100
AcDbLine
 10
154.214251
 20
49.403368
 30
0.0
 11
154.214251
 21
50.403492
 31
0.0
  0
LINE
  5
1F4
100
AcDbEntity
  8
0
  6
Continuous
 62
     6
100
AcDbLine
 10
153.714189
 20
49.90343
 30
0.0
 11
154.714314
 21
49.90343
 31
0.0
  0
ENDBLK
  5
1F5
100
AcDbEntity
  8
0
100
AcDbBlockEnd
  0
BLOCK
  5
1F8
100
AcDbEntity
  8
0
100
AcDbBlockBegin
  2
*B52
 70
     0
 10
0.0
 20
0.0
 30
0.0
  3
*B52
  1

  0
LINE
  5
1F9
100
AcDbEntity
  8
0
  6
Continuous
 62
     6
100
AcDbLine
 10
107.214327
 20
49.403368
 30
0.0
 11
107.214327
 21
50.403492
 31
0.0
  0
LINE
  5
1FA
100
AcDbEntity
  8
0
  6
Continuous
 62
     6
100
AcDbLine
 10
106.714265
 20
49.90343
 30
0.0
 11
107.71439
 21
49.90343
 31
0.0
  0
ENDBLK
  5
1FB
100
AcDbEntity
  8
0
100
AcDbBlockEnd
  0
BLOCK
  5
1FE
100
AcDbEntity
  8
0
100
AcDbBlockBegin
  2
*B53
 70
     0
 10
0.0
 20
0.0
 30
0.0
  3
*B53
  1

  0
LINE
  5
1FF
100
AcDbEntity
  8
0
  6
Continuous
 62
     6
100
AcDbLine
 10
135.714277
 20
112.339012
 30
0.0
 11
136.714189
 21
112.339012
 31
0.0
  0
LINE
  5
200
100
AcDbEntity
  8
0
  6
Continuous
 62
     6
100
AcDbLine
 10
136.214339
 20
111.838949
 30
0.0
 11
136.214339
 21
112.838862
 31
0.0
  0
ENDBLK
  5
201
100
AcDbEntity
  8
0
100
AcDbBlockEnd
  0
BLOCK
  5
204
100
AcDbEntity
  8
0
100
AcDbBlockBegin
  2
*B54
 70
     0
 10
0.0
 20
0.0
 30
0.0
  3
*B54
  1

  0
TEXT
  5
205
100
AcDbEntity
  8
TEXT
  6
Continuous
 62
     0
100
AcDbText
 10
161.5886
 20
109.0
 30
0.0
 40
4.0
  1
3
100
AcDbText
  0
ENDBLK
  5
206
100
AcDbEntity
  8
0
100
AcDbBlockEnd
  0
BLOCK
  5
209
100
AcDbEntity
  8
0
100
AcDbBlockBegin
  2
*B55
 70
     0
 10
0.0
 20
0.0
 30
0.0
  3
*B55
  1

  0
TEXT
  5
20A
100
AcDbEntity
  8
TEXT
  6
Continuous
 62
     0
100
AcDbText
 10
125.5886
 20
109.0
 30
0.0
 40
4.0
  1
5
100
AcDbText
  0
ENDBLK
  5
20B
100
AcDbEntity
  8
0
100
AcDbBlockEnd
  0
BLOCK
  5
20E
100
AcDbEntity
  8
0
100
AcDbBlockBegin
  2
*B56
 70
     0
 10
0.0
 20
0.0
 30
0.0
  3
*B56
  1

  0
TEXT
  5
20F
100
AcDbEntity
  8
TEXT
  6
Continuous
 62
     0
100
AcDbText
 10
153.0886
 20
137.0
 30
0.0
 40
4.0
  1
2
100
AcDbText
  0
ENDBLK
  5
210
100
AcDbEntity
  8
0
100
AcDbBlockEnd
  0
BLOCK
  5
213
100
AcDbEntity
  8
0
100
AcDbBlockBegin
  2
*B57
 70
     0
 10
0.0
 20
0.0
 30
0.0
  3
*B57
  1

  0
TEXT
  5
214
100
AcDbEntity
  8
TEXT
  6
Continuous
 62
     0
100
AcDbText
 10
143.5886
 20
109.0
 30
0.0
 40
4.0
  1
1
100
AcDbText
  0
ENDBLK
  5
215
100
AcDbEntity
  8
0
100
AcDbBlockEnd
  0
BLOCK
  5
218
100
AcDbEntity
  8
0
100
AcDbBlockBegin
  2
*B58
 70
     0
 10
0.0
 20
0.0
 30
0.0
  3
*B58
  1

  0
TEXT
  5
219
100
AcDbEntity
  8
TEXT
  6
Continuous
 62
     0
100
AcDbText
 10
134.5886
 20
137.0
 30
0.0
 40
4.0
  1
4
100
AcDbText
  0
ENDBLK
  5
21A
100
AcDbEntity
  8
0
100
AcDbBlockEnd
  0
BLOCK
  5
21D
100
AcDbEntity
  8
0
100
AcDbBlockBegin
  2
*B59
 70
     0
 10
0.0
 20
0.0
 30
0.0
  3
*B59
  1

  0
TEXT
  5
21E
100
AcDbEntity
  8
TEXT
  6
Continuous
 62
     0
100
AcDbText
 10
117.1772
 20
123.5
 30
0.0
 40
4.0
  1
14
100
AcDbText
  0
ENDBLK
  5
21F
100
AcDbEntity
  8
0
100
AcDbBlockEnd
  0
BLOCK
  5
222
100
AcDbEntity
  8
0
100
AcDbBlockBegin
  2
*B60
 70
     0
 10
0.0
 20
0.0
 30
0.0
  3
*B60
  1

  0
TEXT
  5
223
100
AcDbEntity
  8
TEXT
  6
Continuous
 62
     0
100
AcDbText
 10
167.1772
 20
123.0
 30
0.0
 40
4.0
  1
12
100
AcDbText
  0
ENDBLK
  5
224
100
AcDbEntity
  8
0
100
AcDbBlockEnd
  0
BLOCK
  5
227
100
AcDbEntity
  8
0
100
AcDbBlockBegin
  2
*B61
 70
     0
 10
0.0
 20
0.0
 30
0.0
  3
*B61
  1

  0
TEXT
  5
228
100
AcDbEntity
  8
TEXT
  6
Continuous
 62
     0
100
AcDbText
 10
116.785714
 20
72.5
 30
0.0
 40
3.0
  1
G 1/8"
100
AcDbText
  0
ENDBLK
  5
229
100
AcDbEntity
  8
0
100
AcDbBlockEnd
  0
BLOCK
  5
22C
100
AcDbEntity
  8
0
100
AcDbBlockBegin
  2
*B62
 70
     0
 10
0.0
 20
0.0
 30
0.0
  3
*B62
  1

  0
TEXT
  5
22D
100
AcDbEntity
  8
TEXT
  6
Continuous
 62
     0
100
AcDbText
 10
134.901523
 20
84.5
 30
0.0
 40
3.0
  1
76
100
AcDbText
  0
ENDBLK
  5
22E
100
AcDbEntity
  8
0
100
AcDbBlockEnd
  0
BLOCK
  5
231
100
AcDbEntity
  8
0
100
AcDbBlockBegin
  2
*B63
 70
     0
 10
0.0
 20
0.0
 30
0.0
  3
*B63
  1

  0
TEXT
  5
232
100
AcDbEntity
  8
TEXT
  6
Continuous
 62
     0
100
AcDbText
 10
181.133929
 20
84.5
 30
0.0
 40
3.0
  1
1
100
AcDbText
  0
ENDBLK
  5
233
100
AcDbEntity
  8
0
100
AcDbBlockEnd
  0
BLOCK
  5
236
100
AcDbEntity
  8
0
100
AcDbBlockBegin
  2
*B64
 70
     0
 10
0.0
 20
0.0
 30
0.0
  3
*B64
  1

  0
TEXT
  5
237
100
AcDbEntity
  8
TEXT
  6
Continuous
 62
     0
100
AcDbText
 10
118.205357
 20
95.5
 30
0.0
 40
3.0
  1
12
100
AcDbText
  0
ENDBLK
  5
238
100
AcDbEntity
  8
0
100
AcDbBlockEnd
  0
BLOCK
  5
23B
100
AcDbEntity
  8
0
100
AcDbBlockBegin
  2
*B65
 70
     0
 10
0.0
 20
0.0
 30
0.0
  3
*B65
  1

  0
TEXT
  5
23C
100
AcDbEntity
  8
TEXT
  6
Continuous
 62
     0
100
AcDbText
 10
133.901523
 20
95.5
 30
0.0
 40
3.0
  1
18
100
AcDbText
  0
ENDBLK
  5
23D
100
AcDbEntity
  8
0
100
AcDbBlockEnd
  0
BLOCK
  5
240
100
AcDbEntity
  8
0
100
AcDbBlockBegin
  2
*B66
 70
     0
 10
0.0
 20
0.0
 30
0.0
  3
*B66
  1

  0
TEXT
  5
241
100
AcDbEntity
  8
TEXT
  6
Continuous
 62
     0
100
AcDbText
 10
151.901523
 20
95.5
 30
0.0
 40
3.0
  1
18
100
AcDbText
  0
ENDBLK
  5
242
100
AcDbEntity
  8
0
100
AcDbBlockEnd
  0
BLOCK
  5
245
100
AcDbEntity
  8
0
100
AcDbBlockBegin
  2
*B67
 70
     0
 10
0.0
 20
0.0
 30
0.0
  3
*B67
  1

  0
TEXT
  5
246
100
AcDbEntity
  8
TEXT
  6
Continuous
 62
     0
100
AcDbText
 10
166.205357
 20
95.5
 30
0.0
 40
3.0
  1
12
100
AcDbText
  0
ENDBLK
  5
247
100
AcDbEntity
  8
0
100
AcDbBlockEnd
  0
BLOCK
  5
24A
100
AcDbEntity
  8
0
100
AcDbBlockBegin
  2
*B68
 70
     0
 10
0.0
 20
0.0
 30
0.0
  3
*B68
  1

  0
TEXT
  5
24B
100
AcDbEntity
  8
TEXT
  6
Continuous
 62
     0
100
AcDbText
 10
162.401523
 20
155.5
 30
0.0
 40
3.0
  1
21
100
AcDbText
  0
ENDBLK
  5
24C
100
AcDbEntity
  8
0
100
AcDbBlockEnd
  0
BLOCK
  5
24F
100
AcDbEntity
  8
0
100
AcDbBlockBegin
  2
*B69
 70
     0
 10
0.0
 20
0.0
 30
0.0
  3
*B69
  1

  0
TEXT
  5
250
100
AcDbEntity
  8
TEXT
  6
Continuous
 62
     0
100
AcDbText
 10
142.901523
 20
155.5
 30
0.0
 40
3.0
  1
18
100
AcDbText
  0
ENDBLK
  5
251
100
AcDbEntity
  8
0
100
AcDbBlockEnd
  0
BLOCK
  5
254
100
AcDbEntity
  8
0
100
AcDbBlockBegin
  2
*B70
 70
     0
 10
0.0
 20
0.0
 30
0.0
  3
*B70
  1

  0
TEXT
  5
255
100
AcDbEntity
  8
TEXT
  6
Continuous
 62
     0
100
AcDbText
 10
108.891071
 20
155.5
 30
0.0
 40
3.0
  1
%%c4,5
100
AcDbText
  0
ENDBLK
  5
256
100
AcDbEntity
  8
0
100
AcDbBlockEnd
  0
BLOCK
  5
259
100
AcDbEntity
  8
0
100
AcDbBlockBegin
  2
*B71
 70
     0
 10
0.0
 20
0.0
 30
0.0
  3
*B71
  1

  0
TEXT
  5
25A
100
AcDbEntity
  8
TEXT
  6
Continuous
 62
     0
100
AcDbText
 10
184.5
 20
122.532419
 30
0.0
 40
3.0
  1
25
 50
90.0
100
AcDbText
  0
ENDBLK
  5
25B
100
AcDbEntity
  8
0
100
AcDbBlockEnd
  0
BLOCK
  5
25E
100
AcDbEntity
  8
0
100
AcDbBlockBegin
  2
*B72
 70
     0
 10
0.0
 20
0.0
 30
0.0
  3
*B72
  1

  0
TEXT
  5
25F
100
AcDbEntity
  8
TEXT
  6
Continuous
 62
     0
100
AcDbText
 10
194.5
 20
122.532419
 30
0.0
 40
3.0
  1
36
 50
90.0
100
AcDbText
  0
ENDBLK
  5
260
100
AcDbEntity
  8
0
100
AcDbBlockEnd
  0
BLOCK
  5
263
100
AcDbEntity
  8
0
100
AcDbBlockBegin
  2
*B73
 70
     0
 10
0.0
 20
0.0
 30
0.0
  3
*B73
  1

  0
TEXT
  5
264
100
AcDbEntity
  8
TEXT
  6
Continuous
 62
     0
100
AcDbText
 10
194.0
 20
47.593396
 30
0.0
 40
3.0
  1
22
 50
90.0
100
AcDbText
  0
ENDBLK
  5
265
100
AcDbEntity
  8
0
100
AcDbBlockEnd
  0
BLOCK
  5
268
100
AcDbEntity
  8
0
100
AcDbBlockBegin
  2
*B74
 70
     0
 10
0.0
 20
0.0
 30
0.0
  3
*B74
  1

  0
TEXT
  5
269
100
AcDbEntity
  8
TEXT
  6
Continuous
 62
     0
100
AcDbText
 10
162.785714
 20
72.5
 30
0.0
 40
3.0
  1
G 1/8"
100
AcDbText
  0
ENDBLK
  5
26A
100
AcDbEntity
  8
0
100
AcDbBlockEnd
  0
ENDSEC
  0
SECTION
  2
ENTITIES
  0
INSERT
  5
69
100
AcDbEntity
  8
0
  6
Continuous
 62
   174
100
AcDbBlockReference
  2
*B1
 10
0.0
 20
0.0
 30
0.0
  0
INSERT
  5
7F
100
AcDbEntity
  8
0
  6
Continuous
 62
   174
100
AcDbBlockReference
  2
*B2
 10
0.0
 20
0.0
 30
0.0
  0
INSERT
  5
86
100
AcDbEntity
  8
0
  6
Continuous
 62
     0
100
AcDbBlockReference
  2
*B3
 10
0.0
 20
0.0
 30
0.0
  0
INSERT
  5
8D
100
AcDbEntity
  8
0
  6
Continuous
 62
     0
100
AcDbBlockReference
  2
*B4
 10
0.0
 20
0.0
 30
0.0
  0
INSERT
  5
94
100
AcDbEntity
  8
0
  6
Continuous
 62
     0
100
AcDbBlockReference
  2
*B5
 10
0.0
 20
0.0
 30
0.0
  0
INSERT
  5
9B
100
AcDbEntity
  8
0
  6
Continuous
 62
     0
100
AcDbBlockReference
  2
*B6
 10
0.0
 20
0.0
 30
0.0
  0
INSERT
  5
A2
100
AcDbEntity
  8
0
  6
Continuous
 62
     0
100
AcDbBlockReference
  2
*B7
 10
0.0
 20
0.0
 30
0.0
  0
INSERT
  5
A9
100
AcDbEntity
  8
0
  6
Continuous
 62
     0
100
AcDbBlockReference
  2
*B8
 10
0.0
 20
0.0
 30
0.0
  0
INSERT
  5
B0
100
AcDbEntity
  8
0
  6
Continuous
 62
     0
100
AcDbBlockReference
  2
*B9
 10
0.0
 20
0.0
 30
0.0
  0
INSERT
  5
B7
100
AcDbEntity
  8
0
  6
Continuous
 62
     0
100
AcDbBlockReference
  2
*B10
 10
0.0
 20
0.0
 30
0.0
  0
INSERT
  5
BE
100
AcDbEntity
  8
0
  6
Continuous
 62
     0
100
AcDbBlockReference
  2
*B11
 10
0.0
 20
0.0
 30
0.0
  0
INSERT
  5
C5
100
AcDbEntity
  8
0
  6
Continuous
 62
     0
100
AcDbBlockReference
  2
*B12
 10
0.0
 20
0.0
 30
0.0
  0
INSERT
  5
CC
100
AcDbEntity
  8
0
  6
Continuous
 62
     0
100
AcDbBlockReference
  2
*B13
 10
0.0
 20
0.0
 30
0.0
  0
INSERT
  5
D3
100
AcDbEntity
  8
0
  6
Continuous
 62
     0
100
AcDbBlockReference
  2
*B14
 10
0.0
 20
0.0
 30
0.0
  0
INSERT
  5
DA
100
AcDbEntity
  8
0
  6
Continuous
 62
     0
100
AcDbBlockReference
  2
*B15
 10
0.0
 20
0.0
 30
0.0
  0
INSERT
  5
E1
100
AcDbEntity
  8
0
  6
Continuous
 62
     0
100
AcDbBlockReference
  2
*B16
 10
0.0
 20
0.0
 30
0.0
  0
INSERT
  5
E6
100
AcDbEntity
  8
0
  6
Continuous
 62
     8
100
AcDbBlockReference
  2
*B17
 10
0.0
 20
0.0
 30
0.0
  0
INSERT
  5
EB
100
AcDbEntity
  8
0
  6
Continuous
 62
     8
100
AcDbBlockReference
  2
*B18
 10
0.0
 20
0.0
 30
0.0
  0
INSERT
  5
F0
100
AcDbEntity
  8
0
  6
Continuous
 62
     8
100
AcDbBlockReference
  2
*B19
 10
0.0
 20
0.0
 30
0.0
  0
INSERT
  5
F5
100
AcDbEntity
  8
0
  6
Continuous
 62
     8
100
AcDbBlockReference
  2
*B20
 10
0.0
 20
0.0
 30
0.0
  0
INSERT
  5
FA
100
AcDbEntity
  8
0
  6
Continuous
 62
     8
100
AcDbBlockReference
  2
*B21
 10
0.0
 20
0.0
 30
0.0
  0
INSERT
  5
FF
100
AcDbEntity
  8
0
  6
Continuous
 62
     8
100
AcDbBlockReference
  2
*B22
 10
0.0
 20
0.0
 30
0.0
  0
INSERT
  5
10C
100
AcDbEntity
  8
0
  6
Continuous
 62
     8
100
AcDbBlockReference
  2
*B23
 10
0.0
 20
0.0
 30
0.0
  0
INSERT
  5
112
100
AcDbEntity
  8
0
  6
Continuous
 62
     8
100
AcDbBlockReference
  2
*B24
 10
0.0
 20
0.0
 30
0.0
  0
INSERT
  5
119
100
AcDbEntity
  8
0
  6
Continuous
 62
     8
100
AcDbBlockReference
  2
*B25
 10
0.0
 20
0.0
 30
0.0
  0
INSERT
  5
11F
100
AcDbEntity
  8
0
  6
Continuous
 62
     8
100
AcDbBlockReference
  2
*B26
 10
0.0
 20
0.0
 30
0.0
  0
INSERT
  5
12E
100
AcDbEntity
  8
0
  6
Continuous
 62
     8
100
AcDbBlockReference
  2
*B27
 10
0.0
 20
0.0
 30
0.0
  0
INSERT
  5
133
100
AcDbEntity
  8
0
  6
Continuous
 62
     8
100
AcDbBlockReference
  2
*B28
 10
0.0
 20
0.0
 30
0.0
  0
INSERT
  5
139
100
AcDbEntity
  8
0
  6
Continuous
 62
     8
100
AcDbBlockReference
  2
*B29
 10
0.0
 20
0.0
 30
0.0
  0
INSERT
  5
143
100
AcDbEntity
  8
0
  6
Continuous
 62
     8
100
AcDbBlockReference
  2
*B30
 10
0.0
 20
0.0
 30
0.0
  0
INSERT
  5
148
100
AcDbEntity
  8
0
  6
Continuous
 62
     8
100
AcDbBlockReference
  2
*B31
 10
0.0
 20
0.0
 30
0.0
  0
INSERT
  5
14D
100
AcDbEntity
  8
0
  6
Continuous
 62
     8
100
AcDbBlockReference
  2
*B32
 10
0.0
 20
0.0
 30
0.0
  0
INSERT
  5
153
100
AcDbEntity
  8
0
  6
Continuous
 62
     8
100
AcDbBlockReference
  2
*B33
 10
0.0
 20
0.0
 30
0.0
  0
INSERT
  5
158
100
AcDbEntity
  8
0
  6
Continuous
 62
     8
100
AcDbBlockReference
  2
*B34
 10
0.0
 20
0.0
 30
0.0
  0
INSERT
  5
15D
100
AcDbEntity
  8
0
  6
Continuous
 62
     8
100
AcDbBlockReference
  2
*B35
 10
0.0
 20
0.0
 30
0.0
  0
INSERT
  5
166
100
AcDbEntity
  8
0
  6
Continuous
 62
     8
100
AcDbBlockReference
  2
*B36
 10
0.0
 20
0.0
 30
0.0
  0
INSERT
  5
16B
100
AcDbEntity
  8
0
  6
Continuous
 62
     8
100
AcDbBlockReference
  2
*B37
 10
0.0
 20
0.0
 30
0.0
  0
INSERT
  5
170
100
AcDbEntity
  8
0
  6
Continuous
 62
     8
100
AcDbBlockReference
  2
*B38
 10
0.0
 20
0.0
 30
0.0
  0
INSERT
  5
176
100
AcDbEntity
  8
0
  6
Continuous
 62
     8
100
AcDbBlockReference
  2
*B39
 10
0.0
 20
0.0
 30
0.0
  0
INSERT
  5
185
100
AcDbEntity
  8
0
  6
Continuous
 62
     8
100
AcDbBlockReference
  2
*B40
 10
0.0
 20
0.0
 30
0.0
  0
INSERT
  5
194
100
AcDbEntity
  8
0
  6
Continuous
 62
     8
100
AcDbBlockReference
  2
*B41
 10
0.0
 20
0.0
 30
0.0
  0
INSERT
  5
19A
100
AcDbEntity
  8
0
  6
Continuous
 62
     8
100
AcDbBlockReference
  2
*B42
 10
0.0
 20
0.0
 30
0.0
  0
INSERT
  5
1A9
100
AcDbEntity
  8
0
  6
Continuous
 62
     8
100
AcDbBlockReference
  2
*B43
 10
0.0
 20
0.0
 30
0.0
  0
INSERT
  5
1C0
100
AcDbEntity
  8
0
  6
Continuous
 62
     8
100
AcDbBlockReference
  2
*B44
 10
0.0
 20
0.0
 30
0.0
  0
INSERT
  5
1D2
100
AcDbEntity
  8
0
  6
Continuous
 62
     8
100
AcDbBlockReference
  2
*B45
 10
0.0
 20
0.0
 30
0.0
  0
INSERT
  5
1D8
100
AcDbEntity
  8
0
  6
Continuous
 62
     6
100
AcDbBlockReference
  2
*B46
 10
0.0
 20
0.0
 30
0.0
  0
INSERT
  5
1DE
100
AcDbEntity
  8
0
  6
Continuous
 62
     6
100
AcDbBlockReference
  2
*B47
 10
0.0
 20
0.0
 30
0.0
  0
INSERT
  5
1E4
100
AcDbEntity
  8
0
  6
Continuous
 62
     6
100
AcDbBlockReference
  2
*B48
 10
0.0
 20
0.0
 30
0.0
  0
INSERT
  5
1EA
100
AcDbEntity
  8
0
  6
Continuous
 62
     6
100
AcDbBlockReference
  2
*B49
 10
0.0
 20
0.0
 30
0.0
  0
INSERT
  5
1F0
100
AcDbEntity
  8
0
  6
Continuous
 62
     6
100
AcDbBlockReference
  2
*B50
 10
0.0
 20
0.0
 30
0.0
  0
INSERT
  5
1F6
100
AcDbEntity
  8
0
  6
Continuous
 62
     6
100
AcDbBlockReference
  2
*B51
 10
0.0
 20
0.0
 30
0.0
  0
INSERT
  5
1FC
100
AcDbEntity
  8
0
  6
Continuous
 62
     6
100
AcDbBlockReference
  2
*B52
 10
0.0
 20
0.0
 30
0.0
  0
INSERT
  5
202
100
AcDbEntity
  8
0
  6
Continuous
 62
     6
100
AcDbBlockReference
  2
*B53
 10
0.0
 20
0.0
 30
0.0
  0
INSERT
  5
207
100
AcDbEntity
  8
TEXT
  6
Continuous
 62
     0
100
AcDbBlockReference
  2
*B54
 10
0.0
 20
0.0
 30
0.0
  0
INSERT
  5
20C
100
AcDbEntity
  8
TEXT
  6
Continuous
 62
     0
100
AcDbBlockReference
  2
*B55
 10
0.0
 20
0.0
 30
0.0
  0
INSERT
  5
211
100
AcDbEntity
  8
TEXT
  6
Continuous
 62
     0
100
AcDbBlockReference
  2
*B56
 10
0.0
 20
0.0
 30
0.0
  0
INSERT
  5
216
100
AcDbEntity
  8
TEXT
  6
Continuous
 62
     0
100
AcDbBlockReference
  2
*B57
 10
0.0
 20
0.0
 30
0.0
  0
INSERT
  5
21B
100
AcDbEntity
  8
TEXT
  6
Continuous
 62
     0
100
AcDbBlockReference
  2
*B58
 10
0.0
 20
0.0
 30
0.0
  0
INSERT
  5
220
100
AcDbEntity
  8
TEXT
  6
Continuous
 62
     0
100
AcDbBlockReference
  2
*B59
 10
0.0
 20
0.0
 30
0.0
  0
INSERT
  5
225
100
AcDbEntity
  8
TEXT
  6
Continuous
 62
     0
100
AcDbBlockReference
  2
*B60
 10
0.0
 20
0.0
 30
0.0
  0
INSERT
  5
22A
100
AcDbEntity
  8
TEXT
  6
Continuous
 62
     0
100
AcDbBlockReference
  2
*B61
 10
0.0
 20
0.0
 30
0.0
  0
INSERT
  5
22F
100
AcDbEntity
  8
TEXT
  6
Continuous
 62
     0
100
AcDbBlockReference
  2
*B62
 10
0.0
 20
0.0
 30
0.0
  0
INSERT
  5
234
100
AcDbEntity
  8
TEXT
  6
Continuous
 62
     0
100
AcDbBlockReference
  2
*B63
 10
0.0
 20
0.0
 30
0.0
  0
INSERT
  5
239
100
AcDbEntity
  8
TEXT
  6
Continuous
 62
     0
100
AcDbBlockReference
  2
*B64
 10
0.0
 20
0.0
 30
0.0
  0
INSERT
  5
23E
100
AcDbEntity
  8
TEXT
  6
Continuous
 62
     0
100
AcDbBlockReference
  2
*B65
 10
0.0
 20
0.0
 30
0.0
  0
INSERT
  5
243
100
AcDbEntity
  8
TEXT
  6
Continuous
 62
     0
100
AcDbBlockReference
  2
*B66
 10
0.0
 20
0.0
 30
0.0
  0
INSERT
  5
248
100
AcDbEntity
  8
TEXT
  6
Continuous
 62
     0
100
AcDbBlockReference
  2
*B67
 10
0.0
 20
0.0
 30
0.0
  0
INSERT
  5
24D
100
AcDbEntity
  8
TEXT
  6
Continuous
 62
     0
100
AcDbBlockReference
  2
*B68
 10
0.0
 20
0.0
 30
0.0
  0
INSERT
  5
252
100
AcDbEntity
  8
TEXT
  6
Continuous
 62
     0
100
AcDbBlockReference
  2
*B69
 10
0.0
 20
0.0
 30
0.0
  0
INSERT
  5
257
100
AcDbEntity
  8
TEXT
  6
Continuous
 62
     0
100
AcDbBlockReference
  2
*B70
 10
0.0
 20
0.0
 30
0.0
  0
INSERT
  5
25C
100
AcDbEntity
  8
TEXT
  6
Continuous
 62
     0
100
AcDbBlockReference
  2
*B71
 10
0.0
 20
0.0
 30
0.0
  0
INSERT
  5
261
100
AcDbEntity
  8
TEXT
  6
Continuous
 62
     0
100
AcDbBlockReference
  2
*B72
 10
0.0
 20
0.0
 30
0.0
  0
INSERT
  5
266
100
AcDbEntity
  8
TEXT
  6
Continuous
 62
     0
100
AcDbBlockReference
  2
*B73
 10
0.0
 20
0.0
 30
0.0
  0
INSERT
  5
26B
100
AcDbEntity
  8
TEXT
  6
Continuous
 62
     0
100
AcDbBlockReference
  2
*B74
 10
0.0
 20
0.0
 30
0.0
  0
ENDSEC
  0
SECTION
  2
OBJECTS
  0
DICTIONARY
  5
19
100
AcDbDictionary
280
     0
281
     1
  3
ACAD_GROUP
350
1A
  3
ACAD_MLINESTYLE
350
1B
  3
ACAD_LAYOUT
350
1E
  3
ACAD_PLOTSETTINGS
350
22
  3
ACAD_PLOTSTYLENAME
350
1F
  3
ACAD_WIPEOUT_VARS
350
23
  0
DICTIONARY
  5
1A
102
{ACAD_REACTORS
330
19
102
}
100
AcDbDictionary
280
     0
281
     1
  0
DICTIONARY
  5
1B
102
{ACAD_REACTORS
330
19
102
}
100
AcDbDictionary
280
     0
281
     1
  3
Standard
350
1C
  0
MLINESTYLE
  5
1C
102
{ACAD_REACTORS
330
1B
102
}
100
AcDbMlineStyle
  2
Standard
 70
     0
  3

 62
     0
 51
90.0
 52
90.0
 71
     2
 49
0.5
 62
   256
  6
BYLAYER
 49
-0.5
 62
   256
  6
BYLAYER
  0
ACDBDICTIONARYWDFLT
  5
1F
102
{ACAD_REACTORS
330
19
102
}
100
AcDbDictionary
281
     1
  3
Normal
350
1D
100
AcDbDictionaryWithDefault
340
1D
  0
ACDBPLACEHOLDER
  5
1D
102
{ACAD_REACTORS
330
1F
102
}
  0
LAYOUT
  5
20
102
{ACAD_REACTORS
330
1E
102
}
100
AcDbPlotSettings
  1

  2

  4

  6

 40
0.0
 41
0.0
 42
0.0
 43
0.0
 44
0.0
 45
0.0
 46
0.0
 47
0.0
 48
0.0
 49
0.0
140
0.0
141
0.0
142
1.0
143
1.0
 70
     0
 72
     0
 73
     0
 74
     0
  7

 75
     0
147
1.0
148
0.0
149
0.0
100
AcDbLayout
  1
Model
 70
     0
 71
     0
 10
0.0
 20
0.0
 11
0.0
 21
0.0
 12
0.0
 22
0.0
 32
0.0
 14
0.0
 24
0.0
 34
0.0
 15
0.0
 25
0.0
 35
0.0
146
0.0
 13
0.0
 23
0.0
 33
0.0
 16
0.0
 26
0.0
 36
0.0
 17
0.0
 27
0.0
 37
0.0
 76
     0
330
A
331
0
345
0
346
0
  0
LAYOUT
  5
21
102
{ACAD_REACTORS
330
1E
102
}
100
AcDbPlotSettings
  1

  2

  4

  6

 40
0.0
 41
0.0
 42
0.0
 43
0.0
 44
0.0
 45
0.0
 46
0.0
 47
0.0
 48
0.0
 49
0.0
140
0.0
141
0.0
142
1.0
143
1.0
 70
     0
 72
     0
 73
     0
 74
     0
  7

 75
     0
147
1.0
148
0.0
149
0.0
100
AcDbLayout
  1
Layout1
 70
     0
 71
     0
 10
0.0
 20
0.0
 11
0.0
 21
0.0
 12
0.0
 22
0.0
 32
0.0
 14
0.0
 24
0.0
 34
0.0
 15
0.0
 25
0.0
 35
0.0
146
0.0
 13
0.0
 23
0.0
 33
0.0
 16
0.0
 26
0.0
 36
0.0
 17
0.0
 27
0.0
 37
0.0
 76
     0
330
B
331
0
345
0
346
0
  0
DICTIONARY
  5
1E
102
{ACAD_REACTORS
330
19
102
}
100
AcDbDictionary
280
     0
281
     1
  3
Layout1
350
21
  3
Model
350
20
  0
DICTIONARY
  5
22
102
{ACAD_REACTORS
330
19
102
}
100
AcDbDictionary
280
     0
281
     1
  0
WIPEOUTVARIABLES
  5
23
100
AcDbWipeoutVariables
 70
     1
  0
ENDSEC
  0
EOF
