  0
SECTION
  2
HEADER
  9
$ACADVER
  1
AC1015
  9
$ACADMAINTVER
 70
     6
  9
$DWGCODEPAGE
  3
DOS850
  9
$INSBASE
 10
0.0
 20
0.0
 30
0.0
  9
$EXTMIN
 10
0.0
 20
0.0
 30
0.0
  9
$EXTMAX
 10
297.0
 20
210.0
 30
0.0
  9
$LIMMIN
 10
0.0
 20
0.0
  9
$LIMMAX
 10
297.0
 20
210.0
  9
$ORTHOMODE
 70
     0
  9
$REGENMODE
 70
     1
  9
$FILLMODE
 70
     1
  9
$QTEXTMODE
 70
     0
  9
$MIRRTEXT
 70
     1
  9
$LTSCALE
 40
25.4
  9
$ATTMODE
 70
     1
  9
$TEXTSIZE
 40
3.5
  9
$TRACEWID
 40
0.05
  9
$TEXTSTYLE
  7
Standard
  9
$CLAYER
  8
0
  9
$CELTYPE
  6
Continuous
  9
$CECOLOR
 62
   256
  9
$CELTSCALE
 40
1.0
  9
$DISPSILH
 70
     0
  9
$DIMSCALE
 40
1.0
  9
$DIMASZ
 40
5.0
  9
$DIMEXO
 40
3.0
  9
$DIMDLI
 40
0.38
  9
$DIMRND
 40
0.0
  9
$DIMDLE
 40
0.0
  9
$DIMEXE
 40
2.0
  9
$DIMTP
 40
0.0
  9
$DIMTM
 40
0.0
  9
$DIMTXT
 40
3.5
  9
$DIMCEN
 40
4.0
  9
$DIMTSZ
 40
0.0
  9
$DIMTOL
 70
     0
  9
$DIMLIM
 70
     0
  9
$DIMTIH
 70
     1
  9
$DIMTOH
 70
     1
  9
$DIMSE1
 70
     0
  9
$DIMSE2
 70
     0
  9
$DIMTAD
 70
     0
  9
$DIMZIN
 70
     0
  9
$DIMBLK
  1

  9
$DIMASO
 70
     1
  9
$DIMSHO
 70
     1
  9
$DIMPOST
  1

  9
$DIMAPOST
  1

  9
$DIMALT
 70
     0
  9
$DIMALTD
 70
     2
  9
$DIMALTF
 40
25.4
  9
$DIMLFAC
 40
1.0
  9
$DIMTOFL
 70
     0
  9
$DIMTVP
 40
0.0
  9
$DIMTIX
 70
     0
  9
$DIMSOXD
 70
     0
  9
$DIMSAH
 70
     0
  9
$DIMBLK1
  1

  9
$DIMBLK2
  1

  9
$DIMSTYLE
  2
Standard
  9
$DIMCLRD
 70
     0
  9
$DIMCLRE
 70
     0
  9
$DIMCLRT
 70
     0
  9
$DIMTFAC
 40
1.0
  9
$DIMGAP
 40
1.0
  9
$DIMJUST
 70
     0
  9
$DIMSD1
 70
     0
  9
$DIMSD2
 70
     0
  9
$DIMTOLJ
 70
     1
  9
$DIMTZIN
 70
     0
  9
$DIMALTZ
 70
     0
  9
$DIMALTTZ
 70
     0
  9
$DIMUPT
 70
     0
  9
$DIMDEC
 70
     4
  9
$DIMTDEC
 70
     4
  9
$DIMALTU
 70
     2
  9
$DIMALTTD
 70
     2
  9
$DIMTXSTY
  7
Standard
  9
$DIMAUNIT
 70
     0
  9
$DIMADEC
 70
     0
  9
$DIMALTRND
 40
0.0
  9
$DIMAZIN
 70
     0
  9
$DIMDSEP
 70
     0
  9
$DIMATFIT
 70
     3
  9
$DIMFRAC
 70
     0
  9
$DIMLDRBLK
  1

  9
$DIMLUNIT
 70
     2
  9
$DIMLWD
 70
     0
  9
$DIMLWE
 70
     0
  9
$DIMTMOVE
 70
     0
  9
$LUNITS
 70
     2
  9
$LUPREC
 70
     4
  9
$SKETCHINC
 40
0.1
  9
$FILLETRAD
 40
0.0
  9
$AUNITS
 70
     0
  9
$AUPREC
 70
     0
  9
$MENU
  1
acad
  9
$ELEVATION
 40
0.0
  9
$PELEVATION
 40
0.0
  9
$THICKNESS
 40
0.0
  9
$LIMCHECK
 70
     0
  9
$CHAMFERA
 40
0.0
  9
$CHAMFERB
 40
0.0
  9
$CHAMFERC
 40
0.0
  9
$CHAMFERD
 40
0.0
  9
$SKPOLY
 70
     0
  9
$TDCREATE
 40
0.000000000
  9
$TDUCREATE
 40
0.000000000
  9
$TDUPDATE
 40
0.000000000
  9
$TDUUPDATE
 40
0.000000000
  9
$TDINDWG
 40
0.0000000000
  9
$TDUSRTIMER
 40
0.0000000000
  9
$USRTIMER
 70
     1
  9
$ANGBASE
 50
0.0
  9
$ANGDIR
 70
     0
  9
$PDMODE
 70
     0
  9
$PDSIZE
 40
0.0
  9
$PLINEWID
 40
0.0
  9
$SPLFRAME
 70
     0
  9
$SPLINETYPE
 70
     6
  9
$SPLINESEGS
 70
     8
  9
$HANDSEED
  5
30A
  9
$SURFTAB1
 70
     6
  9
$SURFTAB2
 70
     6
  9
$SURFTYPE
 70
     6
  9
$SURFU
 70
     6
  9
$SURFV
 70
     6
  9
$UCSBASE
  2

  9
$UCSNAME
  2

  9
$UCSORG
 10
0.0
 20
0.0
 30
0.0
  9
$UCSXDIR
 10
1.0
 20
0.0
 30
0.0
  9
$UCSYDIR
 10
0.0
 20
1.0
 30
0.0
  9
$UCSORTHOREF
  2

  9
$UCSORTHOVIEW
 70
     0
  9
$UCSORGTOP
 10
0.0
 20
0.0
 30
0.0
  9
$UCSORGBOTTOM
 10
0.0
 20
0.0
 30
0.0
  9
$UCSORGLEFT
 10
0.0
 20
0.0
 30
0.0
  9
$UCSORGRIGHT
 10
0.0
 20
0.0
 30
0.0
  9
$UCSORGFRONT
 10
0.0
 20
0.0
 30
0.0
  9
$UCSORGBACK
 10
0.0
 20
0.0
 30
0.0
  9
$PUCSBASE
  2

  9
$PUCSNAME
  2

  9
$PUCSORG
 10
0.0
 20
0.0
 30
0.0
  9
$PUCSXDIR
 10
1.0
 20
0.0
 30
0.0
  9
$PUCSYDIR
 10
0.0
 20
1.0
 30
0.0
  9
$PUCSORTHOREF
  2

  9
$PUCSORTHOVIEW
 70
     0
  9
$PUCSORGTOP
 10
0.0
 20
0.0
 30
0.0
  9
$PUCSORGBOTTOM
 10
0.0
 20
0.0
 30
0.0
  9
$PUCSORGLEFT
 10
0.0
 20
0.0
 30
0.0
  9
$PUCSORGRIGHT
 10
0.0
 20
0.0
 30
0.0
  9
$PUCSORGFRONT
 10
0.0
 20
0.0
 30
0.0
  9
$PUCSORGBACK
 10
0.0
 20
0.0
 30
0.0
  9
$USERI1
 70
     0
  9
$USERI2
 70
     0
  9
$USERI3
 70
     0
  9
$USERI4
 70
     0
  9
$USERI5
 70
     0
  9
$USERR1
 40
0.0
  9
$USERR2
 40
0.0
  9
$USERR3
 40
0.0
  9
$USERR4
 40
0.0
  9
$USERR5
 40
0.0
  9
$WORLDVIEW
 70
     1
  9
$SHADEDGE
 70
     3
  9
$SHADEDIF
 70
    70
  9
$TILEMODE
 70
     1
  9
$MAXACTVP
 70
    16
  9
$PINSBASE
 10
0.0
 20
0.0
 30
0.0
  9
$PLIMCHECK
 70
     0
  9
$PEXTMIN
 10
1.000000E+20
 20
1.000000E+20
 30
1.000000E+20
  9
$PEXTMAX
 10
-1.000000E+20
 20
-1.000000E+20
 30
-1.000000E+20
  9
$PLIMMIN
 10
0.0
 20
0.0
  9
$PLIMMAX
 10
297.0
 20
210.0
  9
$UNITMODE
 70
     0
  9
$VISRETAIN
 70
     0
  9
$PLINEGEN
 70
     1
  9
$PSLTSCALE
 70
     0
  9
$TREEDEPTH
 70
  3020
  9
$CMLSTYLE
  2
Standard
  9
$CMLJUST
 70
     0
  9
$CMLSCALE
 40
1.0
  9
$PROXYGRAPHICS
 70
     0
  9
$MEASUREMENT
 70
     0
  9
$CELWEIGHT
370
     0
  9
$ENDCAPS
280
     0
  9
$JOINSTYLE
280
     0
  9
$LWDISPLAY
290
     0
  9
$INSUNITS
 70
     0
  9
$HYPERLINKBASE
  1

  9
$XEDIT
290
     1
  9
$CEPSNTYPE
380
     0
  9
$PSTYLEMODE
290
     0
  9
$FINGERPRINTGUID
  2

  9
$VERSIONGUID
  2

  9
$EXTNAMES
290
     1
  9
$PSVPSCALE
 40
0.0
  0
ENDSEC
  0
SECTION
  2
CLASSES
  0
CLASS
  1
LWPOLYLINE
  2
AcDbPolyline
  3
"AutoCAD"
 90
        0
280
     0
281
     1
  0
CLASS
  1
IMAGE
  2
AcDbRasterImage
  3
ISM
 90
      127
280
     0
281
     1
  0
CLASS
  1
OLE2FRAME
  2
AcDbOle2Frame
  3
""
 90
        0
280
     0
281
     1
  0
CLASS
  1
HATCH
  2
AcDbHatch
  3
"ACAD_SEDONA"
 90
        0
280
     0
281
     1
  0
CLASS
  1
DICTIONARYVAR
  2
AcDbDictionaryVar
  3
"AutoCAD"
 90
        0
280
     0
281
     0
  0
CLASS
  1
RASTERVARIABLES
  2
AcDbRasterVariables
  3
ISM
 90
        0
280
     0
281
     0
  0
CLASS
  1
IMAGEDEF
  2
AcDbRasterImageDef
  3
ISM
 90
        0
280
     0
281
     0
  0
CLASS
  1
IMAGEDEF_REACTOR
  2
AcDbRasterImageDefReactor
  3
ISM
 90
        1
280
     0
281
     0
  0
CLASS
  1
IDBUFFER
  2
AcDbIdBuffer
  3
"Acad"
 90
        0
280
     0
281
     0
  0
CLASS
  1
SPATIAL_FILTER
  2
AcDbSpatialFilter
  3
"Acad"
 90
        0
280
     0
281
     0
  0
CLASS
  1
XRECORD
  2
AcDbXrecord
  3
"<Built In>"
 90
        0
280
     0
281
     0
  0
CLASS
  1
SORTENTSTABLE
  2
AcDbSortentsTable
  3
"AutoCAD"
 90
        0
280
     0
281
     0
  0
CLASS
  1
LAYER_INDEX
  2
AcDbLayerIndex
  3
"Acad"
 90
        0
280
     0
281
     0
  0
CLASS
  1
SPATIAL_INDEX
  2
AcDbSpatialIndex
  3
"Acad"
 90
        0
280
     0
281
     0
  0
CLASS
  1
OBJECT_PTR
  2
CAseDLPNTableRecord
  3
"ASE-LPNTableRecord"
 90
        1
280
     0
281
     0
  0
CLASS
  1
LAYOUT
  2
AcDbLayout
  3
"AutoCAD 2000"
 90
        1
280
     0
281
     0
  0
CLASS
  1
PLOTSETTINGS
  2
AcDbPlotSettings
  3
"AutoCAD 2000"
 90
        1
280
     0
281
     0
  0
CLASS
  1
ACDBDICTIONARYWDFLT
  2
AcDbDictionaryWithDefault
  3
"AutoCAD 2000"
 90
        1
280
     0
281
     0
  0
CLASS
  1
ACDBPLACEHOLDER
  2
AcDbPlaceHolder
  3
"AutoCAD 2000"
 90
        1
280
     0
281
     0
  0
CLASS
  1
VBA_PROJECT
  2
AcDbVbaProject
  3
"acadvba"
 90
        1
280
     0
281
     0
  0
CLASS
  1
WIPEOUT
  2
AcDbWipeout
  3
WipeOut|AutoCAD Express Tool|expresstools@autodesk.com
 90
      127
280
     0
281
     1
  0
CLASS
  1
WIPEOUTVARIABLES
  2
AcDbWipeoutVariables
  3
WipeOut|AutoCAD Express Tool|expresstools@autodesk.com
 90
        0
280
     0
281
     0
  0
CLASS
  1
RTEXT
  2
RText
  3
RText|AutoCAD Express Tool|expresstools@autodesk.com
 90
        0
280
     0
281
     1
  0
CLASS
  1
ARCALIGNEDTEXT
  2
AcDbArcAlignedText
  3
ATEXT|AutoCAD Express Tool|expresstools@autodesk.com
 90
        0
280
     0
281
     1
  0
ENDSEC
  0
SECTION
  2
TABLES
  0
TABLE
  2
VPORT
  5
7
100
AcDbSymbolTable
 70
     1
  0
VPORT
  5
15
100
AcDbSymbolTableRecord
100
AcDbViewportTableRecord
  2
*ACTIVE
 70
     0
 10
0.0
 20
0.0
 11
1.0
 21
1.0
 12
6.591288
 22
4.579184
 13
0.0
 23
0.0
 14
1.0
 24
1.0
 15
0.0
 25
0.0
 16
0.0
 26
0.0
 36
1.0
 17
0.0
 27
0.0
 37
0.0
 40
9.158369
 41
0.688564
 42
50.0
 43
0.0
 44
0.0
 50
0.0
 51
0.0
 71
     0
 72
   100
 73
     1
 74
     1
 75
     0
 76
     0
 77
     0
 78
     0
281
     0
 65
     0
110
0.0
120
0.0
130
0.0
111
1.0
121
0.0
131
0.0
112
0.0
122
1.0
132
0.0
345
0
346
0
 79
     0
146
0.0
  0
ENDTAB
  0
TABLE
  2
LTYPE
  5
4
100
AcDbSymbolTable
 70
     7
  0
LTYPE
  5
11
100
AcDbSymbolTableRecord
100
AcDbLinetypeTableRecord
  2
ByBlock
 70
    64
  3

 72
    65
 73
     0
 40
0.0
  0
LTYPE
  5
12
100
AcDbSymbolTableRecord
100
AcDbLinetypeTableRecord
  2
ByLayer
 70
    64
  3

 72
    65
 73
     0
 40
0.0
  0
LTYPE
  5
13
100
AcDbSymbolTableRecord
100
AcDbLinetypeTableRecord
  2
Continuous
 70
    64
  3
Solid line
 72
    65
 73
     0
 40
0.0
  0
LTYPE
  5
24
100
AcDbSymbolTableRecord
100
AcDbLinetypeTableRecord
  2
HIDDEN
 70
    64
  3
_ _ _ _ _ _ _ _ _ _ _ _ _ _ _ _ _ _ _ _ _ _ _ _
 72
    65
 73
     2
 40
0.1875
 49
0.125
 74
     0
 49
-0.0625
 74
     0
  0
LTYPE
  5
25
100
AcDbSymbolTableRecord
100
AcDbLinetypeTableRecord
  2
DOTTED
 70
    64
  3
...............................................
 72
    65
 73
     2
 40
0.125
 49
0.0
 74
     0
 49
-0.125
 74
     0
  0
LTYPE
  5
26
100
AcDbSymbolTableRecord
100
AcDbLinetypeTableRecord
  2
CENTER
 70
    64
  3
____ _ ____ _ ____ _ ____ _ ____ _ ____ _ ____ 
 72
    65
 73
     4
 40
1.125
 49
0.75
 74
     0
 49
-0.125
 74
     0
 49
0.125
 74
     0
 49
-0.125
 74
     0
  0
LTYPE
  5
27
100
AcDbSymbolTableRecord
100
AcDbLinetypeTableRecord
  2
PHANTOM
 70
    64
  3
______  __  __  ______  __  __  ______  __  __ 
 72
    65
 73
     6
 40
1.25
 49
0.625
 74
     0
 49
-0.125
 74
     0
 49
0.125
 74
     0
 49
-0.125
 74
     0
 49
0.125
 74
     0
 49
-0.125
 74
     0
  0
ENDTAB
  0
TABLE
  2
LAYER
  5
2
100
AcDbSymbolTable
 70
     2
  0
LAYER
  5
14
100
AcDbSymbolTableRecord
100
AcDbLayerTableRecord
  2
0
 70
     0
 62
     7
  6
Continuous
290
     1
370
    -3
390
1D
  0
LAYER
  5
28
100
AcDbSymbolTableRecord
100
AcDbLayerTableRecord
  2
TEXT
 70
     0
 62
     8
  6
Continuous
290
     1
370
    -3
390
1F
  0
ENDTAB
  0
TABLE
  2
STYLE
  5
3
100
AcDbSymbolTable
 70
     1
  0
STYLE
  5
17
100
AcDbSymbolTableRecord
100
AcDbTextStyleTableRecord
  2
Standard
 70
     0
 40
0.0
 41
1.0
 50
0.0
 71
     0
 42
0.0
  3
txt
  4

  0
ENDTAB
  0
TABLE
  2
VIEW
  5
5
100
AcDbSymbolTable
 70
     0
  0
ENDTAB
  0
TABLE
  2
UCS
  5
6
100
AcDbSymbolTable
 70
     0
  0
ENDTAB
  0
TABLE
  2
APPID
  5
8
100
AcDbSymbolTable
 70
     1
  0
APPID
  5
16
100
AcDbSymbolTableRecord
100
AcDbRegAppTableRecord
  2
ACAD
 70
     0
  0
ENDTAB
  0
TABLE
  2
DIMSTYLE
  5
9
100
AcDbSymbolTable
 70
     1
100
AcDbDimStyleTable
 71
     0
  0
DIMSTYLE
105
18
100
AcDbSymbolTableRecord
100
AcDbDimStyleTableRecord
  2
Standard
 70
     0
  3

  4

 40
1.0
 41
0.18
 42
0.0625
 43
0.38
 44
0.18
 45
0.0
 46
0.0
 47
0.0
 48
0.0
 71
     0
 72
     0
 73
     1
 74
     1
 75
     0
 76
     0
 77
     0
 78
     0
 79
     0
140
0.18
141
0.09
142
0.0
143
25.4
144
1.0
145
0.0
146
1.0
147
0.09
148
0.0
170
     0
171
     2
172
     0
173
     0
174
     0
175
     0
176
     0
177
     0
178
     0
179
     0
271
     4
272
     4
273
     2
274
     2
275
     0
276
     0
277
     2
278
    46
279
     0
280
     0
281
     0
282
     0
283
     1
284
     0
285
     0
286
     0
288
     0
340
17
341
0
342
0
343
0
344
0
371
    -2
372
    -2
  0
ENDTAB
  0
TABLE
  2
BLOCK_RECORD
  5
1
100
AcDbSymbolTable
 70
    78
  0
BLOCK_RECORD
  5
A
100
AcDbSymbolTableRecord
100
AcDbBlockTableRecord
  2
*MODEL_SPACE
340
20
  0
BLOCK_RECORD
  5
B
100
AcDbSymbolTableRecord
100
AcDbBlockTableRecord
  2
*PAPER_SPACE
340
21
  0
BLOCK_RECORD
  5
29
100
AcDbSymbolTableRecord
100
AcDbBlockTableRecord
  2
*B0
340
0
  0
BLOCK_RECORD
  5
31
100
AcDbSymbolTableRecord
100
AcDbBlockTableRecord
  2
*B1
340
0
  0
BLOCK_RECORD
  5
39
100
AcDbSymbolTableRecord
100
AcDbBlockTableRecord
  2
*B2
340
0
  0
BLOCK_RECORD
  5
8E
100
AcDbSymbolTableRecord
100
AcDbBlockTableRecord
  2
*B3
340
0
  0
BLOCK_RECORD
  5
C4
100
AcDbSymbolTableRecord
100
AcDbBlockTableRecord
  2
*B4
340
0
  0
BLOCK_RECORD
  5
CB
100
AcDbSymbolTableRecord
100
AcDbBlockTableRecord
  2
*B5
340
0
  0
BLOCK_RECORD
  5
D2
100
AcDbSymbolTableRecord
100
AcDbBlockTableRecord
  2
*B6
340
0
  0
BLOCK_RECORD
  5
D9
100
AcDbSymbolTableRecord
100
AcDbBlockTableRecord
  2
*B7
340
0
  0
BLOCK_RECORD
  5
E0
100
AcDbSymbolTableRecord
100
AcDbBlockTableRecord
  2
*B8
340
0
  0
BLOCK_RECORD
  5
E7
100
AcDbSymbolTableRecord
100
AcDbBlockTableRecord
  2
*B9
340
0
  0
BLOCK_RECORD
  5
EE
100
AcDbSymbolTableRecord
100
AcDbBlockTableRecord
  2
*B10
340
0
  0
BLOCK_RECORD
  5
F5
100
AcDbSymbolTableRecord
100
AcDbBlockTableRecord
  2
*B11
340
0
  0
BLOCK_RECORD
  5
FC
100
AcDbSymbolTableRecord
100
AcDbBlockTableRecord
  2
*B12
340
0
  0
BLOCK_RECORD
  5
103
100
AcDbSymbolTableRecord
100
AcDbBlockTableRecord
  2
*B13
340
0
  0
BLOCK_RECORD
  5
10A
100
AcDbSymbolTableRecord
100
AcDbBlockTableRecord
  2
*B14
340
0
  0
BLOCK_RECORD
  5
111
100
AcDbSymbolTableRecord
100
AcDbBlockTableRecord
  2
*B15
340
0
  0
BLOCK_RECORD
  5
118
100
AcDbSymbolTableRecord
100
AcDbBlockTableRecord
  2
*B16
340
0
  0
BLOCK_RECORD
  5
11F
100
AcDbSymbolTableRecord
100
AcDbBlockTableRecord
  2
*B17
340
0
  0
BLOCK_RECORD
  5
126
100
AcDbSymbolTableRecord
100
AcDbBlockTableRecord
  2
*B18
340
0
  0
BLOCK_RECORD
  5
12B
100
AcDbSymbolTableRecord
100
AcDbBlockTableRecord
  2
*B19
340
0
  0
BLOCK_RECORD
  5
130
100
AcDbSymbolTableRecord
100
AcDbBlockTableRecord
  2
*B20
340
0
  0
BLOCK_RECORD
  5
135
100
AcDbSymbolTableRecord
100
AcDbBlockTableRecord
  2
*B21
340
0
  0
BLOCK_RECORD
  5
13B
100
AcDbSymbolTableRecord
100
AcDbBlockTableRecord
  2
*B22
340
0
  0
BLOCK_RECORD
  5
153
100
AcDbSymbolTableRecord
100
AcDbBlockTableRecord
  2
*B23
340
0
  0
BLOCK_RECORD
  5
15A
100
AcDbSymbolTableRecord
100
AcDbBlockTableRecord
  2
*B24
340
0
  0
BLOCK_RECORD
  5
165
100
AcDbSymbolTableRecord
100
AcDbBlockTableRecord
  2
*B25
340
0
  0
BLOCK_RECORD
  5
170
100
AcDbSymbolTableRecord
100
AcDbBlockTableRecord
  2
*B26
340
0
  0
BLOCK_RECORD
  5
179
100
AcDbSymbolTableRecord
100
AcDbBlockTableRecord
  2
*B27
340
0
  0
BLOCK_RECORD
  5
184
100
AcDbSymbolTableRecord
100
AcDbBlockTableRecord
  2
*B28
340
0
  0
BLOCK_RECORD
  5
18D
100
AcDbSymbolTableRecord
100
AcDbBlockTableRecord
  2
*B29
340
0
  0
BLOCK_RECORD
  5
1AA
100
AcDbSymbolTableRecord
100
AcDbBlockTableRecord
  2
*B30
340
0
  0
BLOCK_RECORD
  5
1AF
100
AcDbSymbolTableRecord
100
AcDbBlockTableRecord
  2
*B31
340
0
  0
BLOCK_RECORD
  5
1C1
100
AcDbSymbolTableRecord
100
AcDbBlockTableRecord
  2
*B32
340
0
  0
BLOCK_RECORD
  5
1D0
100
AcDbSymbolTableRecord
100
AcDbBlockTableRecord
  2
*B33
340
0
  0
BLOCK_RECORD
  5
1D5
100
AcDbSymbolTableRecord
100
AcDbBlockTableRecord
  2
*B34
340
0
  0
BLOCK_RECORD
  5
1DA
100
AcDbSymbolTableRecord
100
AcDbBlockTableRecord
  2
*B35
340
0
  0
BLOCK_RECORD
  5
1E5
100
AcDbSymbolTableRecord
100
AcDbBlockTableRecord
  2
*B36
340
0
  0
BLOCK_RECORD
  5
1F3
100
AcDbSymbolTableRecord
100
AcDbBlockTableRecord
  2
*B37
340
0
  0
BLOCK_RECORD
  5
1F8
100
AcDbSymbolTableRecord
100
AcDbBlockTableRecord
  2
*B38
340
0
  0
BLOCK_RECORD
  5
1FD
100
AcDbSymbolTableRecord
100
AcDbBlockTableRecord
  2
*B39
340
0
  0
BLOCK_RECORD
  5
20C
100
AcDbSymbolTableRecord
100
AcDbBlockTableRecord
  2
*B40
340
0
  0
BLOCK_RECORD
  5
211
100
AcDbSymbolTableRecord
100
AcDbBlockTableRecord
  2
*B41
340
0
  0
BLOCK_RECORD
  5
216
100
AcDbSymbolTableRecord
100
AcDbBlockTableRecord
  2
*B42
340
0
  0
BLOCK_RECORD
  5
21B
100
AcDbSymbolTableRecord
100
AcDbBlockTableRecord
  2
*B43
340
0
  0
BLOCK_RECORD
  5
22C
100
AcDbSymbolTableRecord
100
AcDbBlockTableRecord
  2
*B44
340
0
  0
BLOCK_RECORD
  5
231
100
AcDbSymbolTableRecord
100
AcDbBlockTableRecord
  2
*B45
340
0
  0
BLOCK_RECORD
  5
254
100
AcDbSymbolTableRecord
100
AcDbBlockTableRecord
  2
*B46
340
0
  0
BLOCK_RECORD
  5
266
100
AcDbSymbolTableRecord
100
AcDbBlockTableRecord
  2
*B47
340
0
  0
BLOCK_RECORD
  5
26B
100
AcDbSymbolTableRecord
100
AcDbBlockTableRecord
  2
*B48
340
0
  0
BLOCK_RECORD
  5
271
100
AcDbSymbolTableRecord
100
AcDbBlockTableRecord
  2
*B49
340
0
  0
BLOCK_RECORD
  5
277
100
AcDbSymbolTableRecord
100
AcDbBlockTableRecord
  2
*B50
340
0
  0
BLOCK_RECORD
  5
27D
100
AcDbSymbolTableRecord
100
AcDbBlockTableRecord
  2
*B51
340
0
  0
BLOCK_RECORD
  5
283
100
AcDbSymbolTableRecord
100
AcDbBlockTableRecord
  2
*B52
340
0
  0
BLOCK_RECORD
  5
289
100
AcDbSymbolTableRecord
100
AcDbBlockTableRecord
  2
*B53
340
0
  0
BLOCK_RECORD
  5
28F
100
AcDbSymbolTableRecord
100
AcDbBlockTableRecord
  2
*B54
340
0
  0
BLOCK_RECORD
  5
295
100
AcDbSymbolTableRecord
100
AcDbBlockTableRecord
  2
*B55
340
0
  0
BLOCK_RECORD
  5
29B
100
AcDbSymbolTableRecord
100
AcDbBlockTableRecord
  2
*B56
340
0
  0
BLOCK_RECORD
  5
2A1
100
AcDbSymbolTableRecord
100
AcDbBlockTableRecord
  2
*B57
340
0
  0
BLOCK_RECORD
  5
2A6
100
AcDbSymbolTableRecord
100
AcDbBlockTableRecord
  2
*B58
340
0
  0
BLOCK_RECORD
  5
2AB
100
AcDbSymbolTableRecord
100
AcDbBlockTableRecord
  2
*B59
340
0
  0
BLOCK_RECORD
  5
2B0
100
AcDbSymbolTableRecord
100
AcDbBlockTableRecord
  2
*B60
340
0
  0
BLOCK_RECORD
  5
2B5
100
AcDbSymbolTableRecord
100
AcDbBlockTableRecord
  2
*B61
340
0
  0
BLOCK_RECORD
  5
2BA
100
AcDbSymbolTableRecord
100
AcDbBlockTableRecord
  2
*B62
340
0
  0
BLOCK_RECORD
  5
2BF
100
AcDbSymbolTableRecord
100
AcDbBlockTableRecord
  2
*B63
340
0
  0
BLOCK_RECORD
  5
2C4
100
AcDbSymbolTableRecord
100
AcDbBlockTableRecord
  2
*B64
340
0
  0
BLOCK_RECORD
  5
2C9
100
AcDbSymbolTableRecord
100
AcDbBlockTableRecord
  2
*B65
340
0
  0
BLOCK_RECORD
  5
2CE
100
AcDbSymbolTableRecord
100
AcDbBlockTableRecord
  2
*B66
340
0
  0
BLOCK_RECORD
  5
2D3
100
AcDbSymbolTableRecord
100
AcDbBlockTableRecord
  2
*B67
340
0
  0
BLOCK_RECORD
  5
2D8
100
AcDbSymbolTableRecord
100
AcDbBlockTableRecord
  2
*B68
340
0
  0
BLOCK_RECORD
  5
2DD
100
AcDbSymbolTableRecord
100
AcDbBlockTableRecord
  2
*B69
340
0
  0
BLOCK_RECORD
  5
2E2
100
AcDbSymbolTableRecord
100
AcDbBlockTableRecord
  2
*B70
340
0
  0
BLOCK_RECORD
  5
2E7
100
AcDbSymbolTableRecord
100
AcDbBlockTableRecord
  2
*B71
340
0
  0
BLOCK_RECORD
  5
2EC
100
AcDbSymbolTableRecord
100
AcDbBlockTableRecord
  2
*B72
340
0
  0
BLOCK_RECORD
  5
2F1
100
AcDbSymbolTableRecord
100
AcDbBlockTableRecord
  2
*B73
340
0
  0
BLOCK_RECORD
  5
2F6
100
AcDbSymbolTableRecord
100
AcDbBlockTableRecord
  2
*B74
340
0
  0
BLOCK_RECORD
  5
2FB
100
AcDbSymbolTableRecord
100
AcDbBlockTableRecord
  2
*B75
340
0
  0
BLOCK_RECORD
  5
300
100
AcDbSymbolTableRecord
100
AcDbBlockTableRecord
  2
*B76
340
0
  0
BLOCK_RECORD
  5
305
100
AcDbSymbolTableRecord
100
AcDbBlockTableRecord
  2
*B77
340
0
  0
ENDTAB
  0
ENDSEC
  0
SECTION
  2
BLOCKS
  0
BLOCK
  5
D
100
AcDbEntity
  8
0
100
AcDbBlockBegin
  2
*MODEL_SPACE
 70
     0
 10
0.0
 20
0.0
 30
0.0
  3
*MODEL_SPACE
  1

  0
ENDBLK
  5
E
100
AcDbEntity
  8
0
100
AcDbBlockEnd
  0
BLOCK
  5
F
100
AcDbEntity
 67
     1
  8
0
100
AcDbBlockBegin
  2
*PAPER_SPACE
 70
     0
 10
0.0
 20
0.0
 30
0.0
  3
*PAPER_SPACE
  1

  0
ENDBLK
  5
10
100
AcDbEntity
 67
     1
  8
0
100
AcDbBlockEnd
  0
BLOCK
  5
2A
100
AcDbEntity
  8
0
100
AcDbBlockBegin
  2
*B0
 70
     0
 10
0.0
 20
0.0
 30
0.0
  3
*B0
  1

  0
LINE
  5
2B
100
AcDbEntity
  8
0
  6
Continuous
 62
   172
100
AcDbLine
 10
143.72
 20
40.64
 30
0.0
 11
143.72
 21
32.69
 31
0.0
  0
LINE
  5
2C
100
AcDbEntity
  8
0
  6
Continuous
 62
   172
100
AcDbLine
 10
148.22
 20
40.64
 30
0.0
 11
148.22
 21
32.69
 31
0.0
  0
LINE
  5
2D
100
AcDbEntity
  8
0
  6
Continuous
 62
   172
100
AcDbLine
 10
188.2
 20
40.64
 30
0.0
 11
188.2
 21
32.69
 31
0.0
  0
LINE
  5
2E
100
AcDbEntity
  8
0
  6
Continuous
 62
   172
100
AcDbLine
 10
183.7
 20
40.64
 30
0.0
 11
183.7
 21
32.69
 31
0.0
  0
ENDBLK
  5
2F
100
AcDbEntity
  8
0
100
AcDbBlockEnd
  0
BLOCK
  5
32
100
AcDbEntity
  8
0
100
AcDbBlockBegin
  2
*B1
 70
     0
 10
0.0
 20
0.0
 30
0.0
  3
*B1
  1

  0
LINE
  5
33
100
AcDbEntity
  8
0
  6
HIDDEN
 62
   162
100
AcDbLine
 10
143.72
 20
40.64
 30
0.0
 11
143.72
 21
54.64
 31
0.0
  0
LINE
  5
34
100
AcDbEntity
  8
0
  6
HIDDEN
 62
   162
100
AcDbLine
 10
148.22
 20
40.64
 30
0.0
 11
148.22
 21
54.64
 31
0.0
  0
LINE
  5
35
100
AcDbEntity
  8
0
  6
HIDDEN
 62
   162
100
AcDbLine
 10
183.7
 20
40.64
 30
0.0
 11
183.7
 21
54.64
 31
0.0
  0
LINE
  5
36
100
AcDbEntity
  8
0
  6
HIDDEN
 62
   162
100
AcDbLine
 10
188.2
 20
40.64
 30
0.0
 11
188.2
 21
54.64
 31
0.0
  0
ENDBLK
  5
37
100
AcDbEntity
  8
0
100
AcDbBlockEnd
  0
BLOCK
  5
3A
100
AcDbEntity
  8
0
100
AcDbBlockBegin
  2
*B2
 70
     0
 10
0.0
 20
0.0
 30
0.0
  3
*B2
  1

  0
LINE
  5
3B
100
AcDbEntity
  8
0
  6
HIDDEN
 62
   174
100
AcDbLine
 10
142.921052
 20
67.693777
 30
0.0
 11
142.921052
 21
54.703777
 31
0.0
  0
LINE
  5
3C
100
AcDbEntity
  8
0
  6
HIDDEN
 62
   174
100
AcDbLine
 10
148.921052
 20
54.703777
 30
0.0
 11
148.921052
 21
67.693777
 31
0.0
  0
LINE
  5
3D
100
AcDbEntity
  8
0
  6
HIDDEN
 62
   174
100
AcDbLine
 10
182.921052
 20
67.693777
 30
0.0
 11
182.921052
 21
54.703777
 31
0.0
  0
LINE
  5
3E
100
AcDbEntity
  8
0
  6
HIDDEN
 62
   174
100
AcDbLine
 10
188.921052
 20
54.703777
 30
0.0
 11
188.921052
 21
67.693777
 31
0.0
  0
LINE
  5
3F
100
AcDbEntity
  8
0
  6
HIDDEN
 62
   174
100
AcDbLine
 10
145.939216
 20
54.703777
 30
0.0
 11
142.939266
 21
54.703777
 31
0.0
  0
LINE
  5
40
100
AcDbEntity
  8
0
  6
HIDDEN
 62
   174
100
AcDbLine
 10
148.939166
 20
54.703777
 30
0.0
 11
145.939216
 21
54.703777
 31
0.0
  0
LINE
  5
41
100
AcDbEntity
  8
0
  6
HIDDEN
 62
   174
100
AcDbLine
 10
185.939115
 20
54.703777
 30
0.0
 11
182.939165
 21
54.703777
 31
0.0
  0
LINE
  5
42
100
AcDbEntity
  8
0
  6
HIDDEN
 62
   174
100
AcDbLine
 10
188.939065
 20
54.703777
 30
0.0
 11
185.939115
 21
54.703777
 31
0.0
  0
LINE
  5
43
100
AcDbEntity
  8
0
  6
HIDDEN
 62
   174
100
AcDbLine
 10
145.939216
 20
54.693777
 30
0.0
 11
142.939266
 21
54.693777
 31
0.0
  0
LINE
  5
44
100
AcDbEntity
  8
0
  6
HIDDEN
 62
   174
100
AcDbLine
 10
148.939166
 20
54.693777
 30
0.0
 11
145.939216
 21
54.693777
 31
0.0
  0
LINE
  5
45
100
AcDbEntity
  8
0
  6
HIDDEN
 62
   174
100
AcDbLine
 10
185.939115
 20
54.693777
 30
0.0
 11
182.939165
 21
54.693777
 31
0.0
  0
LINE
  5
46
100
AcDbEntity
  8
0
  6
HIDDEN
 62
   174
100
AcDbLine
 10
188.939065
 20
54.693777
 30
0.0
 11
185.939115
 21
54.693777
 31
0.0
  0
LINE
  5
47
100
AcDbEntity
  8
0
  6
HIDDEN
 62
   174
100
AcDbLine
 10
142.921052
 20
54.693777
 30
0.0
 11
142.921052
 21
40.693777
 31
0.0
  0
LINE
  5
48
100
AcDbEntity
  8
0
  6
Continuous
 62
   174
100
AcDbLine
 10
142.921052
 20
40.693777
 30
0.0
 11
142.921052
 21
32.693777
 31
0.0
  0
LINE
  5
49
100
AcDbEntity
  8
0
  6
Continuous
 62
   174
100
AcDbLine
 10
188.921052
 20
32.693777
 30
0.0
 11
188.921052
 21
40.693777
 31
0.0
  0
LINE
  5
4A
100
AcDbEntity
  8
0
  6
HIDDEN
 62
   174
100
AcDbLine
 10
162.939215
 20
40.703777
 30
0.0
 11
168.939115
 21
40.703777
 31
0.0
  0
LINE
  5
4B
100
AcDbEntity
  8
0
  6
Continuous
 62
   174
100
AcDbLine
 10
150.921052
 20
70.693777
 30
0.0
 11
150.921052
 21
72.493777
 31
0.0
  0
LINE
  5
4C
100
AcDbEntity
  8
0
  6
Continuous
 62
   174
100
AcDbLine
 10
108.921052
 20
70.693777
 30
0.0
 11
108.921052
 21
40.693777
 31
0.0
  0
LINE
  5
4D
100
AcDbEntity
  8
0
  6
Continuous
 62
   174
100
AcDbLine
 10
108.921052
 20
40.693777
 30
0.0
 11
222.921052
 21
40.693777
 31
0.0
  0
LINE
  5
4E
100
AcDbEntity
  8
0
  6
Continuous
 62
   174
100
AcDbLine
 10
92.921052
 20
40.693777
 30
0.0
 11
108.921052
 21
40.693777
 31
0.0
  0
CIRCLE
  5
4F
100
AcDbEntity
  8
0
  6
Continuous
 62
   174
100
AcDbCircle
 10
100.921052
 20
55.693777
 30
0.0
 40
4.375
  0
LINE
  5
50
100
AcDbEntity
  8
0
  6
HIDDEN
 62
   174
100
AcDbLine
 10
150.921052
 20
67.693777
 30
0.0
 11
150.921052
 21
70.693777
 31
0.0
  0
LINE
  5
51
100
AcDbEntity
  8
0
  6
HIDDEN
 62
   174
100
AcDbLine
 10
190.921052
 20
67.693777
 30
0.0
 11
190.921052
 21
70.693777
 31
0.0
  0
LINE
  5
52
100
AcDbEntity
  8
0
  6
HIDDEN
 62
   174
100
AcDbLine
 10
134.189235
 20
40.713777
 30
0.0
 11
157.689197
 21
40.713777
 31
0.0
  0
CIRCLE
  5
53
100
AcDbEntity
  8
0
  6
Continuous
 62
   174
100
AcDbCircle
 10
201.921052
 20
55.693777
 30
0.0
 40
9.4
  0
LINE
  5
54
100
AcDbEntity
  8
0
  6
HIDDEN
 62
   174
100
AcDbLine
 10
148.921052
 20
40.693777
 30
0.0
 11
148.921052
 21
67.693777
 31
0.0
  0
LINE
  5
55
100
AcDbEntity
  8
0
  6
HIDDEN
 62
   174
100
AcDbLine
 10
174.189134
 20
40.713777
 30
0.0
 11
197.689095
 21
40.713777
 31
0.0
  0
LINE
  5
56
100
AcDbEntity
  8
0
  6
Continuous
 62
   174
100
AcDbLine
 10
148.921052
 20
32.693777
 30
0.0
 11
148.921052
 21
40.693777
 31
0.0
  0
LINE
  5
57
100
AcDbEntity
  8
0
  6
Continuous
 62
   174
100
AcDbLine
 10
182.921052
 20
40.693777
 30
0.0
 11
182.921052
 21
32.693777
 31
0.0
  0
LINE
  5
58
100
AcDbEntity
  8
0
  6
Continuous
 62
   174
100
AcDbLine
 10
185.939115
 20
32.693777
 30
0.0
 11
182.939165
 21
32.693777
 31
0.0
  0
ARC
  5
59
100
AcDbEntity
  8
0
  6
Continuous
 62
   174
100
AcDbCircle
 10
149.721052
 20
72.493777
 30
0.0
 40
1.2
100
AcDbArc
 50
0.0
 51
90.0
  0
LINE
  5
5A
100
AcDbEntity
  8
0
  6
HIDDEN
 62
   174
100
AcDbLine
 10
140.921052
 20
70.693777
 30
0.0
 11
140.921052
 21
67.693777
 31
0.0
  0
LINE
  5
5B
100
AcDbEntity
  8
0
  6
HIDDEN
 62
   174
100
AcDbLine
 10
190.921052
 20
67.693777
 30
0.0
 11
190.921052
 21
70.693777
 31
0.0
  0
LINE
  5
5C
100
AcDbEntity
  8
0
  6
HIDDEN
 62
   174
100
AcDbLine
 10
180.939127
 20
72.493777
 30
0.0
 11
185.939115
 21
72.493777
 31
0.0
  0
LINE
  5
5D
100
AcDbEntity
  8
0
  6
Continuous
 62
   174
100
AcDbLine
 10
108.921052
 20
70.693777
 30
0.0
 11
222.921052
 21
70.693777
 31
0.0
  0
LINE
  5
5E
100
AcDbEntity
  8
0
  6
HIDDEN
 62
   174
100
AcDbLine
 10
190.939102
 20
67.693777
 30
0.0
 11
180.939127
 21
67.693777
 31
0.0
  0
LINE
  5
5F
100
AcDbEntity
  8
0
  6
HIDDEN
 62
   174
100
AcDbLine
 10
171.189184
 20
40.703777
 30
0.0
 11
200.689258
 21
40.703777
 31
0.0
  0
LINE
  5
60
100
AcDbEntity
  8
0
  6
HIDDEN
 62
   174
100
AcDbLine
 10
188.921052
 20
40.693777
 30
0.0
 11
188.921052
 21
54.693777
 31
0.0
  0
LINE
  5
61
100
AcDbEntity
  8
0
  6
Continuous
 62
   174
100
AcDbLine
 10
145.939216
 20
32.693777
 30
0.0
 11
142.939266
 21
32.693777
 31
0.0
  0
ARC
  5
62
100
AcDbEntity
  8
0
  6
Continuous
 62
   174
100
AcDbCircle
 10
142.121052
 20
72.493777
 30
0.0
 40
1.2
100
AcDbArc
 50
-270.0
 51
-180.0
  0
LINE
  5
63
100
AcDbEntity
  8
0
  6
Continuous
 62
   174
100
AcDbLine
 10
140.921052
 20
72.493777
 30
0.0
 11
140.921052
 21
70.693777
 31
0.0
  0
LINE
  5
64
100
AcDbEntity
  8
0
  6
HIDDEN
 62
   174
100
AcDbLine
 10
140.939228
 20
72.493777
 30
0.0
 11
145.939216
 21
72.493777
 31
0.0
  0
LINE
  5
65
100
AcDbEntity
  8
0
  6
Continuous
 62
   174
100
AcDbLine
 10
140.939228
 20
72.493777
 30
0.0
 11
150.939203
 21
72.493777
 31
0.0
  0
LINE
  5
66
100
AcDbEntity
  8
0
  6
HIDDEN
 62
   174
100
AcDbLine
 10
145.939216
 20
72.493777
 30
0.0
 11
150.939203
 21
72.493777
 31
0.0
  0
LINE
  5
67
100
AcDbEntity
  8
0
  6
HIDDEN
 62
   174
100
AcDbLine
 10
185.939115
 20
72.493777
 30
0.0
 11
190.939102
 21
72.493777
 31
0.0
  0
LINE
  5
68
100
AcDbEntity
  8
0
  6
HIDDEN
 62
   174
100
AcDbLine
 10
179.939215
 20
40.723777
 30
0.0
 11
191.939227
 21
40.723777
 31
0.0
  0
LINE
  5
69
100
AcDbEntity
  8
0
  6
HIDDEN
 62
   174
100
AcDbLine
 10
148.921052
 20
40.693777
 30
0.0
 11
148.921052
 21
54.693777
 31
0.0
  0
LINE
  5
6A
100
AcDbEntity
  8
0
  6
HIDDEN
 62
   174
100
AcDbLine
 10
145.939216
 20
67.693777
 30
0.0
 11
140.939228
 21
67.693777
 31
0.0
  0
ARC
  5
6B
100
AcDbEntity
  8
0
  6
Continuous
 62
   174
100
AcDbCircle
 10
189.721052
 20
72.493777
 30
0.0
 40
1.2
100
AcDbArc
 50
0.0
 51
90.0
  0
LINE
  5
6C
100
AcDbEntity
  8
0
  6
Continuous
 62
   174
100
AcDbLine
 10
190.921052
 20
70.693777
 30
0.0
 11
190.921052
 21
72.493777
 31
0.0
  0
LINE
  5
6D
100
AcDbEntity
  8
0
  6
Continuous
 62
   174
100
AcDbLine
 10
189.739079
 20
73.693777
 30
0.0
 11
182.13915
 21
73.693777
 31
0.0
  0
LINE
  5
6E
100
AcDbEntity
  8
0
  6
Continuous
 62
   174
100
AcDbLine
 10
92.921052
 20
70.693777
 30
0.0
 11
92.921052
 21
40.693777
 31
0.0
  0
LINE
  5
6F
100
AcDbEntity
  8
0
  6
HIDDEN
 62
   174
100
AcDbLine
 10
139.939103
 20
40.723777
 30
0.0
 11
151.939116
 21
40.723777
 31
0.0
  0
LINE
  5
70
100
AcDbEntity
  8
0
  6
HIDDEN
 62
   174
100
AcDbLine
 10
182.921052
 20
54.693777
 30
0.0
 11
182.921052
 21
40.693777
 31
0.0
  0
LINE
  5
71
100
AcDbEntity
  8
0
  6
Continuous
 62
   174
100
AcDbLine
 10
148.939166
 20
32.693777
 30
0.0
 11
145.939216
 21
32.693777
 31
0.0
  0
LINE
  5
72
100
AcDbEntity
  8
0
  6
Continuous
 62
   174
100
AcDbLine
 10
188.939065
 20
32.693777
 30
0.0
 11
185.939115
 21
32.693777
 31
0.0
  0
LINE
  5
73
100
AcDbEntity
  8
0
  6
Continuous
 62
   174
100
AcDbLine
 10
108.921052
 20
70.693777
 30
0.0
 11
108.921052
 21
40.693777
 31
0.0
  0
ARC
  5
74
100
AcDbEntity
  8
0
  6
Continuous
 62
   174
100
AcDbCircle
 10
100.921052
 20
55.693777
 30
0.0
 40
4.865
100
AcDbArc
 50
-285.0
 51
15.0
  0
LINE
  5
75
100
AcDbEntity
  8
0
  6
HIDDEN
 62
   174
100
AcDbLine
 10
140.921052
 20
70.693777
 30
0.0
 11
140.921052
 21
67.693777
 31
0.0
  0
ARC
  5
76
100
AcDbEntity
  8
0
  6
Continuous
 62
   174
100
AcDbCircle
 10
165.921052
 20
55.693777
 30
0.0
 40
10.48
100
AcDbArc
 50
-285.0
 51
15.0
  0
CIRCLE
  5
77
100
AcDbEntity
  8
0
  6
Continuous
 62
   174
100
AcDbCircle
 10
165.921052
 20
55.693777
 30
0.0
 40
9.4
  0
LINE
  5
78
100
AcDbEntity
  8
0
  6
HIDDEN
 62
   174
100
AcDbLine
 10
182.921052
 20
67.693777
 30
0.0
 11
182.921052
 21
40.693777
 31
0.0
  0
LINE
  5
79
100
AcDbEntity
  8
0
  6
HIDDEN
 62
   174
100
AcDbLine
 10
131.189285
 20
40.703777
 30
0.0
 11
160.689147
 21
40.703777
 31
0.0
  0
CIRCLE
  5
7A
100
AcDbEntity
  8
0
  6
Continuous
 62
   174
100
AcDbCircle
 10
129.921052
 20
55.693777
 30
0.0
 40
9.4
  0
LINE
  5
7B
100
AcDbEntity
  8
0
  6
HIDDEN
 62
   174
100
AcDbLine
 10
150.939203
 20
67.693777
 30
0.0
 11
145.939216
 21
67.693777
 31
0.0
  0
ARC
  5
7C
100
AcDbEntity
  8
0
  6
Continuous
 62
   174
100
AcDbCircle
 10
182.121052
 20
72.493777
 30
0.0
 40
1.2
100
AcDbArc
 50
-270.0
 51
-180.0
  0
LINE
  5
7D
100
AcDbEntity
  8
0
  6
Continuous
 62
   174
100
AcDbLine
 10
149.739181
 20
73.693777
 30
0.0
 11
142.139251
 21
73.693777
 31
0.0
  0
LINE
  5
7E
100
AcDbEntity
  8
0
  6
Continuous
 62
   174
100
AcDbLine
 10
222.921052
 20
70.693777
 30
0.0
 11
222.921052
 21
40.693777
 31
0.0
  0
LINE
  5
7F
100
AcDbEntity
  8
0
  6
Continuous
 62
   174
100
AcDbLine
 10
92.921052
 20
70.693777
 30
0.0
 11
108.921052
 21
70.693777
 31
0.0
  0
ARC
  5
80
100
AcDbEntity
  8
0
  6
Continuous
 62
   174
100
AcDbCircle
 10
129.921052
 20
55.693777
 30
0.0
 40
10.48
100
AcDbArc
 50
-285.0
 51
15.0
  0
LINE
  5
81
100
AcDbEntity
  8
0
  6
HIDDEN
 62
   174
100
AcDbLine
 10
150.921052
 20
67.693777
 30
0.0
 11
150.921052
 21
70.693777
 31
0.0
  0
LINE
  5
82
100
AcDbEntity
  8
0
  6
HIDDEN
 62
   174
100
AcDbLine
 10
150.939203
 20
67.693777
 30
0.0
 11
140.939228
 21
67.693777
 31
0.0
  0
LINE
  5
83
100
AcDbEntity
  8
0
  6
HIDDEN
 62
   174
100
AcDbLine
 10
180.921052
 20
70.693777
 30
0.0
 11
180.921052
 21
67.693777
 31
0.0
  0
LINE
  5
84
100
AcDbEntity
  8
0
  6
HIDDEN
 62
   174
100
AcDbLine
 10
188.921052
 20
40.693777
 30
0.0
 11
188.921052
 21
67.693777
 31
0.0
  0
LINE
  5
85
100
AcDbEntity
  8
0
  6
HIDDEN
 62
   174
100
AcDbLine
 10
142.921052
 20
67.693777
 30
0.0
 11
142.921052
 21
40.693777
 31
0.0
  0
LINE
  5
86
100
AcDbEntity
  8
0
  6
HIDDEN
 62
   174
100
AcDbLine
 10
185.939115
 20
67.693777
 30
0.0
 11
180.939127
 21
67.693777
 31
0.0
  0
LINE
  5
87
100
AcDbEntity
  8
0
  6
HIDDEN
 62
   174
100
AcDbLine
 10
190.939102
 20
67.693777
 30
0.0
 11
185.939115
 21
67.693777
 31
0.0
  0
LINE
  5
88
100
AcDbEntity
  8
0
  6
Continuous
 62
   174
100
AcDbLine
 10
180.921052
 20
72.493777
 30
0.0
 11
180.921052
 21
70.693777
 31
0.0
  0
LINE
  5
89
100
AcDbEntity
  8
0
  6
HIDDEN
 62
   174
100
AcDbLine
 10
180.921052
 20
70.693777
 30
0.0
 11
180.921052
 21
67.693777
 31
0.0
  0
LINE
  5
8A
100
AcDbEntity
  8
0
  6
Continuous
 62
   174
100
AcDbLine
 10
180.939127
 20
72.493777
 30
0.0
 11
190.939102
 21
72.493777
 31
0.0
  0
ARC
  5
8B
100
AcDbEntity
  8
0
  6
Continuous
 62
   174
100
AcDbCircle
 10
201.921052
 20
55.693777
 30
0.0
 40
10.48
100
AcDbArc
 50
-285.0
 51
15.0
  0
ENDBLK
  5
8C
100
AcDbEntity
  8
0
100
AcDbBlockEnd
  0
BLOCK
  5
8F
100
AcDbEntity
  8
0
100
AcDbBlockBegin
  2
*B3
 70
     0
 10
0.0
 20
0.0
 30
0.0
  3
*B3
  1

  0
CIRCLE
  5
90
100
AcDbEntity
  8
0
  6
HIDDEN
 62
   174
100
AcDbCircle
 10
145.921052
 20
120.107657
 30
0.0
 40
2.9
  0
CIRCLE
  5
91
100
AcDbEntity
  8
0
  6
HIDDEN
 62
   174
100
AcDbCircle
 10
185.921052
 20
165.107657
 30
0.0
 40
2.9
  0
CIRCLE
  5
92
100
AcDbEntity
  8
0
  6
Continuous
 62
   174
100
AcDbCircle
 10
145.921052
 20
120.107657
 30
0.0
 40
3.0
  0
CIRCLE
  5
93
100
AcDbEntity
  8
0
  6
Continuous
 62
   174
100
AcDbCircle
 10
185.921052
 20
165.107657
 30
0.0
 40
3.0
  0
CIRCLE
  5
94
100
AcDbEntity
  8
0
  6
Continuous
 62
   174
100
AcDbCircle
 10
165.921052
 20
120.107657
 30
0.0
 40
3.0
  0
CIRCLE
  5
95
100
AcDbEntity
  8
0
  6
HIDDEN
 62
   174
100
AcDbCircle
 10
145.921052
 20
120.107657
 30
0.0
 40
5.0
  0
CIRCLE
  5
96
100
AcDbEntity
  8
0
  6
HIDDEN
 62
   174
100
AcDbCircle
 10
185.921052
 20
165.107657
 30
0.0
 40
5.0
  0
CIRCLE
  5
97
100
AcDbEntity
  8
0
  6
HIDDEN
 62
   174
100
AcDbCircle
 10
145.921052
 20
120.107657
 30
0.0
 40
3.8
  0
CIRCLE
  5
98
100
AcDbEntity
  8
0
  6
HIDDEN
 62
   174
100
AcDbCircle
 10
185.921052
 20
165.107657
 30
0.0
 40
3.8
  0
LINE
  5
99
100
AcDbEntity
  8
0
  6
Continuous
 62
   174
100
AcDbLine
 10
222.921052
 20
112.607657
 30
0.0
 11
108.921052
 21
112.607657
 31
0.0
  0
LINE
  5
9A
100
AcDbEntity
  8
0
  6
Continuous
 62
   174
100
AcDbLine
 10
108.921052
 20
112.607657
 30
0.0
 11
92.921052
 21
112.607657
 31
0.0
  0
LINE
  5
9B
100
AcDbEntity
  8
0
  6
Continuous
 62
   174
100
AcDbLine
 10
222.921052
 20
172.607657
 30
0.0
 11
222.921052
 21
112.607657
 31
0.0
  0
LINE
  5
9C
100
AcDbEntity
  8
0
  6
Continuous
 62
   174
100
AcDbLine
 10
108.921052
 20
172.607657
 30
0.0
 11
108.921052
 21
112.607657
 31
0.0
  0
LINE
  5
9D
100
AcDbEntity
  8
0
  6
Continuous
 62
   174
100
AcDbLine
 10
108.921052
 20
112.607657
 30
0.0
 11
108.921052
 21
172.607657
 31
0.0
  0
LINE
  5
9E
100
AcDbEntity
  8
0
  6
Continuous
 62
   174
100
AcDbLine
 10
92.921052
 20
112.607657
 30
0.0
 11
92.921052
 21
172.607657
 31
0.0
  0
CIRCLE
  5
9F
100
AcDbEntity
  8
0
  6
Continuous
 62
   174
100
AcDbCircle
 10
145.921052
 20
142.607657
 30
0.0
 40
6.0
  0
LINE
  5
A0
100
AcDbEntity
  8
0
  6
HIDDEN
 62
   174
100
AcDbLine
 10
176.401052
 20
158.607657
 30
0.0
 11
176.401052
 21
172.607657
 31
0.0
  0
CIRCLE
  5
A1
100
AcDbEntity
  8
0
  6
Continuous
 62
   174
100
AcDbCircle
 10
185.921052
 20
142.607657
 30
0.0
 40
11.75
  0
LINE
  5
A2
100
AcDbEntity
  8
0
  6
HIDDEN
 62
   174
100
AcDbLine
 10
105.296052
 20
162.607657
 30
0.0
 11
105.296052
 21
172.607657
 31
0.0
  0
LINE
  5
A3
100
AcDbEntity
  8
0
  6
HIDDEN
 62
   174
100
AcDbLine
 10
96.546052
 20
172.607657
 30
0.0
 11
96.546052
 21
162.607657
 31
0.0
  0
LINE
  5
A4
100
AcDbEntity
  8
0
  6
HIDDEN
 62
   174
100
AcDbLine
 10
105.786052
 20
164.607657
 30
0.0
 11
105.786052
 21
172.607657
 31
0.0
  0
LINE
  5
A5
100
AcDbEntity
  8
0
  6
HIDDEN
 62
   174
100
AcDbLine
 10
175.339235
 20
156.607657
 30
0.0
 11
156.539095
 21
156.607657
 31
0.0
  0
CIRCLE
  5
A6
100
AcDbEntity
  8
0
  6
HIDDEN
 62
   174
100
AcDbCircle
 10
145.921052
 20
120.107657
 30
0.0
 40
5.0
  0
LINE
  5
A7
100
AcDbEntity
  8
0
  6
HIDDEN
 62
   174
100
AcDbLine
 10
212.401052
 20
158.607657
 30
0.0
 11
212.401052
 21
172.607657
 31
0.0
  0
LINE
  5
A8
100
AcDbEntity
  8
0
  6
HIDDEN
 62
   174
100
AcDbLine
 10
139.339198
 20
156.607657
 30
0.0
 11
120.539271
 21
156.607657
 31
0.0
  0
CIRCLE
  5
A9
100
AcDbEntity
  8
0
  6
Continuous
 62
   174
100
AcDbCircle
 10
185.921052
 20
142.607657
 30
0.0
 40
6.0
  0
LINE
  5
AA
100
AcDbEntity
  8
0
  6
HIDDEN
 62
   174
100
AcDbLine
 10
100.939117
 20
162.607657
 30
0.0
 11
96.564101
 21
162.607657
 31
0.0
  0
LINE
  5
AB
100
AcDbEntity
  8
0
  6
HIDDEN
 62
   174
100
AcDbLine
 10
176.419234
 20
158.607657
 30
0.0
 11
155.459096
 21
158.607657
 31
0.0
  0
LINE
  5
AC
100
AcDbEntity
  8
0
  6
HIDDEN
 62
   174
100
AcDbLine
 10
211.321052
 20
156.607657
 30
0.0
 11
211.321052
 21
172.607657
 31
0.0
  0
LINE
  5
AD
100
AcDbEntity
  8
0
  6
HIDDEN
 62
   174
100
AcDbLine
 10
120.521052
 20
172.607657
 30
0.0
 11
120.521052
 21
156.607657
 31
0.0
  0
LINE
  5
AE
100
AcDbEntity
  8
0
  6
HIDDEN
 62
   174
100
AcDbLine
 10
105.804211
 20
164.607657
 30
0.0
 11
96.074236
 21
164.607657
 31
0.0
  0
LINE
  5
AF
100
AcDbEntity
  8
0
  6
HIDDEN
 62
   174
100
AcDbLine
 10
140.419197
 20
158.607657
 30
0.0
 11
119.459272
 21
158.607657
 31
0.0
  0
LINE
  5
B0
100
AcDbEntity
  8
0
  6
HIDDEN
 62
   174
100
AcDbLine
 10
156.521052
 20
172.607657
 30
0.0
 11
156.521052
 21
156.607657
 31
0.0
  0
LINE
  5
B1
100
AcDbEntity
  8
0
  6
HIDDEN
 62
   174
100
AcDbLine
 10
192.521052
 20
172.607657
 30
0.0
 11
192.521052
 21
156.607657
 31
0.0
  0
LINE
  5
B2
100
AcDbEntity
  8
0
  6
HIDDEN
 62
   174
100
AcDbLine
 10
119.441052
 20
172.607657
 30
0.0
 11
119.441052
 21
158.607657
 31
0.0
  0
LINE
  5
B3
100
AcDbEntity
  8
0
  6
HIDDEN
 62
   174
100
AcDbLine
 10
96.056052
 20
172.607657
 30
0.0
 11
96.056052
 21
164.607657
 31
0.0
  0
LINE
  5
B4
100
AcDbEntity
  8
0
  6
HIDDEN
 62
   174
100
AcDbLine
 10
212.419058
 20
158.607657
 30
0.0
 11
191.459133
 21
158.607657
 31
0.0
  0
CIRCLE
  5
B5
100
AcDbEntity
  8
0
  6
Continuous
 62
   174
100
AcDbCircle
 10
185.921052
 20
142.607657
 30
0.0
 40
14.75
  0
LINE
  5
B6
100
AcDbEntity
  8
0
  6
Continuous
 62
   174
100
AcDbLine
 10
92.921052
 20
172.607657
 30
0.0
 11
108.921052
 21
172.607657
 31
0.0
  0
LINE
  5
B7
100
AcDbEntity
  8
0
  6
HIDDEN
 62
   174
100
AcDbLine
 10
155.441052
 20
172.607657
 30
0.0
 11
155.441052
 21
158.607657
 31
0.0
  0
LINE
  5
B8
100
AcDbEntity
  8
0
  6
HIDDEN
 62
   174
100
AcDbLine
 10
191.441052
 20
172.607657
 30
0.0
 11
191.441052
 21
158.607657
 31
0.0
  0
LINE
  5
B9
100
AcDbEntity
  8
0
  6
HIDDEN
 62
   174
100
AcDbLine
 10
140.401052
 20
158.607657
 30
0.0
 11
140.401052
 21
172.607657
 31
0.0
  0
CIRCLE
  5
BA
100
AcDbEntity
  8
0
  6
Continuous
 62
   174
100
AcDbCircle
 10
145.921052
 20
142.607657
 30
0.0
 40
14.75
  0
LINE
  5
BB
100
AcDbEntity
  8
0
  6
Continuous
 62
   174
100
AcDbLine
 10
108.921052
 20
172.607657
 30
0.0
 11
222.921052
 21
172.607657
 31
0.0
  0
LINE
  5
BC
100
AcDbEntity
  8
0
  6
HIDDEN
 62
   174
100
AcDbLine
 10
105.314132
 20
162.607657
 30
0.0
 11
100.939117
 21
162.607657
 31
0.0
  0
LINE
  5
BD
100
AcDbEntity
  8
0
  6
HIDDEN
 62
   174
100
AcDbLine
 10
175.321052
 20
156.607657
 30
0.0
 11
175.321052
 21
172.607657
 31
0.0
  0
LINE
  5
BE
100
AcDbEntity
  8
0
  6
HIDDEN
 62
   174
100
AcDbLine
 10
211.339059
 20
156.607657
 30
0.0
 11
192.539132
 21
156.607657
 31
0.0
  0
LINE
  5
BF
100
AcDbEntity
  8
0
  6
HIDDEN
 62
   174
100
AcDbLine
 10
139.321052
 20
156.607657
 30
0.0
 11
139.321052
 21
172.607657
 31
0.0
  0
CIRCLE
  5
C0
100
AcDbEntity
  8
0
  6
HIDDEN
 62
   174
100
AcDbCircle
 10
185.921052
 20
165.107657
 30
0.0
 40
5.0
  0
CIRCLE
  5
C1
100
AcDbEntity
  8
0
  6
Continuous
 62
   174
100
AcDbCircle
 10
145.921052
 20
142.607657
 30
0.0
 40
11.75
  0
ENDBLK
  5
C2
100
AcDbEntity
  8
0
100
AcDbBlockEnd
  0
BLOCK
  5
C5
100
AcDbEntity
  8
0
100
AcDbBlockBegin
  2
*B4
 70
     0
 10
0.0
 20
0.0
 30
0.0
  3
*B4
  1

  0
LINE
  5
C6
100
AcDbEntity
  8
0
  6
Continuous
 62
     0
100
AcDbLine
 10
246.515713
 20
112.619421
 30
0.0
 11
246.515713
 21
172.616082
 31
0.0
  0
SOLID
  5
C7
100
AcDbEntity
  8
0
  6
Continuous
 62
     0
100
AcDbTrace
 10
245.915596
 20
116.11922
 30
0.0
 11
246.515713
 21
112.619421
 31
0.0
 12
247.115618
 22
116.11922
 32
0.0
 13
247.115618
 23
116.11922
 33
0.0
  0
SOLID
  5
C8
100
AcDbEntity
  8
0
  6
Continuous
 62
     0
100
AcDbTrace
 10
247.115618
 20
169.116282
 30
0.0
 11
246.515713
 21
172.616082
 31
0.0
 12
245.915596
 22
169.116282
 32
0.0
 13
245.915596
 23
169.116282
 33
0.0
  0
ENDBLK
  5
C9
100
AcDbEntity
  8
0
100
AcDbBlockEnd
  0
BLOCK
  5
CC
100
AcDbEntity
  8
0
100
AcDbBlockBegin
  2
*B5
 70
     0
 10
0.0
 20
0.0
 30
0.0
  3
*B5
  1

  0
LINE
  5
CD
100
AcDbEntity
  8
0
  6
Continuous
 62
     0
100
AcDbLine
 10
235.515613
 20
165.11642
 30
0.0
 11
235.515613
 21
120.119083
 31
0.0
  0
SOLID
  5
CE
100
AcDbEntity
  8
0
  6
Continuous
 62
     0
100
AcDbTrace
 10
236.115731
 20
161.61662
 30
0.0
 11
235.515613
 21
165.11642
 31
0.0
 12
234.915708
 22
161.61662
 32
0.0
 13
234.915708
 23
161.61662
 33
0.0
  0
SOLID
  5
CF
100
AcDbEntity
  8
0
  6
Continuous
 62
     0
100
AcDbTrace
 10
234.915708
 20
123.618883
 30
0.0
 11
235.515613
 21
120.119083
 31
0.0
 12
236.115731
 22
123.618883
 32
0.0
 13
236.115731
 23
123.618883
 33
0.0
  0
ENDBLK
  5
D0
100
AcDbEntity
  8
0
100
AcDbBlockEnd
  0
BLOCK
  5
D3
100
AcDbEntity
  8
0
100
AcDbBlockBegin
  2
*B6
 70
     0
 10
0.0
 20
0.0
 30
0.0
  3
*B6
  1

  0
LINE
  5
D4
100
AcDbEntity
  8
0
  6
Continuous
 62
     0
100
AcDbLine
 10
145.939216
 20
99.012581
 30
0.0
 11
185.939115
 21
99.012581
 31
0.0
  0
SOLID
  5
D5
100
AcDbEntity
  8
0
  6
Continuous
 62
     0
100
AcDbTrace
 10
149.439228
 20
99.612486
 30
0.0
 11
145.939216
 21
99.012581
 31
0.0
 12
149.439228
 22
98.412676
 32
0.0
 13
149.439228
 23
98.412676
 33
0.0
  0
SOLID
  5
D6
100
AcDbEntity
  8
0
  6
Continuous
 62
     0
100
AcDbTrace
 10
182.439102
 20
98.412676
 30
0.0
 11
185.939115
 21
99.012581
 31
0.0
 12
182.439102
 22
99.612486
 32
0.0
 13
182.439102
 23
99.612486
 33
0.0
  0
ENDBLK
  5
D7
100
AcDbEntity
  8
0
100
AcDbBlockEnd
  0
BLOCK
  5
DA
100
AcDbEntity
  8
0
100
AcDbBlockBegin
  2
*B7
 70
     0
 10
0.0
 20
0.0
 30
0.0
  3
*B7
  1

  0
LINE
  5
DB
100
AcDbEntity
  8
0
  6
Continuous
 62
     0
100
AcDbLine
 10
185.939115
 20
99.012581
 30
0.0
 11
222.939064
 21
99.012581
 31
0.0
  0
SOLID
  5
DC
100
AcDbEntity
  8
0
  6
Continuous
 62
     0
100
AcDbTrace
 10
189.439127
 20
99.612486
 30
0.0
 11
185.939115
 21
99.012581
 31
0.0
 12
189.439127
 22
98.412676
 32
0.0
 13
189.439127
 23
98.412676
 33
0.0
  0
SOLID
  5
DD
100
AcDbEntity
  8
0
  6
Continuous
 62
     0
100
AcDbTrace
 10
219.439051
 20
98.412676
 30
0.0
 11
222.939064
 21
99.012581
 31
0.0
 12
219.439051
 22
99.612486
 32
0.0
 13
219.439051
 23
99.612486
 33
0.0
  0
ENDBLK
  5
DE
100
AcDbEntity
  8
0
100
AcDbBlockEnd
  0
BLOCK
  5
E1
100
AcDbEntity
  8
0
100
AcDbBlockBegin
  2
*B8
 70
     0
 10
0.0
 20
0.0
 30
0.0
  3
*B8
  1

  0
LINE
  5
E2
100
AcDbEntity
  8
0
  6
Continuous
 62
     0
100
AcDbLine
 10
165.939165
 20
85.013381
 30
0.0
 11
201.939202
 21
85.013381
 31
0.0
  0
SOLID
  5
E3
100
AcDbEntity
  8
0
  6
Continuous
 62
     0
100
AcDbTrace
 10
169.439178
 20
85.613286
 30
0.0
 11
165.939165
 21
85.013381
 31
0.0
 12
169.439178
 22
84.413476
 32
0.0
 13
169.439178
 23
84.413476
 33
0.0
  0
SOLID
  5
E4
100
AcDbEntity
  8
0
  6
Continuous
 62
     0
100
AcDbTrace
 10
198.439189
 20
84.413476
 30
0.0
 11
201.939202
 21
85.013381
 31
0.0
 12
198.439189
 22
85.613286
 32
0.0
 13
198.439189
 23
85.613286
 33
0.0
  0
ENDBLK
  5
E5
100
AcDbEntity
  8
0
100
AcDbBlockEnd
  0
BLOCK
  5
E8
100
AcDbEntity
  8
0
100
AcDbBlockBegin
  2
*B9
 70
     0
 10
0.0
 20
0.0
 30
0.0
  3
*B9
  1

  0
LINE
  5
E9
100
AcDbEntity
  8
0
  6
Continuous
 62
     0
100
AcDbLine
 10
129.939129
 20
85.013381
 30
0.0
 11
165.939165
 21
85.013381
 31
0.0
  0
SOLID
  5
EA
100
AcDbEntity
  8
0
  6
Continuous
 62
     0
100
AcDbTrace
 10
133.439141
 20
85.613286
 30
0.0
 11
129.939129
 21
85.013381
 31
0.0
 12
133.439141
 22
84.413476
 32
0.0
 13
133.439141
 23
84.413476
 33
0.0
  0
SOLID
  5
EB
100
AcDbEntity
  8
0
  6
Continuous
 62
     0
100
AcDbTrace
 10
162.439153
 20
84.413476
 30
0.0
 11
165.939165
 21
85.013381
 31
0.0
 12
162.439153
 22
85.613286
 32
0.0
 13
162.439153
 23
85.613286
 33
0.0
  0
ENDBLK
  5
EC
100
AcDbEntity
  8
0
100
AcDbBlockEnd
  0
BLOCK
  5
EF
100
AcDbEntity
  8
0
100
AcDbBlockBegin
  2
*B10
 70
     0
 10
0.0
 20
0.0
 30
0.0
  3
*B10
  1

  0
LINE
  5
F0
100
AcDbEntity
  8
0
  6
Continuous
 62
     0
100
AcDbLine
 10
246.515713
 20
40.709631
 30
0.0
 11
246.515713
 21
70.708068
 31
0.0
  0
SOLID
  5
F1
100
AcDbEntity
  8
0
  6
Continuous
 62
     0
100
AcDbTrace
 10
245.915596
 20
44.209431
 30
0.0
 11
246.515713
 21
40.709631
 31
0.0
 12
247.115618
 22
44.209431
 32
0.0
 13
247.115618
 23
44.209431
 33
0.0
  0
SOLID
  5
F2
100
AcDbEntity
  8
0
  6
Continuous
 62
     0
100
AcDbTrace
 10
247.115618
 20
67.208268
 30
0.0
 11
246.515713
 21
70.708068
 31
0.0
 12
245.915596
 22
67.208268
 32
0.0
 13
245.915596
 23
67.208268
 33
0.0
  0
ENDBLK
  5
F3
100
AcDbEntity
  8
0
100
AcDbBlockEnd
  0
BLOCK
  5
F6
100
AcDbEntity
  8
0
100
AcDbBlockBegin
  2
*B11
 70
     0
 10
0.0
 20
0.0
 30
0.0
  3
*B11
  1

  0
LINE
  5
F7
100
AcDbEntity
  8
0
  6
Continuous
 62
     0
100
AcDbLine
 10
235.515613
 20
47.709231
 30
0.0
 11
235.515613
 21
25.710518
 31
0.0
  0
SOLID
  5
F8
100
AcDbEntity
  8
0
  6
Continuous
 62
     0
100
AcDbTrace
 10
234.915708
 20
44.209431
 30
0.0
 11
235.515613
 21
40.709631
 31
0.0
 12
236.115731
 22
44.209431
 32
0.0
 13
236.115731
 23
44.209431
 33
0.0
  0
SOLID
  5
F9
100
AcDbEntity
  8
0
  6
Continuous
 62
     0
100
AcDbTrace
 10
236.115731
 20
29.210318
 30
0.0
 11
235.515613
 21
32.710118
 31
0.0
 12
234.915708
 22
29.210318
 32
0.0
 13
234.915708
 23
29.210318
 33
0.0
  0
ENDBLK
  5
FA
100
AcDbEntity
  8
0
100
AcDbBlockEnd
  0
BLOCK
  5
FD
100
AcDbEntity
  8
0
100
AcDbBlockBegin
  2
*B12
 70
     0
 10
0.0
 20
0.0
 30
0.0
  3
*B12
  1

  0
LINE
  5
FE
100
AcDbEntity
  8
0
  6
Continuous
 62
     0
100
AcDbLine
 10
175.93914
 20
20.294591
 30
0.0
 11
201.78349
 21
20.294591
 31
0.0
  0
SOLID
  5
FF
100
AcDbEntity
  8
0
  6
Continuous
 62
     0
100
AcDbTrace
 10
179.439152
 20
19.694686
 30
0.0
 11
182.939165
 21
20.294591
 31
0.0
 12
179.439152
 22
20.894496
 32
0.0
 13
179.439152
 23
20.894496
 33
0.0
  0
SOLID
  5
100
100
AcDbEntity
  8
0
  6
Continuous
 62
     0
100
AcDbTrace
 10
192.439077
 20
20.894496
 30
0.0
 11
188.939065
 21
20.294591
 31
0.0
 12
192.439077
 22
19.694686
 32
0.0
 13
192.439077
 23
19.694686
 33
0.0
  0
ENDBLK
  5
101
100
AcDbEntity
  8
0
100
AcDbBlockEnd
  0
BLOCK
  5
104
100
AcDbEntity
  8
0
100
AcDbBlockBegin
  2
*B13
 70
     0
 10
0.0
 20
0.0
 30
0.0
  3
*B13
  1

  0
LINE
  5
105
100
AcDbEntity
  8
0
  6
Continuous
 62
     0
100
AcDbLine
 10
182.33926
 20
184.007905
 30
0.0
 11
149.539071
 21
184.007905
 31
0.0
  0
SOLID
  5
106
100
AcDbEntity
  8
0
  6
Continuous
 62
     0
100
AcDbTrace
 10
178.839247
 20
184.60781
 30
0.0
 11
175.339235
 21
184.007905
 31
0.0
 12
178.839247
 22
183.407787
 32
0.0
 13
178.839247
 23
183.407787
 33
0.0
  0
SOLID
  5
107
100
AcDbEntity
  8
0
  6
Continuous
 62
     0
100
AcDbTrace
 10
153.039083
 20
183.407787
 30
0.0
 11
156.539095
 21
184.007905
 31
0.0
 12
153.039083
 22
184.60781
 32
0.0
 13
153.039083
 23
184.60781
 33
0.0
  0
ENDBLK
  5
108
100
AcDbEntity
  8
0
100
AcDbBlockEnd
  0
BLOCK
  5
10B
100
AcDbEntity
  8
0
100
AcDbBlockBegin
  2
*B14
 70
     0
 10
0.0
 20
0.0
 30
0.0
  3
*B14
  1

  0
LINE
  5
10C
100
AcDbEntity
  8
0
  6
Continuous
 62
     0
100
AcDbLine
 10
89.564289
 20
185.007817
 30
0.0
 11
126.214577
 21
185.007817
 31
0.0
  0
SOLID
  5
10D
100
AcDbEntity
  8
0
  6
Continuous
 62
     0
100
AcDbTrace
 10
93.064301
 20
184.4077
 30
0.0
 11
96.564101
 21
185.007817
 31
0.0
 12
93.064301
 22
185.607722
 32
0.0
 13
93.064301
 23
185.607722
 33
0.0
  0
SOLID
  5
10E
100
AcDbEntity
  8
0
  6
Continuous
 62
     0
100
AcDbTrace
 10
108.814145
 20
185.607722
 30
0.0
 11
105.314132
 21
185.007817
 31
0.0
 12
108.814145
 22
184.4077
 32
0.0
 13
108.814145
 23
184.4077
 33
0.0
  0
ENDBLK
  5
10F
100
AcDbEntity
  8
0
100
AcDbBlockEnd
  0
BLOCK
  5
112
100
AcDbEntity
  8
0
100
AcDbBlockBegin
  2
*B15
 70
     0
 10
0.0
 20
0.0
 30
0.0
  3
*B15
  1

  0
LINE
  5
113
100
AcDbEntity
  8
0
  6
Continuous
 62
     0
100
AcDbLine
 10
222.939064
 20
196.007067
 30
0.0
 11
92.93918
 21
196.007067
 31
0.0
  0
SOLID
  5
114
100
AcDbEntity
  8
0
  6
Continuous
 62
     0
100
AcDbTrace
 10
219.439051
 20
195.407162
 30
0.0
 11
222.939064
 21
196.007067
 31
0.0
 12
219.439051
 22
196.607185
 32
0.0
 13
219.439051
 23
196.607185
 33
0.0
  0
SOLID
  5
115
100
AcDbEntity
  8
0
  6
Continuous
 62
     0
100
AcDbTrace
 10
96.439192
 20
196.607185
 30
0.0
 11
92.93918
 21
196.007067
 31
0.0
 12
96.439192
 22
195.407162
 32
0.0
 13
96.439192
 23
195.407162
 33
0.0
  0
ENDBLK
  5
116
100
AcDbEntity
  8
0
100
AcDbBlockEnd
  0
BLOCK
  5
119
100
AcDbEntity
  8
0
100
AcDbBlockBegin
  2
*B16
 70
     0
 10
0.0
 20
0.0
 30
0.0
  3
*B16
  1

  0
LINE
  5
11A
100
AcDbEntity
  8
0
  6
Continuous
 62
     0
100
AcDbLine
 10
100.939117
 20
85.013381
 30
0.0
 11
129.939129
 21
85.013381
 31
0.0
  0
SOLID
  5
11B
100
AcDbEntity
  8
0
  6
Continuous
 62
     0
100
AcDbTrace
 10
104.439129
 20
85.613286
 30
0.0
 11
100.939117
 21
85.013381
 31
0.0
 12
104.439129
 22
84.413476
 32
0.0
 13
104.439129
 23
84.413476
 33
0.0
  0
SOLID
  5
11C
100
AcDbEntity
  8
0
  6
Continuous
 62
     0
100
AcDbTrace
 10
126.439116
 20
84.413476
 30
0.0
 11
129.939129
 21
85.013381
 31
0.0
 12
126.439116
 22
85.613286
 32
0.0
 13
126.439116
 23
85.613286
 33
0.0
  0
ENDBLK
  5
11D
100
AcDbEntity
  8
0
100
AcDbBlockEnd
  0
BLOCK
  5
120
100
AcDbEntity
  8
0
100
AcDbBlockBegin
  2
*B17
 70
     0
 10
0.0
 20
0.0
 30
0.0
  3
*B17
  1

  0
LINE
  5
121
100
AcDbEntity
  8
0
  6
Continuous
 62
     0
100
AcDbLine
 10
201.939202
 20
85.013381
 30
0.0
 11
222.939064
 21
85.013381
 31
0.0
  0
SOLID
  5
122
100
AcDbEntity
  8
0
  6
Continuous
 62
     0
100
AcDbTrace
 10
205.439214
 20
85.613286
 30
0.0
 11
201.939202
 21
85.013381
 31
0.0
 12
205.439214
 22
84.413476
 32
0.0
 13
205.439214
 23
84.413476
 33
0.0
  0
SOLID
  5
123
100
AcDbEntity
  8
0
  6
Continuous
 62
     0
100
AcDbTrace
 10
219.439051
 20
84.413476
 30
0.0
 11
222.939064
 21
85.013381
 31
0.0
 12
219.439051
 22
85.613286
 32
0.0
 13
219.439051
 23
85.613286
 33
0.0
  0
ENDBLK
  5
124
100
AcDbEntity
  8
0
100
AcDbBlockEnd
  0
BLOCK
  5
127
100
AcDbEntity
  8
0
100
AcDbBlockBegin
  2
*B18
 70
     0
 10
0.0
 20
0.0
 30
0.0
  3
*B18
  1

  0
LINE
  5
128
100
AcDbEntity
  8
0
  6
Continuous
 62
     8
100
AcDbLine
 10
92.93918
 20
173.615995
 30
0.0
 11
92.93918
 21
198.007105
 31
0.0
  0
ENDBLK
  5
129
100
AcDbEntity
  8
0
100
AcDbBlockEnd
  0
BLOCK
  5
12C
100
AcDbEntity
  8
0
100
AcDbBlockBegin
  2
*B19
 70
     0
 10
0.0
 20
0.0
 30
0.0
  3
*B19
  1

  0
LINE
  5
12D
100
AcDbEntity
  8
0
  6
Continuous
 62
     8
100
AcDbLine
 10
182.939165
 20
18.294766
 30
0.0
 11
182.939165
 21
31.710206
 31
0.0
  0
ENDBLK
  5
12E
100
AcDbEntity
  8
0
100
AcDbBlockEnd
  0
BLOCK
  5
131
100
AcDbEntity
  8
0
100
AcDbBlockBegin
  2
*B20
 70
     0
 10
0.0
 20
0.0
 30
0.0
  3
*B20
  1

  0
LINE
  5
132
100
AcDbEntity
  8
0
  6
Continuous
 62
     8
100
AcDbLine
 10
222.939064
 20
71.70798
 30
0.0
 11
222.939064
 21
87.013206
 31
0.0
  0
ENDBLK
  5
133
100
AcDbEntity
  8
0
100
AcDbBlockEnd
  0
BLOCK
  5
136
100
AcDbEntity
  8
0
100
AcDbBlockBegin
  2
*B21
 70
     0
 10
0.0
 20
0.0
 30
0.0
  3
*B21
  1

  0
LINE
  5
137
100
AcDbEntity
  8
0
  6
Continuous
 62
     8
100
AcDbLine
 10
222.939064
 20
97.012756
 30
0.0
 11
222.939064
 21
111.619508
 31
0.0
  0
LINE
  5
138
100
AcDbEntity
  8
0
  6
Continuous
 62
     8
100
AcDbLine
 10
222.939064
 20
173.615995
 30
0.0
 11
222.939064
 21
198.007105
 31
0.0
  0
ENDBLK
  5
139
100
AcDbEntity
  8
0
100
AcDbBlockEnd
  0
BLOCK
  5
13C
100
AcDbEntity
  8
0
100
AcDbBlockBegin
  2
*B22
 70
     0
 10
0.0
 20
0.0
 30
0.0
  3
*B22
  1

  0
LINE
  5
13D
100
AcDbEntity
  8
0
  6
Continuous
 62
     8
100
AcDbLine
 10
233.515576
 20
120.119083
 30
0.0
 11
237.515651
 21
120.119083
 31
0.0
  0
LINE
  5
13E
100
AcDbEntity
  8
0
  6
Continuous
 62
     8
100
AcDbLine
 10
137.939278
 20
120.119083
 30
0.0
 11
144.439241
 21
120.119083
 31
0.0
  0
LINE
  5
13F
100
AcDbEntity
  8
0
  6
Continuous
 62
     8
100
AcDbLine
 10
147.439191
 20
120.119083
 30
0.0
 11
154.439215
 21
120.119083
 31
0.0
  0
LINE
  5
140
100
AcDbEntity
  8
0
  6
Continuous
 62
     8
100
AcDbLine
 10
155.439128
 20
120.119083
 30
0.0
 11
156.439253
 21
120.119083
 31
0.0
  0
LINE
  5
141
100
AcDbEntity
  8
0
  6
Continuous
 62
     8
100
AcDbLine
 10
157.439165
 20
120.119083
 30
0.0
 11
164.43919
 21
120.119083
 31
0.0
  0
LINE
  5
142
100
AcDbEntity
  8
0
  6
Continuous
 62
     8
100
AcDbLine
 10
167.43914
 20
120.119083
 30
0.0
 11
173.073659
 21
120.119083
 31
0.0
  0
LINE
  5
143
100
AcDbEntity
  8
0
  6
Continuous
 62
     8
100
AcDbLine
 10
174.073784
 20
120.119083
 30
0.0
 11
175.073696
 21
120.119083
 31
0.0
  0
LINE
  5
144
100
AcDbEntity
  8
0
  6
Continuous
 62
     8
100
AcDbLine
 10
176.073821
 20
120.119083
 30
0.0
 11
181.70834
 21
120.119083
 31
0.0
  0
LINE
  5
145
100
AcDbEntity
  8
0
  6
Continuous
 62
     8
100
AcDbLine
 10
182.708252
 20
120.119083
 30
0.0
 11
183.708377
 21
120.119083
 31
0.0
  0
LINE
  5
146
100
AcDbEntity
  8
0
  6
Continuous
 62
     8
100
AcDbLine
 10
184.70829
 20
120.119083
 30
0.0
 11
190.342808
 21
120.119083
 31
0.0
  0
LINE
  5
147
100
AcDbEntity
  8
0
  6
Continuous
 62
     8
100
AcDbLine
 10
191.342933
 20
120.119083
 30
0.0
 11
192.342846
 21
120.119083
 31
0.0
  0
LINE
  5
148
100
AcDbEntity
  8
0
  6
Continuous
 62
     8
100
AcDbLine
 10
193.342971
 20
120.119083
 30
0.0
 11
198.977489
 21
120.119083
 31
0.0
  0
LINE
  5
149
100
AcDbEntity
  8
0
  6
Continuous
 62
     8
100
AcDbLine
 10
199.977402
 20
120.119083
 30
0.0
 11
200.977527
 21
120.119083
 31
0.0
  0
LINE
  5
14A
100
AcDbEntity
  8
0
  6
Continuous
 62
     8
100
AcDbLine
 10
201.977439
 20
120.119083
 30
0.0
 11
207.611958
 21
120.119083
 31
0.0
  0
LINE
  5
14B
100
AcDbEntity
  8
0
  6
Continuous
 62
     8
100
AcDbLine
 10
208.612083
 20
120.119083
 30
0.0
 11
209.611995
 21
120.119083
 31
0.0
  0
LINE
  5
14C
100
AcDbEntity
  8
0
  6
Continuous
 62
     8
100
AcDbLine
 10
210.611908
 20
120.119083
 30
0.0
 11
216.246639
 21
120.119083
 31
0.0
  0
LINE
  5
14D
100
AcDbEntity
  8
0
  6
Continuous
 62
     8
100
AcDbLine
 10
217.246551
 20
120.119083
 30
0.0
 11
218.246464
 21
120.119083
 31
0.0
  0
LINE
  5
14E
100
AcDbEntity
  8
0
  6
Continuous
 62
     8
100
AcDbLine
 10
219.246589
 20
120.119083
 30
0.0
 11
224.881107
 21
120.119083
 31
0.0
  0
LINE
  5
14F
100
AcDbEntity
  8
0
  6
Continuous
 62
     8
100
AcDbLine
 10
225.881232
 20
120.119083
 30
0.0
 11
226.881145
 21
120.119083
 31
0.0
  0
LINE
  5
150
100
AcDbEntity
  8
0
  6
Continuous
 62
     8
100
AcDbLine
 10
227.881057
 20
120.119083
 30
0.0
 11
233.515576
 21
120.119083
 31
0.0
  0
ENDBLK
  5
151
100
AcDbEntity
  8
0
100
AcDbBlockEnd
  0
BLOCK
  5
154
100
AcDbEntity
  8
0
100
AcDbBlockBegin
  2
*B23
 70
     0
 10
0.0
 20
0.0
 30
0.0
  3
*B23
  1

  0
LINE
  5
155
100
AcDbEntity
  8
0
  6
Continuous
 62
     8
100
AcDbLine
 10
100.939117
 20
159.616795
 30
0.0
 11
100.939117
 21
166.116545
 31
0.0
  0
LINE
  5
156
100
AcDbEntity
  8
0
  6
Continuous
 62
     8
100
AcDbLine
 10
100.939117
 20
167.116457
 30
0.0
 11
100.939117
 21
168.11637
 31
0.0
  0
LINE
  5
157
100
AcDbEntity
  8
0
  6
Continuous
 62
     8
100
AcDbLine
 10
100.939117
 20
169.116282
 30
0.0
 11
100.939117
 21
175.616032
 31
0.0
  0
ENDBLK
  5
158
100
AcDbEntity
  8
0
100
AcDbBlockEnd
  0
BLOCK
  5
15B
100
AcDbEntity
  8
0
100
AcDbBlockBegin
  2
*B24
 70
     0
 10
0.0
 20
0.0
 30
0.0
  3
*B24
  1

  0
LINE
  5
15C
100
AcDbEntity
  8
0
  6
Continuous
 62
     8
100
AcDbLine
 10
201.939202
 20
83.013556
 30
0.0
 11
201.939202
 21
87.013206
 31
0.0
  0
LINE
  5
15D
100
AcDbEntity
  8
0
  6
Continuous
 62
     8
100
AcDbLine
 10
201.939202
 20
43.309573
 30
0.0
 11
201.939202
 21
54.208981
 31
0.0
  0
LINE
  5
15E
100
AcDbEntity
  8
0
  6
Continuous
 62
     8
100
AcDbLine
 10
201.939202
 20
57.208718
 30
0.0
 11
201.939202
 21
63.810435
 31
0.0
  0
LINE
  5
15F
100
AcDbEntity
  8
0
  6
Continuous
 62
     8
100
AcDbLine
 10
201.939202
 20
64.810347
 30
0.0
 11
201.939202
 21
65.81026
 31
0.0
  0
LINE
  5
160
100
AcDbEntity
  8
0
  6
Continuous
 62
     8
100
AcDbLine
 10
201.939202
 20
66.810172
 30
0.0
 11
201.939202
 21
73.411889
 31
0.0
  0
LINE
  5
161
100
AcDbEntity
  8
0
  6
Continuous
 62
     8
100
AcDbLine
 10
201.939202
 20
74.412014
 30
0.0
 11
201.939202
 21
75.411927
 31
0.0
  0
LINE
  5
162
100
AcDbEntity
  8
0
  6
Continuous
 62
     8
100
AcDbLine
 10
201.939202
 20
76.411839
 30
0.0
 11
201.939202
 21
83.013556
 31
0.0
  0
ENDBLK
  5
163
100
AcDbEntity
  8
0
100
AcDbBlockEnd
  0
BLOCK
  5
166
100
AcDbEntity
  8
0
100
AcDbBlockBegin
  2
*B25
 70
     0
 10
0.0
 20
0.0
 30
0.0
  3
*B25
  1

  0
LINE
  5
167
100
AcDbEntity
  8
0
  6
Continuous
 62
     8
100
AcDbLine
 10
100.939117
 20
83.013556
 30
0.0
 11
100.939117
 21
87.013206
 31
0.0
  0
LINE
  5
168
100
AcDbEntity
  8
0
  6
Continuous
 62
     8
100
AcDbLine
 10
100.939117
 20
48.334203
 30
0.0
 11
100.939117
 21
54.208981
 31
0.0
  0
LINE
  5
169
100
AcDbEntity
  8
0
  6
Continuous
 62
     8
100
AcDbLine
 10
100.939117
 20
57.208718
 30
0.0
 11
100.939117
 21
63.810435
 31
0.0
  0
LINE
  5
16A
100
AcDbEntity
  8
0
  6
Continuous
 62
     8
100
AcDbLine
 10
100.939117
 20
64.810347
 30
0.0
 11
100.939117
 21
65.81026
 31
0.0
  0
LINE
  5
16B
100
AcDbEntity
  8
0
  6
Continuous
 62
     8
100
AcDbLine
 10
100.939117
 20
66.810172
 30
0.0
 11
100.939117
 21
73.411889
 31
0.0
  0
LINE
  5
16C
100
AcDbEntity
  8
0
  6
Continuous
 62
     8
100
AcDbLine
 10
100.939117
 20
74.412014
 30
0.0
 11
100.939117
 21
75.411927
 31
0.0
  0
LINE
  5
16D
100
AcDbEntity
  8
0
  6
Continuous
 62
     8
100
AcDbLine
 10
100.939117
 20
76.411839
 30
0.0
 11
100.939117
 21
83.013556
 31
0.0
  0
ENDBLK
  5
16E
100
AcDbEntity
  8
0
100
AcDbBlockEnd
  0
BLOCK
  5
171
100
AcDbEntity
  8
0
100
AcDbBlockBegin
  2
*B26
 70
     0
 10
0.0
 20
0.0
 30
0.0
  3
*B26
  1

  0
LINE
  5
172
100
AcDbEntity
  8
0
  6
Continuous
 62
     8
100
AcDbLine
 10
201.939202
 20
153.617108
 30
0.0
 11
201.939202
 21
158.950187
 31
0.0
  0
LINE
  5
173
100
AcDbEntity
  8
0
  6
Continuous
 62
     8
100
AcDbLine
 10
201.939202
 20
159.950099
 30
0.0
 11
201.939202
 21
160.950012
 31
0.0
  0
LINE
  5
174
100
AcDbEntity
  8
0
  6
Continuous
 62
     8
100
AcDbLine
 10
201.939202
 20
161.950137
 30
0.0
 11
201.939202
 21
167.283003
 31
0.0
  0
LINE
  5
175
100
AcDbEntity
  8
0
  6
Continuous
 62
     8
100
AcDbLine
 10
201.939202
 20
168.283128
 30
0.0
 11
201.939202
 21
169.283041
 31
0.0
  0
LINE
  5
176
100
AcDbEntity
  8
0
  6
Continuous
 62
     8
100
AcDbLine
 10
201.939202
 20
170.282953
 30
0.0
 11
201.939202
 21
175.616032
 31
0.0
  0
ENDBLK
  5
177
100
AcDbEntity
  8
0
100
AcDbBlockEnd
  0
BLOCK
  5
17A
100
AcDbEntity
  8
0
100
AcDbBlockBegin
  2
*B27
 70
     0
 10
0.0
 20
0.0
 30
0.0
  3
*B27
  1

  0
LINE
  5
17B
100
AcDbEntity
  8
0
  6
Continuous
 62
     8
100
AcDbLine
 10
129.939129
 20
83.013556
 30
0.0
 11
129.939129
 21
87.013206
 31
0.0
  0
LINE
  5
17C
100
AcDbEntity
  8
0
  6
Continuous
 62
     8
100
AcDbLine
 10
129.939129
 20
43.309573
 30
0.0
 11
129.939129
 21
54.208981
 31
0.0
  0
LINE
  5
17D
100
AcDbEntity
  8
0
  6
Continuous
 62
     8
100
AcDbLine
 10
129.939129
 20
57.208718
 30
0.0
 11
129.939129
 21
63.810435
 31
0.0
  0
LINE
  5
17E
100
AcDbEntity
  8
0
  6
Continuous
 62
     8
100
AcDbLine
 10
129.939129
 20
64.810347
 30
0.0
 11
129.939129
 21
65.81026
 31
0.0
  0
LINE
  5
17F
100
AcDbEntity
  8
0
  6
Continuous
 62
     8
100
AcDbLine
 10
129.939129
 20
66.810172
 30
0.0
 11
129.939129
 21
73.411889
 31
0.0
  0
LINE
  5
180
100
AcDbEntity
  8
0
  6
Continuous
 62
     8
100
AcDbLine
 10
129.939129
 20
74.412014
 30
0.0
 11
129.939129
 21
75.411927
 31
0.0
  0
LINE
  5
181
100
AcDbEntity
  8
0
  6
Continuous
 62
     8
100
AcDbLine
 10
129.939129
 20
76.411839
 30
0.0
 11
129.939129
 21
83.013556
 31
0.0
  0
ENDBLK
  5
182
100
AcDbEntity
  8
0
100
AcDbBlockEnd
  0
BLOCK
  5
185
100
AcDbEntity
  8
0
100
AcDbBlockBegin
  2
*B28
 70
     0
 10
0.0
 20
0.0
 30
0.0
  3
*B28
  1

  0
LINE
  5
186
100
AcDbEntity
  8
0
  6
Continuous
 62
     8
100
AcDbLine
 10
129.939129
 20
153.617108
 30
0.0
 11
129.939129
 21
158.950187
 31
0.0
  0
LINE
  5
187
100
AcDbEntity
  8
0
  6
Continuous
 62
     8
100
AcDbLine
 10
129.939129
 20
159.950099
 30
0.0
 11
129.939129
 21
160.950012
 31
0.0
  0
LINE
  5
188
100
AcDbEntity
  8
0
  6
Continuous
 62
     8
100
AcDbLine
 10
129.939129
 20
161.950137
 30
0.0
 11
129.939129
 21
167.283003
 31
0.0
  0
LINE
  5
189
100
AcDbEntity
  8
0
  6
Continuous
 62
     8
100
AcDbLine
 10
129.939129
 20
168.283128
 30
0.0
 11
129.939129
 21
169.283041
 31
0.0
  0
LINE
  5
18A
100
AcDbEntity
  8
0
  6
Continuous
 62
     8
100
AcDbLine
 10
129.939129
 20
170.282953
 30
0.0
 11
129.939129
 21
175.616032
 31
0.0
  0
ENDBLK
  5
18B
100
AcDbEntity
  8
0
100
AcDbBlockEnd
  0
BLOCK
  5
18E
100
AcDbEntity
  8
0
100
AcDbBlockBegin
  2
*B29
 70
     0
 10
0.0
 20
0.0
 30
0.0
  3
*B29
  1

  0
LINE
  5
18F
100
AcDbEntity
  8
0
  6
Continuous
 62
     8
100
AcDbLine
 10
89.93923
 20
55.708743
 30
0.0
 11
99.439142
 21
55.708743
 31
0.0
  0
LINE
  5
190
100
AcDbEntity
  8
0
  6
Continuous
 62
     8
100
AcDbLine
 10
102.439304
 20
55.708743
 30
0.0
 11
109.105813
 21
55.708743
 31
0.0
  0
LINE
  5
191
100
AcDbEntity
  8
0
  6
Continuous
 62
     8
100
AcDbLine
 10
110.105937
 20
55.708743
 30
0.0
 11
111.10585
 21
55.708743
 31
0.0
  0
LINE
  5
192
100
AcDbEntity
  8
0
  6
Continuous
 62
     8
100
AcDbLine
 10
112.105762
 20
55.708743
 30
0.0
 11
118.772483
 21
55.708743
 31
0.0
  0
LINE
  5
193
100
AcDbEntity
  8
0
  6
Continuous
 62
     8
100
AcDbLine
 10
119.772608
 20
55.708743
 30
0.0
 11
120.772521
 21
55.708743
 31
0.0
  0
LINE
  5
194
100
AcDbEntity
  8
0
  6
Continuous
 62
     8
100
AcDbLine
 10
121.772433
 20
55.708743
 30
0.0
 11
128.439154
 21
55.708743
 31
0.0
  0
LINE
  5
195
100
AcDbEntity
  8
0
  6
Continuous
 62
     8
100
AcDbLine
 10
131.439104
 20
55.708743
 30
0.0
 11
137.439216
 21
55.708743
 31
0.0
  0
LINE
  5
196
100
AcDbEntity
  8
0
  6
Continuous
 62
     8
100
AcDbLine
 10
138.439128
 20
55.708743
 30
0.0
 11
139.439253
 21
55.708743
 31
0.0
  0
LINE
  5
197
100
AcDbEntity
  8
0
  6
Continuous
 62
     8
100
AcDbLine
 10
140.439166
 20
55.708743
 30
0.0
 11
146.439278
 21
55.708743
 31
0.0
  0
LINE
  5
198
100
AcDbEntity
  8
0
  6
Continuous
 62
     8
100
AcDbLine
 10
147.439191
 20
55.708743
 30
0.0
 11
148.439103
 21
55.708743
 31
0.0
  0
LINE
  5
199
100
AcDbEntity
  8
0
  6
Continuous
 62
     8
100
AcDbLine
 10
149.439228
 20
55.708743
 30
0.0
 11
155.439128
 21
55.708743
 31
0.0
  0
LINE
  5
19A
100
AcDbEntity
  8
0
  6
Continuous
 62
     8
100
AcDbLine
 10
156.439253
 20
55.708743
 30
0.0
 11
157.439165
 21
55.708743
 31
0.0
  0
LINE
  5
19B
100
AcDbEntity
  8
0
  6
Continuous
 62
     8
100
AcDbLine
 10
158.439078
 20
55.708743
 30
0.0
 11
164.43919
 21
55.708743
 31
0.0
  0
LINE
  5
19C
100
AcDbEntity
  8
0
  6
Continuous
 62
     8
100
AcDbLine
 10
167.43914
 20
55.708743
 30
0.0
 11
173.439252
 21
55.708743
 31
0.0
  0
LINE
  5
19D
100
AcDbEntity
  8
0
  6
Continuous
 62
     8
100
AcDbLine
 10
174.439165
 20
55.708743
 30
0.0
 11
175.439077
 21
55.708743
 31
0.0
  0
LINE
  5
19E
100
AcDbEntity
  8
0
  6
Continuous
 62
     8
100
AcDbLine
 10
176.439202
 20
55.708743
 30
0.0
 11
182.439102
 21
55.708743
 31
0.0
  0
LINE
  5
19F
100
AcDbEntity
  8
0
  6
Continuous
 62
     8
100
AcDbLine
 10
183.439227
 20
55.708743
 30
0.0
 11
184.43914
 21
55.708743
 31
0.0
  0
LINE
  5
1A0
100
AcDbEntity
  8
0
  6
Continuous
 62
     8
100
AcDbLine
 10
185.439052
 20
55.708743
 30
0.0
 11
191.439164
 21
55.708743
 31
0.0
  0
LINE
  5
1A1
100
AcDbEntity
  8
0
  6
Continuous
 62
     8
100
AcDbLine
 10
192.439077
 20
55.708743
 30
0.0
 11
193.439202
 21
55.708743
 31
0.0
  0
LINE
  5
1A2
100
AcDbEntity
  8
0
  6
Continuous
 62
     8
100
AcDbLine
 10
194.439114
 20
55.708743
 30
0.0
 11
200.439227
 21
55.708743
 31
0.0
  0
LINE
  5
1A3
100
AcDbEntity
  8
0
  6
Continuous
 62
     8
100
AcDbLine
 10
203.439177
 20
55.708743
 30
0.0
 11
208.939226
 21
55.708743
 31
0.0
  0
LINE
  5
1A4
100
AcDbEntity
  8
0
  6
Continuous
 62
     8
100
AcDbLine
 10
209.939139
 20
55.708743
 30
0.0
 11
210.939051
 21
55.708743
 31
0.0
  0
LINE
  5
1A5
100
AcDbEntity
  8
0
  6
Continuous
 62
     8
100
AcDbLine
 10
211.939176
 20
55.708743
 30
0.0
 11
217.439226
 21
55.708743
 31
0.0
  0
LINE
  5
1A6
100
AcDbEntity
  8
0
  6
Continuous
 62
     8
100
AcDbLine
 10
218.439139
 20
55.708743
 30
0.0
 11
219.439051
 21
55.708743
 31
0.0
  0
LINE
  5
1A7
100
AcDbEntity
  8
0
  6
Continuous
 62
     8
100
AcDbLine
 10
220.439176
 20
55.708743
 30
0.0
 11
225.939226
 21
55.708743
 31
0.0
  0
ENDBLK
  5
1A8
100
AcDbEntity
  8
0
100
AcDbBlockEnd
  0
BLOCK
  5
1AB
100
AcDbEntity
  8
0
100
AcDbBlockBegin
  2
*B30
 70
     0
 10
0.0
 20
0.0
 30
0.0
  3
*B30
  1

  0
LINE
  5
1AC
100
AcDbEntity
  8
0
  6
Continuous
 62
     8
100
AcDbLine
 10
188.939065
 20
18.294766
 30
0.0
 11
188.939065
 21
31.710206
 31
0.0
  0
ENDBLK
  5
1AD
100
AcDbEntity
  8
0
100
AcDbBlockEnd
  0
BLOCK
  5
1B0
100
AcDbEntity
  8
0
100
AcDbBlockBegin
  2
*B31
 70
     0
 10
0.0
 20
0.0
 30
0.0
  3
*B31
  1

  0
LINE
  5
1B1
100
AcDbEntity
  8
0
  6
Continuous
 62
     8
100
AcDbLine
 10
165.939165
 20
114.119395
 30
0.0
 11
165.939165
 21
118.619108
 31
0.0
  0
LINE
  5
1B2
100
AcDbEntity
  8
0
  6
Continuous
 62
     8
100
AcDbLine
 10
165.939165
 20
121.619058
 30
0.0
 11
165.939165
 21
126.761586
 31
0.0
  0
LINE
  5
1B3
100
AcDbEntity
  8
0
  6
Continuous
 62
     8
100
AcDbLine
 10
165.939165
 20
127.761499
 30
0.0
 11
165.939165
 21
128.761411
 31
0.0
  0
LINE
  5
1B4
100
AcDbEntity
  8
0
  6
Continuous
 62
     8
100
AcDbLine
 10
165.939165
 20
129.761324
 30
0.0
 11
165.939165
 21
134.903852
 31
0.0
  0
LINE
  5
1B5
100
AcDbEntity
  8
0
  6
Continuous
 62
     8
100
AcDbLine
 10
165.939165
 20
135.903977
 30
0.0
 11
165.939165
 21
136.90389
 31
0.0
  0
LINE
  5
1B6
100
AcDbEntity
  8
0
  6
Continuous
 62
     8
100
AcDbLine
 10
165.939165
 20
137.903802
 30
0.0
 11
165.939165
 21
143.046331
 31
0.0
  0
LINE
  5
1B7
100
AcDbEntity
  8
0
  6
Continuous
 62
     8
100
AcDbLine
 10
165.939165
 20
144.046243
 30
0.0
 11
165.939165
 21
145.046156
 31
0.0
  0
LINE
  5
1B8
100
AcDbEntity
  8
0
  6
Continuous
 62
     8
100
AcDbLine
 10
165.939165
 20
146.046281
 30
0.0
 11
165.939165
 21
151.188809
 31
0.0
  0
LINE
  5
1B9
100
AcDbEntity
  8
0
  6
Continuous
 62
     8
100
AcDbLine
 10
165.939165
 20
152.188722
 30
0.0
 11
165.939165
 21
153.188634
 31
0.0
  0
LINE
  5
1BA
100
AcDbEntity
  8
0
  6
Continuous
 62
     8
100
AcDbLine
 10
165.939165
 20
154.188547
 30
0.0
 11
165.939165
 21
159.331075
 31
0.0
  0
LINE
  5
1BB
100
AcDbEntity
  8
0
  6
Continuous
 62
     8
100
AcDbLine
 10
165.939165
 20
160.330988
 30
0.0
 11
165.939165
 21
161.331113
 31
0.0
  0
LINE
  5
1BC
100
AcDbEntity
  8
0
  6
Continuous
 62
     8
100
AcDbLine
 10
165.939165
 20
162.331025
 30
0.0
 11
165.939165
 21
167.473554
 31
0.0
  0
LINE
  5
1BD
100
AcDbEntity
  8
0
  6
Continuous
 62
     8
100
AcDbLine
 10
165.939165
 20
168.473466
 30
0.0
 11
165.939165
 21
169.473379
 31
0.0
  0
LINE
  5
1BE
100
AcDbEntity
  8
0
  6
Continuous
 62
     8
100
AcDbLine
 10
165.939165
 20
170.473291
 30
0.0
 11
165.939165
 21
175.616032
 31
0.0
  0
ENDBLK
  5
1BF
100
AcDbEntity
  8
0
100
AcDbBlockEnd
  0
BLOCK
  5
1C2
100
AcDbEntity
  8
0
100
AcDbBlockBegin
  2
*B32
 70
     0
 10
0.0
 20
0.0
 30
0.0
  3
*B32
  1

  0
LINE
  5
1C3
100
AcDbEntity
  8
0
  6
Continuous
 62
     8
100
AcDbLine
 10
185.939115
 20
29.710381
 30
0.0
 11
185.939115
 21
35.043247
 31
0.0
  0
LINE
  5
1C4
100
AcDbEntity
  8
0
  6
Continuous
 62
     8
100
AcDbLine
 10
185.939115
 20
36.043372
 30
0.0
 11
185.939115
 21
37.043285
 31
0.0
  0
LINE
  5
1C5
100
AcDbEntity
  8
0
  6
Continuous
 62
     8
100
AcDbLine
 10
185.939115
 20
38.043197
 30
0.0
 11
185.939115
 21
43.376276
 31
0.0
  0
LINE
  5
1C6
100
AcDbEntity
  8
0
  6
Continuous
 62
     8
100
AcDbLine
 10
185.939115
 20
44.376189
 30
0.0
 11
185.939115
 21
45.376101
 31
0.0
  0
LINE
  5
1C7
100
AcDbEntity
  8
0
  6
Continuous
 62
     8
100
AcDbLine
 10
185.939115
 20
46.376014
 30
0.0
 11
185.939115
 21
51.709093
 31
0.0
  0
LINE
  5
1C8
100
AcDbEntity
  8
0
  6
Continuous
 62
     8
100
AcDbLine
 10
185.939115
 20
52.709006
 30
0.0
 11
185.939115
 21
53.708918
 31
0.0
  0
LINE
  5
1C9
100
AcDbEntity
  8
0
  6
Continuous
 62
     8
100
AcDbLine
 10
185.939115
 20
54.708831
 30
0.0
 11
185.939115
 21
60.04191
 31
0.0
  0
LINE
  5
1CA
100
AcDbEntity
  8
0
  6
Continuous
 62
     8
100
AcDbLine
 10
185.939115
 20
61.041822
 30
0.0
 11
185.939115
 21
62.041735
 31
0.0
  0
LINE
  5
1CB
100
AcDbEntity
  8
0
  6
Continuous
 62
     8
100
AcDbLine
 10
185.939115
 20
63.041647
 30
0.0
 11
185.939115
 21
68.374726
 31
0.0
  0
LINE
  5
1CC
100
AcDbEntity
  8
0
  6
Continuous
 62
     8
100
AcDbLine
 10
185.939115
 20
69.374639
 30
0.0
 11
185.939115
 21
70.374764
 31
0.0
  0
LINE
  5
1CD
100
AcDbEntity
  8
0
  6
Continuous
 62
     8
100
AcDbLine
 10
185.939115
 20
71.374676
 30
0.0
 11
185.939115
 21
76.707543
 31
0.0
  0
ENDBLK
  5
1CE
100
AcDbEntity
  8
0
100
AcDbBlockEnd
  0
BLOCK
  5
1D1
100
AcDbEntity
  8
0
100
AcDbBlockBegin
  2
*B33
 70
     0
 10
0.0
 20
0.0
 30
0.0
  3
*B33
  1

  0
LINE
  5
1D2
100
AcDbEntity
  8
0
  6
Continuous
 62
     8
100
AcDbLine
 10
175.339235
 20
173.615995
 30
0.0
 11
175.339235
 21
186.00773
 31
0.0
  0
ENDBLK
  5
1D3
100
AcDbEntity
  8
0
100
AcDbBlockEnd
  0
BLOCK
  5
1D6
100
AcDbEntity
  8
0
100
AcDbBlockBegin
  2
*B34
 70
     0
 10
0.0
 20
0.0
 30
0.0
  3
*B34
  1

  0
LINE
  5
1D7
100
AcDbEntity
  8
0
  6
Continuous
 62
     8
100
AcDbLine
 10
105.314132
 20
173.615995
 30
0.0
 11
105.314132
 21
187.007642
 31
0.0
  0
ENDBLK
  5
1D8
100
AcDbEntity
  8
0
100
AcDbBlockEnd
  0
BLOCK
  5
1DB
100
AcDbEntity
  8
0
100
AcDbBlockBegin
  2
*B35
 70
     0
 10
0.0
 20
0.0
 30
0.0
  3
*B35
  1

  0
LINE
  5
1DC
100
AcDbEntity
  8
0
  6
Continuous
 62
     8
100
AcDbLine
 10
165.939165
 20
83.013556
 30
0.0
 11
165.939165
 21
87.013206
 31
0.0
  0
LINE
  5
1DD
100
AcDbEntity
  8
0
  6
Continuous
 62
     8
100
AcDbLine
 10
165.939165
 20
43.309573
 30
0.0
 11
165.939165
 21
54.208981
 31
0.0
  0
LINE
  5
1DE
100
AcDbEntity
  8
0
  6
Continuous
 62
     8
100
AcDbLine
 10
165.939165
 20
57.208718
 30
0.0
 11
165.939165
 21
63.810435
 31
0.0
  0
LINE
  5
1DF
100
AcDbEntity
  8
0
  6
Continuous
 62
     8
100
AcDbLine
 10
165.939165
 20
64.810347
 30
0.0
 11
165.939165
 21
65.81026
 31
0.0
  0
LINE
  5
1E0
100
AcDbEntity
  8
0
  6
Continuous
 62
     8
100
AcDbLine
 10
165.939165
 20
66.810172
 30
0.0
 11
165.939165
 21
73.411889
 31
0.0
  0
LINE
  5
1E1
100
AcDbEntity
  8
0
  6
Continuous
 62
     8
100
AcDbLine
 10
165.939165
 20
74.412014
 30
0.0
 11
165.939165
 21
75.411927
 31
0.0
  0
LINE
  5
1E2
100
AcDbEntity
  8
0
  6
Continuous
 62
     8
100
AcDbLine
 10
165.939165
 20
76.411839
 30
0.0
 11
165.939165
 21
83.013556
 31
0.0
  0
ENDBLK
  5
1E3
100
AcDbEntity
  8
0
100
AcDbBlockEnd
  0
BLOCK
  5
1E6
100
AcDbEntity
  8
0
100
AcDbBlockBegin
  2
*B36
 70
     0
 10
0.0
 20
0.0
 30
0.0
  3
*B36
  1

  0
LINE
  5
1E7
100
AcDbEntity
  8
0
  6
Continuous
 62
     8
100
AcDbLine
 10
145.939216
 20
97.012756
 30
0.0
 11
145.939216
 21
101.012406
 31
0.0
  0
LINE
  5
1E8
100
AcDbEntity
  8
0
  6
Continuous
 62
     8
100
AcDbLine
 10
145.939216
 20
101.012406
 30
0.0
 11
145.939216
 21
108.315994
 31
0.0
  0
LINE
  5
1E9
100
AcDbEntity
  8
0
  6
Continuous
 62
     8
100
AcDbLine
 10
145.939216
 20
109.315907
 30
0.0
 11
145.939216
 21
110.315819
 31
0.0
  0
LINE
  5
1EA
100
AcDbEntity
  8
0
  6
Continuous
 62
     8
100
AcDbLine
 10
145.939216
 20
111.315732
 30
0.0
 11
145.939216
 21
118.619108
 31
0.0
  0
LINE
  5
1EB
100
AcDbEntity
  8
0
  6
Continuous
 62
     8
100
AcDbLine
 10
145.939216
 20
121.619058
 30
0.0
 11
145.939216
 21
129.868602
 31
0.0
  0
LINE
  5
1EC
100
AcDbEntity
  8
0
  6
Continuous
 62
     8
100
AcDbLine
 10
145.939216
 20
130.868514
 30
0.0
 11
145.939216
 21
131.868427
 31
0.0
  0
LINE
  5
1ED
100
AcDbEntity
  8
0
  6
Continuous
 62
     8
100
AcDbLine
 10
145.939216
 20
132.868339
 30
0.0
 11
145.939216
 21
141.117883
 31
0.0
  0
LINE
  5
1EE
100
AcDbEntity
  8
0
  6
Continuous
 62
     8
100
AcDbLine
 10
145.939216
 20
144.11762
 30
0.0
 11
145.939216
 21
150.74228
 31
0.0
  0
LINE
  5
1EF
100
AcDbEntity
  8
0
  6
Continuous
 62
     8
100
AcDbLine
 10
145.939216
 20
151.742192
 30
0.0
 11
145.939216
 21
152.742317
 31
0.0
  0
LINE
  5
1F0
100
AcDbEntity
  8
0
  6
Continuous
 62
     8
100
AcDbLine
 10
145.939216
 20
153.742229
 30
0.0
 11
145.939216
 21
160.366889
 31
0.0
  0
ENDBLK
  5
1F1
100
AcDbEntity
  8
0
100
AcDbBlockEnd
  0
BLOCK
  5
1F4
100
AcDbEntity
  8
0
100
AcDbBlockBegin
  2
*B37
 70
     0
 10
0.0
 20
0.0
 30
0.0
  3
*B37
  1

  0
LINE
  5
1F5
100
AcDbEntity
  8
0
  6
Continuous
 62
     8
100
AcDbLine
 10
223.939188
 20
112.619421
 30
0.0
 11
248.51575
 21
112.619421
 31
0.0
  0
ENDBLK
  5
1F6
100
AcDbEntity
  8
0
100
AcDbBlockEnd
  0
BLOCK
  5
1F9
100
AcDbEntity
  8
0
100
AcDbBlockBegin
  2
*B38
 70
     0
 10
0.0
 20
0.0
 30
0.0
  3
*B38
  1

  0
LINE
  5
1FA
100
AcDbEntity
  8
0
  6
Continuous
 62
     8
100
AcDbLine
 10
189.939189
 20
32.710118
 30
0.0
 11
237.515651
 21
32.710118
 31
0.0
  0
ENDBLK
  5
1FB
100
AcDbEntity
  8
0
100
AcDbBlockEnd
  0
BLOCK
  5
1FE
100
AcDbEntity
  8
0
100
AcDbBlockBegin
  2
*B39
 70
     0
 10
0.0
 20
0.0
 30
0.0
  3
*B39
  1

  0
LINE
  5
1FF
100
AcDbEntity
  8
0
  6
Continuous
 62
     8
100
AcDbLine
 10
145.939216
 20
29.710381
 30
0.0
 11
145.939216
 21
35.043247
 31
0.0
  0
LINE
  5
200
100
AcDbEntity
  8
0
  6
Continuous
 62
     8
100
AcDbLine
 10
145.939216
 20
36.043372
 30
0.0
 11
145.939216
 21
37.043285
 31
0.0
  0
LINE
  5
201
100
AcDbEntity
  8
0
  6
Continuous
 62
     8
100
AcDbLine
 10
145.939216
 20
38.043197
 30
0.0
 11
145.939216
 21
43.376276
 31
0.0
  0
LINE
  5
202
100
AcDbEntity
  8
0
  6
Continuous
 62
     8
100
AcDbLine
 10
145.939216
 20
44.376189
 30
0.0
 11
145.939216
 21
45.376101
 31
0.0
  0
LINE
  5
203
100
AcDbEntity
  8
0
  6
Continuous
 62
     8
100
AcDbLine
 10
145.939216
 20
46.376014
 30
0.0
 11
145.939216
 21
51.709093
 31
0.0
  0
LINE
  5
204
100
AcDbEntity
  8
0
  6
Continuous
 62
     8
100
AcDbLine
 10
145.939216
 20
52.709006
 30
0.0
 11
145.939216
 21
53.708918
 31
0.0
  0
LINE
  5
205
100
AcDbEntity
  8
0
  6
Continuous
 62
     8
100
AcDbLine
 10
145.939216
 20
54.708831
 30
0.0
 11
145.939216
 21
60.04191
 31
0.0
  0
LINE
  5
206
100
AcDbEntity
  8
0
  6
Continuous
 62
     8
100
AcDbLine
 10
145.939216
 20
61.041822
 30
0.0
 11
145.939216
 21
62.041735
 31
0.0
  0
LINE
  5
207
100
AcDbEntity
  8
0
  6
Continuous
 62
     8
100
AcDbLine
 10
145.939216
 20
63.041647
 30
0.0
 11
145.939216
 21
68.374726
 31
0.0
  0
LINE
  5
208
100
AcDbEntity
  8
0
  6
Continuous
 62
     8
100
AcDbLine
 10
145.939216
 20
69.374639
 30
0.0
 11
145.939216
 21
70.374764
 31
0.0
  0
LINE
  5
209
100
AcDbEntity
  8
0
  6
Continuous
 62
     8
100
AcDbLine
 10
145.939216
 20
71.374676
 30
0.0
 11
145.939216
 21
76.707543
 31
0.0
  0
ENDBLK
  5
20A
100
AcDbEntity
  8
0
100
AcDbBlockEnd
  0
BLOCK
  5
20D
100
AcDbEntity
  8
0
100
AcDbBlockBegin
  2
*B40
 70
     0
 10
0.0
 20
0.0
 30
0.0
  3
*B40
  1

  0
LINE
  5
20E
100
AcDbEntity
  8
0
  6
Continuous
 62
     8
100
AcDbLine
 10
223.939188
 20
40.709631
 30
0.0
 11
248.51575
 21
40.709631
 31
0.0
  0
ENDBLK
  5
20F
100
AcDbEntity
  8
0
100
AcDbBlockEnd
  0
BLOCK
  5
212
100
AcDbEntity
  8
0
100
AcDbBlockBegin
  2
*B41
 70
     0
 10
0.0
 20
0.0
 30
0.0
  3
*B41
  1

  0
LINE
  5
213
100
AcDbEntity
  8
0
  6
Continuous
 62
     8
100
AcDbLine
 10
223.939188
 20
70.708068
 30
0.0
 11
248.51575
 21
70.708068
 31
0.0
  0
ENDBLK
  5
214
100
AcDbEntity
  8
0
100
AcDbBlockEnd
  0
BLOCK
  5
217
100
AcDbEntity
  8
0
100
AcDbBlockBegin
  2
*B42
 70
     0
 10
0.0
 20
0.0
 30
0.0
  3
*B42
  1

  0
LINE
  5
218
100
AcDbEntity
  8
0
  6
Continuous
 62
     8
100
AcDbLine
 10
156.539095
 20
173.615995
 30
0.0
 11
156.539095
 21
186.00773
 31
0.0
  0
ENDBLK
  5
219
100
AcDbEntity
  8
0
100
AcDbBlockEnd
  0
BLOCK
  5
21C
100
AcDbEntity
  8
0
100
AcDbBlockBegin
  2
*B43
 70
     0
 10
0.0
 20
0.0
 30
0.0
  3
*B43
  1

  0
LINE
  5
21D
100
AcDbEntity
  8
0
  6
Continuous
 62
     8
100
AcDbLine
 10
233.515576
 20
165.11642
 30
0.0
 11
237.515651
 21
165.11642
 31
0.0
  0
LINE
  5
21E
100
AcDbEntity
  8
0
  6
Continuous
 62
     8
100
AcDbLine
 10
177.939177
 20
165.11642
 30
0.0
 11
184.43914
 21
165.11642
 31
0.0
  0
LINE
  5
21F
100
AcDbEntity
  8
0
  6
Continuous
 62
     8
100
AcDbLine
 10
187.43909
 20
165.11642
 30
0.0
 11
192.618581
 21
165.11642
 31
0.0
  0
LINE
  5
220
100
AcDbEntity
  8
0
  6
Continuous
 62
     8
100
AcDbLine
 10
193.618494
 20
165.11642
 30
0.0
 11
194.618618
 21
165.11642
 31
0.0
  0
LINE
  5
221
100
AcDbEntity
  8
0
  6
Continuous
 62
     8
100
AcDbLine
 10
195.618531
 20
165.11642
 30
0.0
 11
200.798023
 21
165.11642
 31
0.0
  0
LINE
  5
222
100
AcDbEntity
  8
0
  6
Continuous
 62
     8
100
AcDbLine
 10
201.797935
 20
165.11642
 30
0.0
 11
202.79806
 21
165.11642
 31
0.0
  0
LINE
  5
223
100
AcDbEntity
  8
0
  6
Continuous
 62
     8
100
AcDbLine
 10
203.797972
 20
165.11642
 30
0.0
 11
208.977464
 21
165.11642
 31
0.0
  0
LINE
  5
224
100
AcDbEntity
  8
0
  6
Continuous
 62
     8
100
AcDbLine
 10
209.977376
 20
165.11642
 30
0.0
 11
210.977501
 21
165.11642
 31
0.0
  0
LINE
  5
225
100
AcDbEntity
  8
0
  6
Continuous
 62
     8
100
AcDbLine
 10
211.977414
 20
165.11642
 30
0.0
 11
217.156905
 21
165.11642
 31
0.0
  0
LINE
  5
226
100
AcDbEntity
  8
0
  6
Continuous
 62
     8
100
AcDbLine
 10
218.156818
 20
165.11642
 30
0.0
 11
219.156943
 21
165.11642
 31
0.0
  0
LINE
  5
227
100
AcDbEntity
  8
0
  6
Continuous
 62
     8
100
AcDbLine
 10
220.156855
 20
165.11642
 30
0.0
 11
225.336347
 21
165.11642
 31
0.0
  0
LINE
  5
228
100
AcDbEntity
  8
0
  6
Continuous
 62
     8
100
AcDbLine
 10
226.336259
 20
165.11642
 30
0.0
 11
227.336384
 21
165.11642
 31
0.0
  0
LINE
  5
229
100
AcDbEntity
  8
0
  6
Continuous
 62
     8
100
AcDbLine
 10
228.336297
 20
165.11642
 30
0.0
 11
233.515576
 21
165.11642
 31
0.0
  0
ENDBLK
  5
22A
100
AcDbEntity
  8
0
100
AcDbBlockEnd
  0
BLOCK
  5
22D
100
AcDbEntity
  8
0
100
AcDbBlockBegin
  2
*B44
 70
     0
 10
0.0
 20
0.0
 30
0.0
  3
*B44
  1

  0
LINE
  5
22E
100
AcDbEntity
  8
0
  6
Continuous
 62
     8
100
AcDbLine
 10
96.564101
 20
173.615995
 30
0.0
 11
96.564101
 21
187.007642
 31
0.0
  0
ENDBLK
  5
22F
100
AcDbEntity
  8
0
100
AcDbBlockEnd
  0
BLOCK
  5
232
100
AcDbEntity
  8
0
100
AcDbBlockBegin
  2
*B45
 70
     0
 10
0.0
 20
0.0
 30
0.0
  3
*B45
  1

  0
LINE
  5
233
100
AcDbEntity
  8
0
  6
Continuous
 62
     8
100
AcDbLine
 10
89.93923
 20
142.617858
 30
0.0
 11
95.15356
 21
142.617858
 31
0.0
  0
LINE
  5
234
100
AcDbEntity
  8
0
  6
Continuous
 62
     8
100
AcDbLine
 10
96.153472
 20
142.617858
 30
0.0
 11
97.153385
 21
142.617858
 31
0.0
  0
LINE
  5
235
100
AcDbEntity
  8
0
  6
Continuous
 62
     8
100
AcDbLine
 10
98.15351
 20
142.617858
 30
0.0
 11
103.36784
 21
142.617858
 31
0.0
  0
LINE
  5
236
100
AcDbEntity
  8
0
  6
Continuous
 62
     8
100
AcDbLine
 10
104.367753
 20
142.617858
 30
0.0
 11
105.367665
 21
142.617858
 31
0.0
  0
LINE
  5
237
100
AcDbEntity
  8
0
  6
Continuous
 62
     8
100
AcDbLine
 10
106.36779
 20
142.617858
 30
0.0
 11
111.58212
 21
142.617858
 31
0.0
  0
LINE
  5
238
100
AcDbEntity
  8
0
  6
Continuous
 62
     8
100
AcDbLine
 10
112.582033
 20
142.617858
 30
0.0
 11
113.582158
 21
142.617858
 31
0.0
  0
LINE
  5
239
100
AcDbEntity
  8
0
  6
Continuous
 62
     8
100
AcDbLine
 10
114.58207
 20
142.617858
 30
0.0
 11
119.7964
 21
142.617858
 31
0.0
  0
LINE
  5
23A
100
AcDbEntity
  8
0
  6
Continuous
 62
     8
100
AcDbLine
 10
120.796313
 20
142.617858
 30
0.0
 11
121.796438
 21
142.617858
 31
0.0
  0
LINE
  5
23B
100
AcDbEntity
  8
0
  6
Continuous
 62
     8
100
AcDbLine
 10
122.79635
 20
142.617858
 30
0.0
 11
128.01068
 21
142.617858
 31
0.0
  0
LINE
  5
23C
100
AcDbEntity
  8
0
  6
Continuous
 62
     8
100
AcDbLine
 10
129.010593
 20
142.617858
 30
0.0
 11
130.010718
 21
142.617858
 31
0.0
  0
LINE
  5
23D
100
AcDbEntity
  8
0
  6
Continuous
 62
     8
100
AcDbLine
 10
131.01063
 20
142.617858
 30
0.0
 11
136.224961
 21
142.617858
 31
0.0
  0
LINE
  5
23E
100
AcDbEntity
  8
0
  6
Continuous
 62
     8
100
AcDbLine
 10
137.224873
 20
142.617858
 30
0.0
 11
138.224998
 21
142.617858
 31
0.0
  0
LINE
  5
23F
100
AcDbEntity
  8
0
  6
Continuous
 62
     8
100
AcDbLine
 10
139.22491
 20
142.617858
 30
0.0
 11
144.439241
 21
142.617858
 31
0.0
  0
LINE
  5
240
100
AcDbEntity
  8
0
  6
Continuous
 62
     8
100
AcDbLine
 10
147.439191
 20
142.617858
 30
0.0
 11
152.439178
 21
142.617858
 31
0.0
  0
LINE
  5
241
100
AcDbEntity
  8
0
  6
Continuous
 62
     8
100
AcDbLine
 10
153.43909
 20
142.617858
 30
0.0
 11
154.439215
 21
142.617858
 31
0.0
  0
LINE
  5
242
100
AcDbEntity
  8
0
  6
Continuous
 62
     8
100
AcDbLine
 10
155.439128
 20
142.617858
 30
0.0
 11
160.439115
 21
142.617858
 31
0.0
  0
LINE
  5
243
100
AcDbEntity
  8
0
  6
Continuous
 62
     8
100
AcDbLine
 10
161.43924
 20
142.617858
 30
0.0
 11
162.439153
 21
142.617858
 31
0.0
  0
LINE
  5
244
100
AcDbEntity
  8
0
  6
Continuous
 62
     8
100
AcDbLine
 10
163.439065
 20
142.617858
 30
0.0
 11
168.439265
 21
142.617858
 31
0.0
  0
LINE
  5
245
100
AcDbEntity
  8
0
  6
Continuous
 62
     8
100
AcDbLine
 10
169.439178
 20
142.617858
 30
0.0
 11
170.43909
 21
142.617858
 31
0.0
  0
LINE
  5
246
100
AcDbEntity
  8
0
  6
Continuous
 62
     8
100
AcDbLine
 10
171.439215
 20
142.617858
 30
0.0
 11
176.439202
 21
142.617858
 31
0.0
  0
LINE
  5
247
100
AcDbEntity
  8
0
  6
Continuous
 62
     8
100
AcDbLine
 10
177.439115
 20
142.617858
 30
0.0
 11
178.43924
 21
142.617858
 31
0.0
  0
LINE
  5
248
100
AcDbEntity
  8
0
  6
Continuous
 62
     8
100
AcDbLine
 10
179.439152
 20
142.617858
 30
0.0
 11
184.43914
 21
142.617858
 31
0.0
  0
LINE
  5
249
100
AcDbEntity
  8
0
  6
Continuous
 62
     8
100
AcDbLine
 10
187.43909
 20
142.617858
 30
0.0
 11
192.739242
 21
142.617858
 31
0.0
  0
LINE
  5
24A
100
AcDbEntity
  8
0
  6
Continuous
 62
     8
100
AcDbLine
 10
193.739154
 20
142.617858
 30
0.0
 11
194.739067
 21
142.617858
 31
0.0
  0
LINE
  5
24B
100
AcDbEntity
  8
0
  6
Continuous
 62
     8
100
AcDbLine
 10
195.739192
 20
142.617858
 30
0.0
 11
201.039132
 21
142.617858
 31
0.0
  0
LINE
  5
24C
100
AcDbEntity
  8
0
  6
Continuous
 62
     8
100
AcDbLine
 10
202.039257
 20
142.617858
 30
0.0
 11
203.039169
 21
142.617858
 31
0.0
  0
LINE
  5
24D
100
AcDbEntity
  8
0
  6
Continuous
 62
     8
100
AcDbLine
 10
204.039082
 20
142.617858
 30
0.0
 11
209.339234
 21
142.617858
 31
0.0
  0
LINE
  5
24E
100
AcDbEntity
  8
0
  6
Continuous
 62
     8
100
AcDbLine
 10
210.339146
 20
142.617858
 30
0.0
 11
211.339059
 21
142.617858
 31
0.0
  0
LINE
  5
24F
100
AcDbEntity
  8
0
  6
Continuous
 62
     8
100
AcDbLine
 10
212.339184
 20
142.617858
 30
0.0
 11
217.639124
 21
142.617858
 31
0.0
  0
LINE
  5
250
100
AcDbEntity
  8
0
  6
Continuous
 62
     8
100
AcDbLine
 10
218.639036
 20
142.617858
 30
0.0
 11
219.639161
 21
142.617858
 31
0.0
  0
LINE
  5
251
100
AcDbEntity
  8
0
  6
Continuous
 62
     8
100
AcDbLine
 10
220.639074
 20
142.617858
 30
0.0
 11
225.939226
 21
142.617858
 31
0.0
  0
ENDBLK
  5
252
100
AcDbEntity
  8
0
100
AcDbBlockEnd
  0
BLOCK
  5
255
100
AcDbEntity
  8
0
100
AcDbBlockBegin
  2
*B46
 70
     0
 10
0.0
 20
0.0
 30
0.0
  3
*B46
  1

  0
LINE
  5
256
100
AcDbEntity
  8
0
  6
Continuous
 62
     8
100
AcDbLine
 10
185.939115
 20
97.012756
 30
0.0
 11
185.939115
 21
101.012406
 31
0.0
  0
LINE
  5
257
100
AcDbEntity
  8
0
  6
Continuous
 62
     8
100
AcDbLine
 10
185.939115
 20
101.012406
 30
0.0
 11
185.939115
 21
106.633754
 31
0.0
  0
LINE
  5
258
100
AcDbEntity
  8
0
  6
Continuous
 62
     8
100
AcDbLine
 10
185.939115
 20
107.633666
 30
0.0
 11
185.939115
 21
108.633579
 31
0.0
  0
LINE
  5
259
100
AcDbEntity
  8
0
  6
Continuous
 62
     8
100
AcDbLine
 10
185.939115
 20
109.633491
 30
0.0
 11
185.939115
 21
115.254839
 31
0.0
  0
LINE
  5
25A
100
AcDbEntity
  8
0
  6
Continuous
 62
     8
100
AcDbLine
 10
185.939115
 20
116.254751
 30
0.0
 11
185.939115
 21
117.254664
 31
0.0
  0
LINE
  5
25B
100
AcDbEntity
  8
0
  6
Continuous
 62
     8
100
AcDbLine
 10
185.939115
 20
118.254576
 30
0.0
 11
185.939115
 21
123.875712
 31
0.0
  0
LINE
  5
25C
100
AcDbEntity
  8
0
  6
Continuous
 62
     8
100
AcDbLine
 10
185.939115
 20
124.875837
 30
0.0
 11
185.939115
 21
125.875749
 31
0.0
  0
LINE
  5
25D
100
AcDbEntity
  8
0
  6
Continuous
 62
     8
100
AcDbLine
 10
185.939115
 20
126.875662
 30
0.0
 11
185.939115
 21
132.496797
 31
0.0
  0
LINE
  5
25E
100
AcDbEntity
  8
0
  6
Continuous
 62
     8
100
AcDbLine
 10
185.939115
 20
133.49671
 30
0.0
 11
185.939115
 21
134.496622
 31
0.0
  0
LINE
  5
25F
100
AcDbEntity
  8
0
  6
Continuous
 62
     8
100
AcDbLine
 10
185.939115
 20
135.496747
 30
0.0
 11
185.939115
 21
141.117883
 31
0.0
  0
LINE
  5
260
100
AcDbEntity
  8
0
  6
Continuous
 62
     8
100
AcDbLine
 10
185.939115
 20
144.11762
 30
0.0
 11
185.939115
 21
152.367164
 31
0.0
  0
LINE
  5
261
100
AcDbEntity
  8
0
  6
Continuous
 62
     8
100
AcDbLine
 10
185.939115
 20
153.367289
 30
0.0
 11
185.939115
 21
154.367201
 31
0.0
  0
LINE
  5
262
100
AcDbEntity
  8
0
  6
Continuous
 62
     8
100
AcDbLine
 10
185.939115
 20
155.367114
 30
0.0
 11
185.939115
 21
163.616657
 31
0.0
  0
LINE
  5
263
100
AcDbEntity
  8
0
  6
Continuous
 62
     8
100
AcDbLine
 10
185.939115
 20
166.616395
 30
0.0
 11
185.939115
 21
173.116145
 31
0.0
  0
ENDBLK
  5
264
100
AcDbEntity
  8
0
100
AcDbBlockEnd
  0
BLOCK
  5
267
100
AcDbEntity
  8
0
100
AcDbBlockBegin
  2
*B47
 70
     0
 10
0.0
 20
0.0
 30
0.0
  3
*B47
  1

  0
LINE
  5
268
100
AcDbEntity
  8
0
  6
Continuous
 62
     8
100
AcDbLine
 10
223.939188
 20
172.616082
 30
0.0
 11
248.51575
 21
172.616082
 31
0.0
  0
ENDBLK
  5
269
100
AcDbEntity
  8
0
100
AcDbBlockEnd
  0
BLOCK
  5
26C
100
AcDbEntity
  8
0
100
AcDbBlockBegin
  2
*B48
 70
     0
 10
0.0
 20
0.0
 30
0.0
  3
*B48
  1

  0
LINE
  5
26D
100
AcDbEntity
  8
0
  6
Continuous
 62
     6
100
AcDbLine
 10
185.939115
 20
142.117795
 30
0.0
 11
185.939115
 21
143.117708
 31
0.0
  0
LINE
  5
26E
100
AcDbEntity
  8
0
  6
Continuous
 62
     6
100
AcDbLine
 10
185.439052
 20
142.617858
 30
0.0
 11
186.439177
 21
142.617858
 31
0.0
  0
ENDBLK
  5
26F
100
AcDbEntity
  8
0
100
AcDbBlockEnd
  0
BLOCK
  5
272
100
AcDbEntity
  8
0
100
AcDbBlockBegin
  2
*B49
 70
     0
 10
0.0
 20
0.0
 30
0.0
  3
*B49
  1

  0
LINE
  5
273
100
AcDbEntity
  8
0
  6
Continuous
 62
     6
100
AcDbLine
 10
129.939129
 20
55.208893
 30
0.0
 11
129.939129
 21
56.208806
 31
0.0
  0
LINE
  5
274
100
AcDbEntity
  8
0
  6
Continuous
 62
     6
100
AcDbLine
 10
129.439279
 20
55.708743
 30
0.0
 11
130.439191
 21
55.708743
 31
0.0
  0
ENDBLK
  5
275
100
AcDbEntity
  8
0
100
AcDbBlockEnd
  0
BLOCK
  5
278
100
AcDbEntity
  8
0
100
AcDbBlockBegin
  2
*B50
 70
     0
 10
0.0
 20
0.0
 30
0.0
  3
*B50
  1

  0
LINE
  5
279
100
AcDbEntity
  8
0
  6
Continuous
 62
     6
100
AcDbLine
 10
201.939202
 20
55.208893
 30
0.0
 11
201.939202
 21
56.208806
 31
0.0
  0
LINE
  5
27A
100
AcDbEntity
  8
0
  6
Continuous
 62
     6
100
AcDbLine
 10
201.439139
 20
55.708743
 30
0.0
 11
202.439052
 21
55.708743
 31
0.0
  0
ENDBLK
  5
27B
100
AcDbEntity
  8
0
100
AcDbBlockEnd
  0
BLOCK
  5
27E
100
AcDbEntity
  8
0
100
AcDbBlockBegin
  2
*B51
 70
     0
 10
0.0
 20
0.0
 30
0.0
  3
*B51
  1

  0
LINE
  5
27F
100
AcDbEntity
  8
0
  6
Continuous
 62
     6
100
AcDbLine
 10
165.939165
 20
55.208893
 30
0.0
 11
165.939165
 21
56.208806
 31
0.0
  0
LINE
  5
280
100
AcDbEntity
  8
0
  6
Continuous
 62
     6
100
AcDbLine
 10
165.439103
 20
55.708743
 30
0.0
 11
166.439228
 21
55.708743
 31
0.0
  0
ENDBLK
  5
281
100
AcDbEntity
  8
0
100
AcDbBlockEnd
  0
BLOCK
  5
284
100
AcDbEntity
  8
0
100
AcDbBlockBegin
  2
*B52
 70
     0
 10
0.0
 20
0.0
 30
0.0
  3
*B52
  1

  0
LINE
  5
285
100
AcDbEntity
  8
0
  6
Continuous
 62
     6
100
AcDbLine
 10
185.439052
 20
165.11642
 30
0.0
 11
186.439177
 21
165.11642
 31
0.0
  0
LINE
  5
286
100
AcDbEntity
  8
0
  6
Continuous
 62
     6
100
AcDbLine
 10
185.939115
 20
164.61657
 30
0.0
 11
185.939115
 21
165.616482
 31
0.0
  0
ENDBLK
  5
287
100
AcDbEntity
  8
0
100
AcDbBlockEnd
  0
BLOCK
  5
28A
100
AcDbEntity
  8
0
100
AcDbBlockBegin
  2
*B53
 70
     0
 10
0.0
 20
0.0
 30
0.0
  3
*B53
  1

  0
LINE
  5
28B
100
AcDbEntity
  8
0
  6
Continuous
 62
     6
100
AcDbLine
 10
145.939216
 20
142.117795
 30
0.0
 11
145.939216
 21
143.117708
 31
0.0
  0
LINE
  5
28C
100
AcDbEntity
  8
0
  6
Continuous
 62
     6
100
AcDbLine
 10
145.439153
 20
142.617858
 30
0.0
 11
146.439278
 21
142.617858
 31
0.0
  0
ENDBLK
  5
28D
100
AcDbEntity
  8
0
100
AcDbBlockEnd
  0
BLOCK
  5
290
100
AcDbEntity
  8
0
100
AcDbBlockBegin
  2
*B54
 70
     0
 10
0.0
 20
0.0
 30
0.0
  3
*B54
  1

  0
LINE
  5
291
100
AcDbEntity
  8
0
  6
Continuous
 62
     6
100
AcDbLine
 10
165.439103
 20
120.119083
 30
0.0
 11
166.439228
 21
120.119083
 31
0.0
  0
LINE
  5
292
100
AcDbEntity
  8
0
  6
Continuous
 62
     6
100
AcDbLine
 10
165.939165
 20
119.61902
 30
0.0
 11
165.939165
 21
120.619145
 31
0.0
  0
ENDBLK
  5
293
100
AcDbEntity
  8
0
100
AcDbBlockEnd
  0
BLOCK
  5
296
100
AcDbEntity
  8
0
100
AcDbBlockBegin
  2
*B55
 70
     0
 10
0.0
 20
0.0
 30
0.0
  3
*B55
  1

  0
LINE
  5
297
100
AcDbEntity
  8
0
  6
Continuous
 62
     6
100
AcDbLine
 10
100.939117
 20
55.208893
 30
0.0
 11
100.939117
 21
56.208806
 31
0.0
  0
LINE
  5
298
100
AcDbEntity
  8
0
  6
Continuous
 62
     6
100
AcDbLine
 10
100.439267
 20
55.708743
 30
0.0
 11
101.439179
 21
55.708743
 31
0.0
  0
ENDBLK
  5
299
100
AcDbEntity
  8
0
100
AcDbBlockEnd
  0
BLOCK
  5
29C
100
AcDbEntity
  8
0
100
AcDbBlockBegin
  2
*B56
 70
     0
 10
0.0
 20
0.0
 30
0.0
  3
*B56
  1

  0
LINE
  5
29D
100
AcDbEntity
  8
0
  6
Continuous
 62
     6
100
AcDbLine
 10
145.439153
 20
120.119083
 30
0.0
 11
146.439278
 21
120.119083
 31
0.0
  0
LINE
  5
29E
100
AcDbEntity
  8
0
  6
Continuous
 62
     6
100
AcDbLine
 10
145.939216
 20
119.61902
 30
0.0
 11
145.939216
 21
120.619145
 31
0.0
  0
ENDBLK
  5
29F
100
AcDbEntity
  8
0
100
AcDbBlockEnd
  0
BLOCK
  5
2A2
100
AcDbEntity
  8
0
100
AcDbBlockBegin
  2
*B57
 70
     0
 10
0.0
 20
0.0
 30
0.0
  3
*B57
  1

  0
TEXT
  5
2A3
100
AcDbEntity
  8
TEXT
  6
Continuous
 62
     0
100
AcDbText
 10
196.2829
 20
56.9
 30
0.0
 40
6.0
  1
3
100
AcDbText
  0
ENDBLK
  5
2A4
100
AcDbEntity
  8
0
100
AcDbBlockEnd
  0
BLOCK
  5
2A7
100
AcDbEntity
  8
0
100
AcDbBlockBegin
  2
*B58
 70
     0
 10
0.0
 20
0.0
 30
0.0
  3
*B58
  1

  0
TEXT
  5
2A8
100
AcDbEntity
  8
TEXT
  6
Continuous
 62
     0
100
AcDbText
 10
124.2829
 20
56.9
 30
0.0
 40
6.0
  1
5
100
AcDbText
  0
ENDBLK
  5
2A9
100
AcDbEntity
  8
0
100
AcDbBlockEnd
  0
BLOCK
  5
2AC
100
AcDbEntity
  8
0
100
AcDbBlockBegin
  2
*B59
 70
     0
 10
0.0
 20
0.0
 30
0.0
  3
*B59
  1

  0
TEXT
  5
2AD
100
AcDbEntity
  8
TEXT
  6
Continuous
 62
     0
100
AcDbText
 10
183.8829
 20
140.0
 30
0.0
 40
6.0
  1
2
100
AcDbText
  0
ENDBLK
  5
2AE
100
AcDbEntity
  8
0
100
AcDbBlockEnd
  0
BLOCK
  5
2B1
100
AcDbEntity
  8
0
100
AcDbBlockBegin
  2
*B60
 70
     0
 10
0.0
 20
0.0
 30
0.0
  3
*B60
  1

  0
TEXT
  5
2B2
100
AcDbEntity
  8
TEXT
  6
Continuous
 62
     0
100
AcDbText
 10
160.2829
 20
56.9
 30
0.0
 40
6.0
  1
1
100
AcDbText
  0
ENDBLK
  5
2B3
100
AcDbEntity
  8
0
100
AcDbBlockEnd
  0
BLOCK
  5
2B6
100
AcDbEntity
  8
0
100
AcDbBlockBegin
  2
*B61
 70
     0
 10
0.0
 20
0.0
 30
0.0
  3
*B61
  1

  0
TEXT
  5
2B7
100
AcDbEntity
  8
TEXT
  6
Continuous
 62
     0
100
AcDbText
 10
143.3829
 20
140.0
 30
0.0
 40
6.0
  1
4
100
AcDbText
  0
ENDBLK
  5
2B8
100
AcDbEntity
  8
0
100
AcDbBlockEnd
  0
BLOCK
  5
2BB
100
AcDbEntity
  8
0
100
AcDbBlockBegin
  2
*B62
 70
     0
 10
0.0
 20
0.0
 30
0.0
  3
*B62
  1

  0
TEXT
  5
2BC
100
AcDbEntity
  8
TEXT
  6
Continuous
 62
     0
100
AcDbText
 10
112.165799
 20
140.4
 30
0.0
 40
6.0
  1
14
100
AcDbText
  0
ENDBLK
  5
2BD
100
AcDbEntity
  8
0
100
AcDbBlockEnd
  0
BLOCK
  5
2C0
100
AcDbEntity
  8
0
100
AcDbBlockBegin
  2
*B63
 70
     0
 10
0.0
 20
0.0
 30
0.0
  3
*B63
  1

  0
TEXT
  5
2C1
100
AcDbEntity
  8
TEXT
  6
Continuous
 62
     0
100
AcDbText
 10
211.165799
 20
140.4
 30
0.0
 40
6.0
  1
12
100
AcDbText
  0
ENDBLK
  5
2C2
100
AcDbEntity
  8
0
100
AcDbBlockEnd
  0
BLOCK
  5
2C5
100
AcDbEntity
  8
0
100
AcDbBlockBegin
  2
*B64
 70
     0
 10
0.0
 20
0.0
 30
0.0
  3
*B64
  1

  0
TEXT
  5
2C6
100
AcDbEntity
  8
TEXT
  6
Continuous
 62
     0
100
AcDbText
 10
244.997608
 20
140.313015
 30
0.0
 40
3.0
  1
60
 50
90.0
100
AcDbText
  0
ENDBLK
  5
2C7
100
AcDbEntity
  8
0
100
AcDbBlockEnd
  0
BLOCK
  5
2CA
100
AcDbEntity
  8
0
100
AcDbBlockBegin
  2
*B65
 70
     0
 10
0.0
 20
0.0
 30
0.0
  3
*B65
  1

  0
TEXT
  5
2CB
100
AcDbEntity
  8
TEXT
  6
Continuous
 62
     0
100
AcDbText
 10
233.997608
 20
140.313015
 30
0.0
 40
3.0
  1
45
 50
90.0
100
AcDbText
  0
ENDBLK
  5
2CC
100
AcDbEntity
  8
0
100
AcDbBlockEnd
  0
BLOCK
  5
2CF
100
AcDbEntity
  8
0
100
AcDbBlockBegin
  2
*B66
 70
     0
 10
0.0
 20
0.0
 30
0.0
  3
*B66
  1

  0
TEXT
  5
2D0
100
AcDbEntity
  8
TEXT
  6
Continuous
 62
     0
100
AcDbText
 10
163.62641
 20
100.5
 30
0.0
 40
3.0
  1
40
100
AcDbText
  0
ENDBLK
  5
2D1
100
AcDbEntity
  8
0
100
AcDbBlockEnd
  0
BLOCK
  5
2D4
100
AcDbEntity
  8
0
100
AcDbBlockBegin
  2
*B67
 70
     0
 10
0.0
 20
0.0
 30
0.0
  3
*B67
  1

  0
TEXT
  5
2D5
100
AcDbEntity
  8
TEXT
  6
Continuous
 62
     0
100
AcDbText
 10
202.12641
 20
100.5
 30
0.0
 40
3.0
  1
37
100
AcDbText
  0
ENDBLK
  5
2D6
100
AcDbEntity
  8
0
100
AcDbBlockEnd
  0
BLOCK
  5
2D9
100
AcDbEntity
  8
0
100
AcDbBlockBegin
  2
*B68
 70
     0
 10
0.0
 20
0.0
 30
0.0
  3
*B68
  1

  0
TEXT
  5
2DA
100
AcDbEntity
  8
TEXT
  6
Continuous
 62
     0
100
AcDbText
 10
181.62641
 20
86.5
 30
0.0
 40
3.0
  1
36
100
AcDbText
  0
ENDBLK
  5
2DB
100
AcDbEntity
  8
0
100
AcDbBlockEnd
  0
BLOCK
  5
2DE
100
AcDbEntity
  8
0
100
AcDbBlockBegin
  2
*B69
 70
     0
 10
0.0
 20
0.0
 30
0.0
  3
*B69
  1

  0
TEXT
  5
2DF
100
AcDbEntity
  8
TEXT
  6
Continuous
 62
     0
100
AcDbText
 10
145.62641
 20
86.5
 30
0.0
 40
3.0
  1
36
100
AcDbText
  0
ENDBLK
  5
2E0
100
AcDbEntity
  8
0
100
AcDbBlockEnd
  0
BLOCK
  5
2E3
100
AcDbEntity
  8
0
100
AcDbBlockBegin
  2
*B70
 70
     0
 10
0.0
 20
0.0
 30
0.0
  3
*B70
  1

  0
TEXT
  5
2E4
100
AcDbEntity
  8
TEXT
  6
Continuous
 62
     0
100
AcDbText
 10
244.997608
 20
53.399134
 30
0.0
 40
3.0
  1
30
 50
90.0
100
AcDbText
  0
ENDBLK
  5
2E5
100
AcDbEntity
  8
0
100
AcDbBlockEnd
  0
BLOCK
  5
2E8
100
AcDbEntity
  8
0
100
AcDbBlockBegin
  2
*B71
 70
     0
 10
0.0
 20
0.0
 30
0.0
  3
*B71
  1

  0
TEXT
  5
2E9
100
AcDbEntity
  8
TEXT
  6
Continuous
 62
     0
100
AcDbText
 10
233.997608
 20
35.827705
 30
0.0
 40
3.0
  1
8
 50
90.0
100
AcDbText
  0
ENDBLK
  5
2EA
100
AcDbEntity
  8
0
100
AcDbBlockEnd
  0
BLOCK
  5
2ED
100
AcDbEntity
  8
0
100
AcDbBlockBegin
  2
*B72
 70
     0
 10
0.0
 20
0.0
 30
0.0
  3
*B72
  1

  0
TEXT
  5
2EE
100
AcDbEntity
  8
TEXT
  6
Continuous
 62
     0
100
AcDbText
 10
194.354751
 20
21.777512
 30
0.0
 40
3.0
  1
M6
100
AcDbText
  0
ENDBLK
  5
2EF
100
AcDbEntity
  8
0
100
AcDbBlockEnd
  0
BLOCK
  5
2F2
100
AcDbEntity
  8
0
100
AcDbBlockBegin
  2
*B73
 70
     0
 10
0.0
 20
0.0
 30
0.0
  3
*B73
  1

  0
TEXT
  5
2F3
100
AcDbEntity
  8
TEXT
  6
Continuous
 62
     0
100
AcDbText
 10
159.426179
 20
185.5
 30
0.0
 40
3.0
  1
G1/2"
100
AcDbText
  0
ENDBLK
  5
2F4
100
AcDbEntity
  8
0
100
AcDbBlockEnd
  0
BLOCK
  5
2F7
100
AcDbEntity
  8
0
100
AcDbBlockBegin
  2
*B74
 70
     0
 10
0.0
 20
0.0
 30
0.0
  3
*B74
  1

  0
TEXT
  5
2F8
100
AcDbEntity
  8
TEXT
  6
Continuous
 62
     0
100
AcDbText
 10
110.928571
 20
186.5
 30
0.0
 40
3.0
  1
G1/8"
100
AcDbText
  0
ENDBLK
  5
2F9
100
AcDbEntity
  8
0
100
AcDbBlockEnd
  0
BLOCK
  5
2FC
100
AcDbEntity
  8
0
100
AcDbBlockBegin
  2
*B75
 70
     0
 10
0.0
 20
0.0
 30
0.0
  3
*B75
  1

  0
TEXT
  5
2FD
100
AcDbEntity
  8
TEXT
  6
Continuous
 62
     0
100
AcDbText
 10
154.197838
 20
197.5
 30
0.0
 40
3.0
  1
130
100
AcDbText
  0
ENDBLK
  5
2FE
100
AcDbEntity
  8
0
100
AcDbBlockEnd
  0
BLOCK
  5
301
100
AcDbEntity
  8
0
100
AcDbBlockBegin
  2
*B76
 70
     0
 10
0.0
 20
0.0
 30
0.0
  3
*B76
  1

  0
TEXT
  5
302
100
AcDbEntity
  8
TEXT
  6
Continuous
 62
     0
100
AcDbText
 10
113.12641
 20
86.5
 30
0.0
 40
3.0
  1
29
100
AcDbText
  0
ENDBLK
  5
303
100
AcDbEntity
  8
0
100
AcDbBlockEnd
  0
BLOCK
  5
306
100
AcDbEntity
  8
0
100
AcDbBlockBegin
  2
*B77
 70
     0
 10
0.0
 20
0.0
 30
0.0
  3
*B77
  1

  0
TEXT
  5
307
100
AcDbEntity
  8
TEXT
  6
Continuous
 62
     0
100
AcDbText
 10
210.12641
 20
86.5
 30
0.0
 40
3.0
  1
21
100
AcDbText
  0
ENDBLK
  5
308
100
AcDbEntity
  8
0
100
AcDbBlockEnd
  0
ENDSEC
  0
SECTION
  2
ENTITIES
  0
INSERT
  5
30
100
AcDbEntity
  8
0
  6
Continuous
 62
   172
100
AcDbBlockReference
  2
*B0
 10
0.0
 20
0.0
 30
0.0
  0
INSERT
  5
38
100
AcDbEntity
  8
0
  6
HIDDEN
 62
   162
100
AcDbBlockReference
  2
*B1
 10
0.0
 20
0.0
 30
0.0
  0
INSERT
  5
8D
100
AcDbEntity
  8
0
  6
Continuous
 62
   174
100
AcDbBlockReference
  2
*B2
 10
0.0
 20
0.0
 30
0.0
  0
INSERT
  5
C3
100
AcDbEntity
  8
0
  6
Continuous
 62
   174
100
AcDbBlockReference
  2
*B3
 10
0.0
 20
0.0
 30
0.0
  0
INSERT
  5
CA
100
AcDbEntity
  8
0
  6
Continuous
 62
     0
100
AcDbBlockReference
  2
*B4
 10
0.0
 20
0.0
 30
0.0
  0
INSERT
  5
D1
100
AcDbEntity
  8
0
  6
Continuous
 62
     0
100
AcDbBlockReference
  2
*B5
 10
0.0
 20
0.0
 30
0.0
  0
INSERT
  5
D8
100
AcDbEntity
  8
0
  6
Continuous
 62
     0
100
AcDbBlockReference
  2
*B6
 10
0.0
 20
0.0
 30
0.0
  0
INSERT
  5
DF
100
AcDbEntity
  8
0
  6
Continuous
 62
     0
100
AcDbBlockReference
  2
*B7
 10
0.0
 20
0.0
 30
0.0
  0
INSERT
  5
E6
100
AcDbEntity
  8
0
  6
Continuous
 62
     0
100
AcDbBlockReference
  2
*B8
 10
0.0
 20
0.0
 30
0.0
  0
INSERT
  5
ED
100
AcDbEntity
  8
0
  6
Continuous
 62
     0
100
AcDbBlockReference
  2
*B9
 10
0.0
 20
0.0
 30
0.0
  0
INSERT
  5
F4
100
AcDbEntity
  8
0
  6
Continuous
 62
     0
100
AcDbBlockReference
  2
*B10
 10
0.0
 20
0.0
 30
0.0
  0
INSERT
  5
FB
100
AcDbEntity
  8
0
  6
Continuous
 62
     0
100
AcDbBlockReference
  2
*B11
 10
0.0
 20
0.0
 30
0.0
  0
INSERT
  5
102
100
AcDbEntity
  8
0
  6
Continuous
 62
     0
100
AcDbBlockReference
  2
*B12
 10
0.0
 20
0.0
 30
0.0
  0
INSERT
  5
109
100
AcDbEntity
  8
0
  6
Continuous
 62
     0
100
AcDbBlockReference
  2
*B13
 10
0.0
 20
0.0
 30
0.0
  0
INSERT
  5
110
100
AcDbEntity
  8
0
  6
Continuous
 62
     0
100
AcDbBlockReference
  2
*B14
 10
0.0
 20
0.0
 30
0.0
  0
INSERT
  5
117
100
AcDbEntity
  8
0
  6
Continuous
 62
     0
100
AcDbBlockReference
  2
*B15
 10
0.0
 20
0.0
 30
0.0
  0
INSERT
  5
11E
100
AcDbEntity
  8
0
  6
Continuous
 62
     0
100
AcDbBlockReference
  2
*B16
 10
0.0
 20
0.0
 30
0.0
  0
INSERT
  5
125
100
AcDbEntity
  8
0
  6
Continuous
 62
     0
100
AcDbBlockReference
  2
*B17
 10
0.0
 20
0.0
 30
0.0
  0
INSERT
  5
12A
100
AcDbEntity
  8
0
  6
Continuous
 62
     8
100
AcDbBlockReference
  2
*B18
 10
0.0
 20
0.0
 30
0.0
  0
INSERT
  5
12F
100
AcDbEntity
  8
0
  6
Continuous
 62
     8
100
AcDbBlockReference
  2
*B19
 10
0.0
 20
0.0
 30
0.0
  0
INSERT
  5
134
100
AcDbEntity
  8
0
  6
Continuous
 62
     8
100
AcDbBlockReference
  2
*B20
 10
0.0
 20
0.0
 30
0.0
  0
INSERT
  5
13A
100
AcDbEntity
  8
0
  6
Continuous
 62
     8
100
AcDbBlockReference
  2
*B21
 10
0.0
 20
0.0
 30
0.0
  0
INSERT
  5
152
100
AcDbEntity
  8
0
  6
Continuous
 62
     8
100
AcDbBlockReference
  2
*B22
 10
0.0
 20
0.0
 30
0.0
  0
INSERT
  5
159
100
AcDbEntity
  8
0
  6
Continuous
 62
     8
100
AcDbBlockReference
  2
*B23
 10
0.0
 20
0.0
 30
0.0
  0
INSERT
  5
164
100
AcDbEntity
  8
0
  6
Continuous
 62
     8
100
AcDbBlockReference
  2
*B24
 10
0.0
 20
0.0
 30
0.0
  0
INSERT
  5
16F
100
AcDbEntity
  8
0
  6
Continuous
 62
     8
100
AcDbBlockReference
  2
*B25
 10
0.0
 20
0.0
 30
0.0
  0
INSERT
  5
178
100
AcDbEntity
  8
0
  6
Continuous
 62
     8
100
AcDbBlockReference
  2
*B26
 10
0.0
 20
0.0
 30
0.0
  0
INSERT
  5
183
100
AcDbEntity
  8
0
  6
Continuous
 62
     8
100
AcDbBlockReference
  2
*B27
 10
0.0
 20
0.0
 30
0.0
  0
INSERT
  5
18C
100
AcDbEntity
  8
0
  6
Continuous
 62
     8
100
AcDbBlockReference
  2
*B28
 10
0.0
 20
0.0
 30
0.0
  0
INSERT
  5
1A9
100
AcDbEntity
  8
0
  6
Continuous
 62
     8
100
AcDbBlockReference
  2
*B29
 10
0.0
 20
0.0
 30
0.0
  0
INSERT
  5
1AE
100
AcDbEntity
  8
0
  6
Continuous
 62
     8
100
AcDbBlockReference
  2
*B30
 10
0.0
 20
0.0
 30
0.0
  0
INSERT
  5
1C0
100
AcDbEntity
  8
0
  6
Continuous
 62
     8
100
AcDbBlockReference
  2
*B31
 10
0.0
 20
0.0
 30
0.0
  0
INSERT
  5
1CF
100
AcDbEntity
  8
0
  6
Continuous
 62
     8
100
AcDbBlockReference
  2
*B32
 10
0.0
 20
0.0
 30
0.0
  0
INSERT
  5
1D4
100
AcDbEntity
  8
0
  6
Continuous
 62
     8
100
AcDbBlockReference
  2
*B33
 10
0.0
 20
0.0
 30
0.0
  0
INSERT
  5
1D9
100
AcDbEntity
  8
0
  6
Continuous
 62
     8
100
AcDbBlockReference
  2
*B34
 10
0.0
 20
0.0
 30
0.0
  0
INSERT
  5
1E4
100
AcDbEntity
  8
0
  6
Continuous
 62
     8
100
AcDbBlockReference
  2
*B35
 10
0.0
 20
0.0
 30
0.0
  0
INSERT
  5
1F2
100
AcDbEntity
  8
0
  6
Continuous
 62
     8
100
AcDbBlockReference
  2
*B36
 10
0.0
 20
0.0
 30
0.0
  0
INSERT
  5
1F7
100
AcDbEntity
  8
0
  6
Continuous
 62
     8
100
AcDbBlockReference
  2
*B37
 10
0.0
 20
0.0
 30
0.0
  0
INSERT
  5
1FC
100
AcDbEntity
  8
0
  6
Continuous
 62
     8
100
AcDbBlockReference
  2
*B38
 10
0.0
 20
0.0
 30
0.0
  0
INSERT
  5
20B
100
AcDbEntity
  8
0
  6
Continuous
 62
     8
100
AcDbBlockReference
  2
*B39
 10
0.0
 20
0.0
 30
0.0
  0
INSERT
  5
210
100
AcDbEntity
  8
0
  6
Continuous
 62
     8
100
AcDbBlockReference
  2
*B40
 10
0.0
 20
0.0
 30
0.0
  0
INSERT
  5
215
100
AcDbEntity
  8
0
  6
Continuous
 62
     8
100
AcDbBlockReference
  2
*B41
 10
0.0
 20
0.0
 30
0.0
  0
INSERT
  5
21A
100
AcDbEntity
  8
0
  6
Continuous
 62
     8
100
AcDbBlockReference
  2
*B42
 10
0.0
 20
0.0
 30
0.0
  0
INSERT
  5
22B
100
AcDbEntity
  8
0
  6
Continuous
 62
     8
100
AcDbBlockReference
  2
*B43
 10
0.0
 20
0.0
 30
0.0
  0
INSERT
  5
230
100
AcDbEntity
  8
0
  6
Continuous
 62
     8
100
AcDbBlockReference
  2
*B44
 10
0.0
 20
0.0
 30
0.0
  0
INSERT
  5
253
100
AcDbEntity
  8
0
  6
Continuous
 62
     8
100
AcDbBlockReference
  2
*B45
 10
0.0
 20
0.0
 30
0.0
  0
INSERT
  5
265
100
AcDbEntity
  8
0
  6
Continuous
 62
     8
100
AcDbBlockReference
  2
*B46
 10
0.0
 20
0.0
 30
0.0
  0
INSERT
  5
26A
100
AcDbEntity
  8
0
  6
Continuous
 62
     8
100
AcDbBlockReference
  2
*B47
 10
0.0
 20
0.0
 30
0.0
  0
INSERT
  5
270
100
AcDbEntity
  8
0
  6
Continuous
 62
     6
100
AcDbBlockReference
  2
*B48
 10
0.0
 20
0.0
 30
0.0
  0
INSERT
  5
276
100
AcDbEntity
  8
0
  6
Continuous
 62
     6
100
AcDbBlockReference
  2
*B49
 10
0.0
 20
0.0
 30
0.0
  0
INSERT
  5
27C
100
AcDbEntity
  8
0
  6
Continuous
 62
     6
100
AcDbBlockReference
  2
*B50
 10
0.0
 20
0.0
 30
0.0
  0
INSERT
  5
282
100
AcDbEntity
  8
0
  6
Continuous
 62
     6
100
AcDbBlockReference
  2
*B51
 10
0.0
 20
0.0
 30
0.0
  0
INSERT
  5
288
100
AcDbEntity
  8
0
  6
Continuous
 62
     6
100
AcDbBlockReference
  2
*B52
 10
0.0
 20
0.0
 30
0.0
  0
INSERT
  5
28E
100
AcDbEntity
  8
0
  6
Continuous
 62
     6
100
AcDbBlockReference
  2
*B53
 10
0.0
 20
0.0
 30
0.0
  0
INSERT
  5
294
100
AcDbEntity
  8
0
  6
Continuous
 62
     6
100
AcDbBlockReference
  2
*B54
 10
0.0
 20
0.0
 30
0.0
  0
INSERT
  5
29A
100
AcDbEntity
  8
0
  6
Continuous
 62
     6
100
AcDbBlockReference
  2
*B55
 10
0.0
 20
0.0
 30
0.0
  0
INSERT
  5
2A0
100
AcDbEntity
  8
0
  6
Continuous
 62
     6
100
AcDbBlockReference
  2
*B56
 10
0.0
 20
0.0
 30
0.0
  0
INSERT
  5
2A5
100
AcDbEntity
  8
TEXT
  6
Continuous
 62
     0
100
AcDbBlockReference
  2
*B57
 10
0.0
 20
0.0
 30
0.0
  0
INSERT
  5
2AA
100
AcDbEntity
  8
TEXT
  6
Continuous
 62
     0
100
AcDbBlockReference
  2
*B58
 10
0.0
 20
0.0
 30
0.0
  0
INSERT
  5
2AF
100
AcDbEntity
  8
TEXT
  6
Continuous
 62
     0
100
AcDbBlockReference
  2
*B59
 10
0.0
 20
0.0
 30
0.0
  0
INSERT
  5
2B4
100
AcDbEntity
  8
TEXT
  6
Continuous
 62
     0
100
AcDbBlockReference
  2
*B60
 10
0.0
 20
0.0
 30
0.0
  0
INSERT
  5
2B9
100
AcDbEntity
  8
TEXT
  6
Continuous
 62
     0
100
AcDbBlockReference
  2
*B61
 10
0.0
 20
0.0
 30
0.0
  0
INSERT
  5
2BE
100
AcDbEntity
  8
TEXT
  6
Continuous
 62
     0
100
AcDbBlockReference
  2
*B62
 10
0.0
 20
0.0
 30
0.0
  0
INSERT
  5
2C3
100
AcDbEntity
  8
TEXT
  6
Continuous
 62
     0
100
AcDbBlockReference
  2
*B63
 10
0.0
 20
0.0
 30
0.0
  0
INSERT
  5
2C8
100
AcDbEntity
  8
TEXT
  6
Continuous
 62
     0
100
AcDbBlockReference
  2
*B64
 10
0.0
 20
0.0
 30
0.0
  0
INSERT
  5
2CD
100
AcDbEntity
  8
TEXT
  6
Continuous
 62
     0
100
AcDbBlockReference
  2
*B65
 10
0.0
 20
0.0
 30
0.0
  0
INSERT
  5
2D2
100
AcDbEntity
  8
TEXT
  6
Continuous
 62
     0
100
AcDbBlockReference
  2
*B66
 10
0.0
 20
0.0
 30
0.0
  0
INSERT
  5
2D7
100
AcDbEntity
  8
TEXT
  6
Continuous
 62
     0
100
AcDbBlockReference
  2
*B67
 10
0.0
 20
0.0
 30
0.0
  0
INSERT
  5
2DC
100
AcDbEntity
  8
TEXT
  6
Continuous
 62
     0
100
AcDbBlockReference
  2
*B68
 10
0.0
 20
0.0
 30
0.0
  0
INSERT
  5
2E1
100
AcDbEntity
  8
TEXT
  6
Continuous
 62
     0
100
AcDbBlockReference
  2
*B69
 10
0.0
 20
0.0
 30
0.0
  0
INSERT
  5
2E6
100
AcDbEntity
  8
TEXT
  6
Continuous
 62
     0
100
AcDbBlockReference
  2
*B70
 10
0.0
 20
0.0
 30
0.0
  0
INSERT
  5
2EB
100
AcDbEntity
  8
TEXT
  6
Continuous
 62
     0
100
AcDbBlockReference
  2
*B71
 10
0.0
 20
0.0
 30
0.0
  0
INSERT
  5
2F0
100
AcDbEntity
  8
TEXT
  6
Continuous
 62
     0
100
AcDbBlockReference
  2
*B72
 10
0.0
 20
0.0
 30
0.0
  0
INSERT
  5
2F5
100
AcDbEntity
  8
TEXT
  6
Continuous
 62
     0
100
AcDbBlockReference
  2
*B73
 10
0.0
 20
0.0
 30
0.0
  0
INSERT
  5
2FA
100
AcDbEntity
  8
TEXT
  6
Continuous
 62
     0
100
AcDbBlockReference
  2
*B74
 10
0.0
 20
0.0
 30
0.0
  0
INSERT
  5
2FF
100
AcDbEntity
  8
TEXT
  6
Continuous
 62
     0
100
AcDbBlockReference
  2
*B75
 10
0.0
 20
0.0
 30
0.0
  0
INSERT
  5
304
100
AcDbEntity
  8
TEXT
  6
Continuous
 62
     0
100
AcDbBlockReference
  2
*B76
 10
0.0
 20
0.0
 30
0.0
  0
INSERT
  5
309
100
AcDbEntity
  8
TEXT
  6
Continuous
 62
     0
100
AcDbBlockReference
  2
*B77
 10
0.0
 20
0.0
 30
0.0
  0
ENDSEC
  0
SECTION
  2
OBJECTS
  0
DICTIONARY
  5
19
100
AcDbDictionary
280
     0
281
     1
  3
ACAD_GROUP
350
1A
  3
ACAD_MLINESTYLE
350
1B
  3
ACAD_LAYOUT
350
1E
  3
ACAD_PLOTSETTINGS
350
22
  3
ACAD_PLOTSTYLENAME
350
1F
  3
ACAD_WIPEOUT_VARS
350
23
  0
DICTIONARY
  5
1A
102
{ACAD_REACTORS
330
19
102
}
100
AcDbDictionary
280
     0
281
     1
  0
DICTIONARY
  5
1B
102
{ACAD_REACTORS
330
19
102
}
100
AcDbDictionary
280
     0
281
     1
  3
Standard
350
1C
  0
MLINESTYLE
  5
1C
102
{ACAD_REACTORS
330
1B
102
}
100
AcDbMlineStyle
  2
Standard
 70
     0
  3

 62
     0
 51
90.0
 52
90.0
 71
     2
 49
0.5
 62
   256
  6
BYLAYER
 49
-0.5
 62
   256
  6
BYLAYER
  0
ACDBDICTIONARYWDFLT
  5
1F
102
{ACAD_REACTORS
330
19
102
}
100
AcDbDictionary
281
     1
  3
Normal
350
1D
100
AcDbDictionaryWithDefault
340
1D
  0
ACDBPLACEHOLDER
  5
1D
102
{ACAD_REACTORS
330
1F
102
}
  0
LAYOUT
  5
20
102
{ACAD_REACTORS
330
1E
102
}
100
AcDbPlotSettings
  1

  2

  4

  6

 40
0.0
 41
0.0
 42
0.0
 43
0.0
 44
0.0
 45
0.0
 46
0.0
 47
0.0
 48
0.0
 49
0.0
140
0.0
141
0.0
142
1.0
143
1.0
 70
     0
 72
     0
 73
     0
 74
     0
  7

 75
     0
147
1.0
148
0.0
149
0.0
100
AcDbLayout
  1
Model
 70
     0
 71
     0
 10
0.0
 20
0.0
 11
0.0
 21
0.0
 12
0.0
 22
0.0
 32
0.0
 14
0.0
 24
0.0
 34
0.0
 15
0.0
 25
0.0
 35
0.0
146
0.0
 13
0.0
 23
0.0
 33
0.0
 16
0.0
 26
0.0
 36
0.0
 17
0.0
 27
0.0
 37
0.0
 76
     0
330
A
331
0
345
0
346
0
  0
LAYOUT
  5
21
102
{ACAD_REACTORS
330
1E
102
}
100
AcDbPlotSettings
  1

  2

  4

  6

 40
0.0
 41
0.0
 42
0.0
 43
0.0
 44
0.0
 45
0.0
 46
0.0
 47
0.0
 48
0.0
 49
0.0
140
0.0
141
0.0
142
1.0
143
1.0
 70
     0
 72
     0
 73
     0
 74
     0
  7

 75
     0
147
1.0
148
0.0
149
0.0
100
AcDbLayout
  1
Layout1
 70
     0
 71
     0
 10
0.0
 20
0.0
 11
0.0
 21
0.0
 12
0.0
 22
0.0
 32
0.0
 14
0.0
 24
0.0
 34
0.0
 15
0.0
 25
0.0
 35
0.0
146
0.0
 13
0.0
 23
0.0
 33
0.0
 16
0.0
 26
0.0
 36
0.0
 17
0.0
 27
0.0
 37
0.0
 76
     0
330
B
331
0
345
0
346
0
  0
DICTIONARY
  5
1E
102
{ACAD_REACTORS
330
19
102
}
100
AcDbDictionary
280
     0
281
     1
  3
Layout1
350
21
  3
Model
350
20
  0
DICTIONARY
  5
22
102
{ACAD_REACTORS
330
19
102
}
100
AcDbDictionary
280
     0
281
     1
  0
WIPEOUTVARIABLES
  5
23
100
AcDbWipeoutVariables
 70
     1
  0
ENDSEC
  0
EOF
