  0
SECTION
  2
HEADER
  9
$ACADVER
  1
AC1015
  9
$ACADMAINTVER
 70
     6
  9
$DWGCODEPAGE
  3
DOS850
  9
$INSBASE
 10
0.0
 20
0.0
 30
0.0
  9
$EXTMIN
 10
0.0
 20
0.0
 30
0.0
  9
$EXTMAX
 10
841.0
 20
595.0
 30
0.0
  9
$LIMMIN
 10
0.0
 20
0.0
  9
$LIMMAX
 10
841.0
 20
595.0
  9
$ORTHOMODE
 70
     0
  9
$REGENMODE
 70
     1
  9
$FILLMODE
 70
     1
  9
$QTEXTMODE
 70
     0
  9
$MIRRTEXT
 70
     1
  9
$LTSCALE
 40
25.4
  9
$ATTMODE
 70
     1
  9
$TEXTSIZE
 40
3.5
  9
$TRACEWID
 40
0.05
  9
$TEXTSTYLE
  7
Standard
  9
$CLAYER
  8
0
  9
$CELTYPE
  6
Continuous
  9
$CECOLOR
 62
   256
  9
$CELTSCALE
 40
1.0
  9
$DISPSILH
 70
     0
  9
$DIMSCALE
 40
1.0
  9
$DIMASZ
 40
5.0
  9
$DIMEXO
 40
3.0
  9
$DIMDLI
 40
0.38
  9
$DIMRND
 40
0.0
  9
$DIMDLE
 40
0.0
  9
$DIMEXE
 40
2.0
  9
$DIMTP
 40
0.0
  9
$DIMTM
 40
0.0
  9
$DIMTXT
 40
3.5
  9
$DIMCEN
 40
4.0
  9
$DIMTSZ
 40
0.0
  9
$DIMTOL
 70
     0
  9
$DIMLIM
 70
     0
  9
$DIMTIH
 70
     1
  9
$DIMTOH
 70
     1
  9
$DIMSE1
 70
     0
  9
$DIMSE2
 70
     0
  9
$DIMTAD
 70
     0
  9
$DIMZIN
 70
     0
  9
$DIMBLK
  1

  9
$DIMASO
 70
     1
  9
$DIMSHO
 70
     1
  9
$DIMPOST
  1

  9
$DIMAPOST
  1

  9
$DIMALT
 70
     0
  9
$DIMALTD
 70
     2
  9
$DIMALTF
 40
25.4
  9
$DIMLFAC
 40
1.0
  9
$DIMTOFL
 70
     0
  9
$DIMTVP
 40
0.0
  9
$DIMTIX
 70
     0
  9
$DIMSOXD
 70
     0
  9
$DIMSAH
 70
     0
  9
$DIMBLK1
  1

  9
$DIMBLK2
  1

  9
$DIMSTYLE
  2
Standard
  9
$DIMCLRD
 70
     0
  9
$DIMCLRE
 70
     0
  9
$DIMCLRT
 70
     0
  9
$DIMTFAC
 40
1.0
  9
$DIMGAP
 40
1.0
  9
$DIMJUST
 70
     0
  9
$DIMSD1
 70
     0
  9
$DIMSD2
 70
     0
  9
$DIMTOLJ
 70
     1
  9
$DIMTZIN
 70
     0
  9
$DIMALTZ
 70
     0
  9
$DIMALTTZ
 70
     0
  9
$DIMUPT
 70
     0
  9
$DIMDEC
 70
     4
  9
$DIMTDEC
 70
     4
  9
$DIMALTU
 70
     2
  9
$DIMALTTD
 70
     2
  9
$DIMTXSTY
  7
Standard
  9
$DIMAUNIT
 70
     0
  9
$DIMADEC
 70
     0
  9
$DIMALTRND
 40
0.0
  9
$DIMAZIN
 70
     0
  9
$DIMDSEP
 70
     0
  9
$DIMATFIT
 70
     3
  9
$DIMFRAC
 70
     0
  9
$DIMLDRBLK
  1

  9
$DIMLUNIT
 70
     2
  9
$DIMLWD
 70
     0
  9
$DIMLWE
 70
     0
  9
$DIMTMOVE
 70
     0
  9
$LUNITS
 70
     2
  9
$LUPREC
 70
     4
  9
$SKETCHINC
 40
0.1
  9
$FILLETRAD
 40
0.0
  9
$AUNITS
 70
     0
  9
$AUPREC
 70
     0
  9
$MENU
  1
acad
  9
$ELEVATION
 40
0.0
  9
$PELEVATION
 40
0.0
  9
$THICKNESS
 40
0.0
  9
$LIMCHECK
 70
     0
  9
$CHAMFERA
 40
0.0
  9
$CHAMFERB
 40
0.0
  9
$CHAMFERC
 40
0.0
  9
$CHAMFERD
 40
0.0
  9
$SKPOLY
 70
     0
  9
$TDCREATE
 40
0.000000000
  9
$TDUCREATE
 40
0.000000000
  9
$TDUPDATE
 40
0.000000000
  9
$TDUUPDATE
 40
0.000000000
  9
$TDINDWG
 40
0.0000000000
  9
$TDUSRTIMER
 40
0.0000000000
  9
$USRTIMER
 70
     1
  9
$ANGBASE
 50
0.0
  9
$ANGDIR
 70
     0
  9
$PDMODE
 70
     0
  9
$PDSIZE
 40
0.0
  9
$PLINEWID
 40
0.0
  9
$SPLFRAME
 70
     0
  9
$SPLINETYPE
 70
     6
  9
$SPLINESEGS
 70
     8
  9
$HANDSEED
  5
663
  9
$SURFTAB1
 70
     6
  9
$SURFTAB2
 70
     6
  9
$SURFTYPE
 70
     6
  9
$SURFU
 70
     6
  9
$SURFV
 70
     6
  9
$UCSBASE
  2

  9
$UCSNAME
  2

  9
$UCSORG
 10
0.0
 20
0.0
 30
0.0
  9
$UCSXDIR
 10
1.0
 20
0.0
 30
0.0
  9
$UCSYDIR
 10
0.0
 20
1.0
 30
0.0
  9
$UCSORTHOREF
  2

  9
$UCSORTHOVIEW
 70
     0
  9
$UCSORGTOP
 10
0.0
 20
0.0
 30
0.0
  9
$UCSORGBOTTOM
 10
0.0
 20
0.0
 30
0.0
  9
$UCSORGLEFT
 10
0.0
 20
0.0
 30
0.0
  9
$UCSORGRIGHT
 10
0.0
 20
0.0
 30
0.0
  9
$UCSORGFRONT
 10
0.0
 20
0.0
 30
0.0
  9
$UCSORGBACK
 10
0.0
 20
0.0
 30
0.0
  9
$PUCSBASE
  2

  9
$PUCSNAME
  2

  9
$PUCSORG
 10
0.0
 20
0.0
 30
0.0
  9
$PUCSXDIR
 10
1.0
 20
0.0
 30
0.0
  9
$PUCSYDIR
 10
0.0
 20
1.0
 30
0.0
  9
$PUCSORTHOREF
  2

  9
$PUCSORTHOVIEW
 70
     0
  9
$PUCSORGTOP
 10
0.0
 20
0.0
 30
0.0
  9
$PUCSORGBOTTOM
 10
0.0
 20
0.0
 30
0.0
  9
$PUCSORGLEFT
 10
0.0
 20
0.0
 30
0.0
  9
$PUCSORGRIGHT
 10
0.0
 20
0.0
 30
0.0
  9
$PUCSORGFRONT
 10
0.0
 20
0.0
 30
0.0
  9
$PUCSORGBACK
 10
0.0
 20
0.0
 30
0.0
  9
$USERI1
 70
     0
  9
$USERI2
 70
     0
  9
$USERI3
 70
     0
  9
$USERI4
 70
     0
  9
$USERI5
 70
     0
  9
$USERR1
 40
0.0
  9
$USERR2
 40
0.0
  9
$USERR3
 40
0.0
  9
$USERR4
 40
0.0
  9
$USERR5
 40
0.0
  9
$WORLDVIEW
 70
     1
  9
$SHADEDGE
 70
     3
  9
$SHADEDIF
 70
    70
  9
$TILEMODE
 70
     1
  9
$MAXACTVP
 70
    16
  9
$PINSBASE
 10
0.0
 20
0.0
 30
0.0
  9
$PLIMCHECK
 70
     0
  9
$PEXTMIN
 10
1.000000E+20
 20
1.000000E+20
 30
1.000000E+20
  9
$PEXTMAX
 10
-1.000000E+20
 20
-1.000000E+20
 30
-1.000000E+20
  9
$PLIMMIN
 10
0.0
 20
0.0
  9
$PLIMMAX
 10
841.0
 20
595.0
  9
$UNITMODE
 70
     0
  9
$VISRETAIN
 70
     0
  9
$PLINEGEN
 70
     1
  9
$PSLTSCALE
 70
     0
  9
$TREEDEPTH
 70
  3020
  9
$CMLSTYLE
  2
Standard
  9
$CMLJUST
 70
     0
  9
$CMLSCALE
 40
1.0
  9
$PROXYGRAPHICS
 70
     0
  9
$MEASUREMENT
 70
     0
  9
$CELWEIGHT
370
     0
  9
$ENDCAPS
280
     0
  9
$JOINSTYLE
280
     0
  9
$LWDISPLAY
290
     0
  9
$INSUNITS
 70
     0
  9
$HYPERLINKBASE
  1

  9
$XEDIT
290
     1
  9
$CEPSNTYPE
380
     0
  9
$PSTYLEMODE
290
     0
  9
$FINGERPRINTGUID
  2

  9
$VERSIONGUID
  2

  9
$EXTNAMES
290
     1
  9
$PSVPSCALE
 40
0.0
  0
ENDSEC
  0
SECTION
  2
CLASSES
  0
CLASS
  1
LWPOLYLINE
  2
AcDbPolyline
  3
"AutoCAD"
 90
        0
280
     0
281
     1
  0
CLASS
  1
IMAGE
  2
AcDbRasterImage
  3
ISM
 90
      127
280
     0
281
     1
  0
CLASS
  1
OLE2FRAME
  2
AcDbOle2Frame
  3
""
 90
        0
280
     0
281
     1
  0
CLASS
  1
HATCH
  2
AcDbHatch
  3
"ACAD_SEDONA"
 90
        0
280
     0
281
     1
  0
CLASS
  1
DICTIONARYVAR
  2
AcDbDictionaryVar
  3
"AutoCAD"
 90
        0
280
     0
281
     0
  0
CLASS
  1
RASTERVARIABLES
  2
AcDbRasterVariables
  3
ISM
 90
        0
280
     0
281
     0
  0
CLASS
  1
IMAGEDEF
  2
AcDbRasterImageDef
  3
ISM
 90
        0
280
     0
281
     0
  0
CLASS
  1
IMAGEDEF_REACTOR
  2
AcDbRasterImageDefReactor
  3
ISM
 90
        1
280
     0
281
     0
  0
CLASS
  1
IDBUFFER
  2
AcDbIdBuffer
  3
"Acad"
 90
        0
280
     0
281
     0
  0
CLASS
  1
SPATIAL_FILTER
  2
AcDbSpatialFilter
  3
"Acad"
 90
        0
280
     0
281
     0
  0
CLASS
  1
XRECORD
  2
AcDbXrecord
  3
"<Built In>"
 90
        0
280
     0
281
     0
  0
CLASS
  1
SORTENTSTABLE
  2
AcDbSortentsTable
  3
"AutoCAD"
 90
        0
280
     0
281
     0
  0
CLASS
  1
LAYER_INDEX
  2
AcDbLayerIndex
  3
"Acad"
 90
        0
280
     0
281
     0
  0
CLASS
  1
SPATIAL_INDEX
  2
AcDbSpatialIndex
  3
"Acad"
 90
        0
280
     0
281
     0
  0
CLASS
  1
OBJECT_PTR
  2
CAseDLPNTableRecord
  3
"ASE-LPNTableRecord"
 90
        1
280
     0
281
     0
  0
CLASS
  1
LAYOUT
  2
AcDbLayout
  3
"AutoCAD 2000"
 90
        1
280
     0
281
     0
  0
CLASS
  1
PLOTSETTINGS
  2
AcDbPlotSettings
  3
"AutoCAD 2000"
 90
        1
280
     0
281
     0
  0
CLASS
  1
ACDBDICTIONARYWDFLT
  2
AcDbDictionaryWithDefault
  3
"AutoCAD 2000"
 90
        1
280
     0
281
     0
  0
CLASS
  1
ACDBPLACEHOLDER
  2
AcDbPlaceHolder
  3
"AutoCAD 2000"
 90
        1
280
     0
281
     0
  0
CLASS
  1
VBA_PROJECT
  2
AcDbVbaProject
  3
"acadvba"
 90
        1
280
     0
281
     0
  0
CLASS
  1
WIPEOUT
  2
AcDbWipeout
  3
WipeOut|AutoCAD Express Tool|expresstools@autodesk.com
 90
      127
280
     0
281
     1
  0
CLASS
  1
WIPEOUTVARIABLES
  2
AcDbWipeoutVariables
  3
WipeOut|AutoCAD Express Tool|expresstools@autodesk.com
 90
        0
280
     0
281
     0
  0
CLASS
  1
RTEXT
  2
RText
  3
RText|AutoCAD Express Tool|expresstools@autodesk.com
 90
        0
280
     0
281
     1
  0
CLASS
  1
ARCALIGNEDTEXT
  2
AcDbArcAlignedText
  3
ATEXT|AutoCAD Express Tool|expresstools@autodesk.com
 90
        0
280
     0
281
     1
  0
ENDSEC
  0
SECTION
  2
TABLES
  0
TABLE
  2
VPORT
  5
7
100
AcDbSymbolTable
 70
     1
  0
VPORT
  5
15
100
AcDbSymbolTableRecord
100
AcDbViewportTableRecord
  2
*ACTIVE
 70
     0
 10
0.0
 20
0.0
 11
1.0
 21
1.0
 12
6.591288
 22
4.579184
 13
0.0
 23
0.0
 14
1.0
 24
1.0
 15
0.0
 25
0.0
 16
0.0
 26
0.0
 36
1.0
 17
0.0
 27
0.0
 37
0.0
 40
9.158369
 41
0.688564
 42
50.0
 43
0.0
 44
0.0
 50
0.0
 51
0.0
 71
     0
 72
   100
 73
     1
 74
     1
 75
     0
 76
     0
 77
     0
 78
     0
281
     0
 65
     0
110
0.0
120
0.0
130
0.0
111
1.0
121
0.0
131
0.0
112
0.0
122
1.0
132
0.0
345
0
346
0
 79
     0
146
0.0
  0
ENDTAB
  0
TABLE
  2
LTYPE
  5
4
100
AcDbSymbolTable
 70
     7
  0
LTYPE
  5
11
100
AcDbSymbolTableRecord
100
AcDbLinetypeTableRecord
  2
ByBlock
 70
    64
  3

 72
    65
 73
     0
 40
0.0
  0
LTYPE
  5
12
100
AcDbSymbolTableRecord
100
AcDbLinetypeTableRecord
  2
ByLayer
 70
    64
  3

 72
    65
 73
     0
 40
0.0
  0
LTYPE
  5
13
100
AcDbSymbolTableRecord
100
AcDbLinetypeTableRecord
  2
Continuous
 70
    64
  3
Solid line
 72
    65
 73
     0
 40
0.0
  0
LTYPE
  5
24
100
AcDbSymbolTableRecord
100
AcDbLinetypeTableRecord
  2
HIDDEN
 70
    64
  3
_ _ _ _ _ _ _ _ _ _ _ _ _ _ _ _ _ _ _ _ _ _ _ _
 72
    65
 73
     2
 40
0.1875
 49
0.125
 74
     0
 49
-0.0625
 74
     0
  0
LTYPE
  5
25
100
AcDbSymbolTableRecord
100
AcDbLinetypeTableRecord
  2
DOTTED
 70
    64
  3
...............................................
 72
    65
 73
     2
 40
0.125
 49
0.0
 74
     0
 49
-0.125
 74
     0
  0
LTYPE
  5
26
100
AcDbSymbolTableRecord
100
AcDbLinetypeTableRecord
  2
CENTER
 70
    64
  3
____ _ ____ _ ____ _ ____ _ ____ _ ____ _ ____ 
 72
    65
 73
     4
 40
1.125
 49
0.75
 74
     0
 49
-0.125
 74
     0
 49
0.125
 74
     0
 49
-0.125
 74
     0
  0
LTYPE
  5
27
100
AcDbSymbolTableRecord
100
AcDbLinetypeTableRecord
  2
PHANTOM
 70
    64
  3
______  __  __  ______  __  __  ______  __  __ 
 72
    65
 73
     6
 40
1.25
 49
0.625
 74
     0
 49
-0.125
 74
     0
 49
0.125
 74
     0
 49
-0.125
 74
     0
 49
0.125
 74
     0
 49
-0.125
 74
     0
  0
ENDTAB
  0
TABLE
  2
LAYER
  5
2
100
AcDbSymbolTable
 70
     2
  0
LAYER
  5
14
100
AcDbSymbolTableRecord
100
AcDbLayerTableRecord
  2
0
 70
     0
 62
     7
  6
Continuous
290
     1
370
    -3
390
1D
  0
LAYER
  5
28
100
AcDbSymbolTableRecord
100
AcDbLayerTableRecord
  2
TEXT
 70
     0
 62
     8
  6
Continuous
290
     1
370
    -3
390
1F
  0
ENDTAB
  0
TABLE
  2
STYLE
  5
3
100
AcDbSymbolTable
 70
     1
  0
STYLE
  5
17
100
AcDbSymbolTableRecord
100
AcDbTextStyleTableRecord
  2
Standard
 70
     0
 40
0.0
 41
1.0
 50
0.0
 71
     0
 42
0.0
  3
txt
  4

  0
ENDTAB
  0
TABLE
  2
VIEW
  5
5
100
AcDbSymbolTable
 70
     0
  0
ENDTAB
  0
TABLE
  2
UCS
  5
6
100
AcDbSymbolTable
 70
     0
  0
ENDTAB
  0
TABLE
  2
APPID
  5
8
100
AcDbSymbolTable
 70
     1
  0
APPID
  5
16
100
AcDbSymbolTableRecord
100
AcDbRegAppTableRecord
  2
ACAD
 70
     0
  0
ENDTAB
  0
TABLE
  2
DIMSTYLE
  5
9
100
AcDbSymbolTable
 70
     1
100
AcDbDimStyleTable
 71
     0
  0
DIMSTYLE
105
18
100
AcDbSymbolTableRecord
100
AcDbDimStyleTableRecord
  2
Standard
 70
     0
  3

  4

 40
1.0
 41
0.18
 42
0.0625
 43
0.38
 44
0.18
 45
0.0
 46
0.0
 47
0.0
 48
0.0
 71
     0
 72
     0
 73
     1
 74
     1
 75
     0
 76
     0
 77
     0
 78
     0
 79
     0
140
0.18
141
0.09
142
0.0
143
25.4
144
1.0
145
0.0
146
1.0
147
0.09
148
0.0
170
     0
171
     2
172
     0
173
     0
174
     0
175
     0
176
     0
177
     0
178
     0
179
     0
271
     4
272
     4
273
     2
274
     2
275
     0
276
     0
277
     2
278
    46
279
     0
280
     0
281
     0
282
     0
283
     1
284
     0
285
     0
286
     0
288
     0
340
17
341
0
342
0
343
0
344
0
371
    -2
372
    -2
  0
ENDTAB
  0
TABLE
  2
BLOCK_RECORD
  5
1
100
AcDbSymbolTable
 70
   112
  0
BLOCK_RECORD
  5
A
100
AcDbSymbolTableRecord
100
AcDbBlockTableRecord
  2
*MODEL_SPACE
340
20
  0
BLOCK_RECORD
  5
B
100
AcDbSymbolTableRecord
100
AcDbBlockTableRecord
  2
*PAPER_SPACE
340
21
  0
BLOCK_RECORD
  5
29
100
AcDbSymbolTableRecord
100
AcDbBlockTableRecord
  2
*B0
340
0
  0
BLOCK_RECORD
  5
2C
100
AcDbSymbolTableRecord
100
AcDbBlockTableRecord
  2
*B1
340
0
  0
BLOCK_RECORD
  5
18C
100
AcDbSymbolTableRecord
100
AcDbBlockTableRecord
  2
*B2
340
0
  0
BLOCK_RECORD
  5
1A0
100
AcDbSymbolTableRecord
100
AcDbBlockTableRecord
  2
*B3
340
0
  0
BLOCK_RECORD
  5
26F
100
AcDbSymbolTableRecord
100
AcDbBlockTableRecord
  2
*B4
340
0
  0
BLOCK_RECORD
  5
276
100
AcDbSymbolTableRecord
100
AcDbBlockTableRecord
  2
*B5
340
0
  0
BLOCK_RECORD
  5
27D
100
AcDbSymbolTableRecord
100
AcDbBlockTableRecord
  2
*B6
340
0
  0
BLOCK_RECORD
  5
284
100
AcDbSymbolTableRecord
100
AcDbBlockTableRecord
  2
*B7
340
0
  0
BLOCK_RECORD
  5
28B
100
AcDbSymbolTableRecord
100
AcDbBlockTableRecord
  2
*B8
340
0
  0
BLOCK_RECORD
  5
292
100
AcDbSymbolTableRecord
100
AcDbBlockTableRecord
  2
*B9
340
0
  0
BLOCK_RECORD
  5
299
100
AcDbSymbolTableRecord
100
AcDbBlockTableRecord
  2
*B10
340
0
  0
BLOCK_RECORD
  5
2A0
100
AcDbSymbolTableRecord
100
AcDbBlockTableRecord
  2
*B11
340
0
  0
BLOCK_RECORD
  5
2A7
100
AcDbSymbolTableRecord
100
AcDbBlockTableRecord
  2
*B12
340
0
  0
BLOCK_RECORD
  5
2AE
100
AcDbSymbolTableRecord
100
AcDbBlockTableRecord
  2
*B13
340
0
  0
BLOCK_RECORD
  5
2B5
100
AcDbSymbolTableRecord
100
AcDbBlockTableRecord
  2
*B14
340
0
  0
BLOCK_RECORD
  5
2BC
100
AcDbSymbolTableRecord
100
AcDbBlockTableRecord
  2
*B15
340
0
  0
BLOCK_RECORD
  5
2C3
100
AcDbSymbolTableRecord
100
AcDbBlockTableRecord
  2
*B16
340
0
  0
BLOCK_RECORD
  5
2CA
100
AcDbSymbolTableRecord
100
AcDbBlockTableRecord
  2
*B17
340
0
  0
BLOCK_RECORD
  5
2D1
100
AcDbSymbolTableRecord
100
AcDbBlockTableRecord
  2
*B18
340
0
  0
BLOCK_RECORD
  5
2D8
100
AcDbSymbolTableRecord
100
AcDbBlockTableRecord
  2
*B19
340
0
  0
BLOCK_RECORD
  5
2DF
100
AcDbSymbolTableRecord
100
AcDbBlockTableRecord
  2
*B20
340
0
  0
BLOCK_RECORD
  5
2E6
100
AcDbSymbolTableRecord
100
AcDbBlockTableRecord
  2
*B21
340
0
  0
BLOCK_RECORD
  5
2ED
100
AcDbSymbolTableRecord
100
AcDbBlockTableRecord
  2
*B22
340
0
  0
BLOCK_RECORD
  5
2F4
100
AcDbSymbolTableRecord
100
AcDbBlockTableRecord
  2
*B23
340
0
  0
BLOCK_RECORD
  5
2F9
100
AcDbSymbolTableRecord
100
AcDbBlockTableRecord
  2
*B24
340
0
  0
BLOCK_RECORD
  5
2FF
100
AcDbSymbolTableRecord
100
AcDbBlockTableRecord
  2
*B25
340
0
  0
BLOCK_RECORD
  5
305
100
AcDbSymbolTableRecord
100
AcDbBlockTableRecord
  2
*B26
340
0
  0
BLOCK_RECORD
  5
30B
100
AcDbSymbolTableRecord
100
AcDbBlockTableRecord
  2
*B27
340
0
  0
BLOCK_RECORD
  5
334
100
AcDbSymbolTableRecord
100
AcDbBlockTableRecord
  2
*B28
340
0
  0
BLOCK_RECORD
  5
33A
100
AcDbSymbolTableRecord
100
AcDbBlockTableRecord
  2
*B29
340
0
  0
BLOCK_RECORD
  5
33F
100
AcDbSymbolTableRecord
100
AcDbBlockTableRecord
  2
*B30
340
0
  0
BLOCK_RECORD
  5
344
100
AcDbSymbolTableRecord
100
AcDbBlockTableRecord
  2
*B31
340
0
  0
BLOCK_RECORD
  5
349
100
AcDbSymbolTableRecord
100
AcDbBlockTableRecord
  2
*B32
340
0
  0
BLOCK_RECORD
  5
35E
100
AcDbSymbolTableRecord
100
AcDbBlockTableRecord
  2
*B33
340
0
  0
BLOCK_RECORD
  5
38B
100
AcDbSymbolTableRecord
100
AcDbBlockTableRecord
  2
*B34
340
0
  0
BLOCK_RECORD
  5
3BB
100
AcDbSymbolTableRecord
100
AcDbBlockTableRecord
  2
*B35
340
0
  0
BLOCK_RECORD
  5
3C0
100
AcDbSymbolTableRecord
100
AcDbBlockTableRecord
  2
*B36
340
0
  0
BLOCK_RECORD
  5
3C6
100
AcDbSymbolTableRecord
100
AcDbBlockTableRecord
  2
*B37
340
0
  0
BLOCK_RECORD
  5
3CC
100
AcDbSymbolTableRecord
100
AcDbBlockTableRecord
  2
*B38
340
0
  0
BLOCK_RECORD
  5
3E0
100
AcDbSymbolTableRecord
100
AcDbBlockTableRecord
  2
*B39
340
0
  0
BLOCK_RECORD
  5
3EF
100
AcDbSymbolTableRecord
100
AcDbBlockTableRecord
  2
*B40
340
0
  0
BLOCK_RECORD
  5
3FF
100
AcDbSymbolTableRecord
100
AcDbBlockTableRecord
  2
*B41
340
0
  0
BLOCK_RECORD
  5
405
100
AcDbSymbolTableRecord
100
AcDbBlockTableRecord
  2
*B42
340
0
  0
BLOCK_RECORD
  5
41A
100
AcDbSymbolTableRecord
100
AcDbBlockTableRecord
  2
*B43
340
0
  0
BLOCK_RECORD
  5
42B
100
AcDbSymbolTableRecord
100
AcDbBlockTableRecord
  2
*B44
340
0
  0
BLOCK_RECORD
  5
431
100
AcDbSymbolTableRecord
100
AcDbBlockTableRecord
  2
*B45
340
0
  0
BLOCK_RECORD
  5
43E
100
AcDbSymbolTableRecord
100
AcDbBlockTableRecord
  2
*B46
340
0
  0
BLOCK_RECORD
  5
443
100
AcDbSymbolTableRecord
100
AcDbBlockTableRecord
  2
*B47
340
0
  0
BLOCK_RECORD
  5
449
100
AcDbSymbolTableRecord
100
AcDbBlockTableRecord
  2
*B48
340
0
  0
BLOCK_RECORD
  5
45D
100
AcDbSymbolTableRecord
100
AcDbBlockTableRecord
  2
*B49
340
0
  0
BLOCK_RECORD
  5
47B
100
AcDbSymbolTableRecord
100
AcDbBlockTableRecord
  2
*B50
340
0
  0
BLOCK_RECORD
  5
484
100
AcDbSymbolTableRecord
100
AcDbBlockTableRecord
  2
*B51
340
0
  0
BLOCK_RECORD
  5
489
100
AcDbSymbolTableRecord
100
AcDbBlockTableRecord
  2
*B52
340
0
  0
BLOCK_RECORD
  5
48F
100
AcDbSymbolTableRecord
100
AcDbBlockTableRecord
  2
*B53
340
0
  0
BLOCK_RECORD
  5
495
100
AcDbSymbolTableRecord
100
AcDbBlockTableRecord
  2
*B54
340
0
  0
BLOCK_RECORD
  5
4C5
100
AcDbSymbolTableRecord
100
AcDbBlockTableRecord
  2
*B55
340
0
  0
BLOCK_RECORD
  5
4CB
100
AcDbSymbolTableRecord
100
AcDbBlockTableRecord
  2
*B56
340
0
  0
BLOCK_RECORD
  5
4D0
100
AcDbSymbolTableRecord
100
AcDbBlockTableRecord
  2
*B57
340
0
  0
BLOCK_RECORD
  5
4EE
100
AcDbSymbolTableRecord
100
AcDbBlockTableRecord
  2
*B58
340
0
  0
BLOCK_RECORD
  5
4FD
100
AcDbSymbolTableRecord
100
AcDbBlockTableRecord
  2
*B59
340
0
  0
BLOCK_RECORD
  5
503
100
AcDbSymbolTableRecord
100
AcDbBlockTableRecord
  2
*B60
340
0
  0
BLOCK_RECORD
  5
513
100
AcDbSymbolTableRecord
100
AcDbBlockTableRecord
  2
*B61
340
0
  0
BLOCK_RECORD
  5
527
100
AcDbSymbolTableRecord
100
AcDbBlockTableRecord
  2
*B62
340
0
  0
BLOCK_RECORD
  5
534
100
AcDbSymbolTableRecord
100
AcDbBlockTableRecord
  2
*B63
340
0
  0
BLOCK_RECORD
  5
53A
100
AcDbSymbolTableRecord
100
AcDbBlockTableRecord
  2
*B64
340
0
  0
BLOCK_RECORD
  5
53F
100
AcDbSymbolTableRecord
100
AcDbBlockTableRecord
  2
*B65
340
0
  0
BLOCK_RECORD
  5
54A
100
AcDbSymbolTableRecord
100
AcDbBlockTableRecord
  2
*B66
340
0
  0
BLOCK_RECORD
  5
55A
100
AcDbSymbolTableRecord
100
AcDbBlockTableRecord
  2
*B67
340
0
  0
BLOCK_RECORD
  5
560
100
AcDbSymbolTableRecord
100
AcDbBlockTableRecord
  2
*B68
340
0
  0
BLOCK_RECORD
  5
574
100
AcDbSymbolTableRecord
100
AcDbBlockTableRecord
  2
*B69
340
0
  0
BLOCK_RECORD
  5
57A
100
AcDbSymbolTableRecord
100
AcDbBlockTableRecord
  2
*B70
340
0
  0
BLOCK_RECORD
  5
580
100
AcDbSymbolTableRecord
100
AcDbBlockTableRecord
  2
*B71
340
0
  0
BLOCK_RECORD
  5
586
100
AcDbSymbolTableRecord
100
AcDbBlockTableRecord
  2
*B72
340
0
  0
BLOCK_RECORD
  5
58C
100
AcDbSymbolTableRecord
100
AcDbBlockTableRecord
  2
*B73
340
0
  0
BLOCK_RECORD
  5
592
100
AcDbSymbolTableRecord
100
AcDbBlockTableRecord
  2
*B74
340
0
  0
BLOCK_RECORD
  5
598
100
AcDbSymbolTableRecord
100
AcDbBlockTableRecord
  2
*B75
340
0
  0
BLOCK_RECORD
  5
59E
100
AcDbSymbolTableRecord
100
AcDbBlockTableRecord
  2
*B76
340
0
  0
BLOCK_RECORD
  5
5A4
100
AcDbSymbolTableRecord
100
AcDbBlockTableRecord
  2
*B77
340
0
  0
BLOCK_RECORD
  5
5AA
100
AcDbSymbolTableRecord
100
AcDbBlockTableRecord
  2
*B78
340
0
  0
BLOCK_RECORD
  5
5B0
100
AcDbSymbolTableRecord
100
AcDbBlockTableRecord
  2
*B79
340
0
  0
BLOCK_RECORD
  5
5B6
100
AcDbSymbolTableRecord
100
AcDbBlockTableRecord
  2
*B80
340
0
  0
BLOCK_RECORD
  5
5BC
100
AcDbSymbolTableRecord
100
AcDbBlockTableRecord
  2
*B81
340
0
  0
BLOCK_RECORD
  5
5C2
100
AcDbSymbolTableRecord
100
AcDbBlockTableRecord
  2
*B82
340
0
  0
BLOCK_RECORD
  5
5C8
100
AcDbSymbolTableRecord
100
AcDbBlockTableRecord
  2
*B83
340
0
  0
BLOCK_RECORD
  5
5CE
100
AcDbSymbolTableRecord
100
AcDbBlockTableRecord
  2
*B84
340
0
  0
BLOCK_RECORD
  5
5D4
100
AcDbSymbolTableRecord
100
AcDbBlockTableRecord
  2
*B85
340
0
  0
BLOCK_RECORD
  5
5DA
100
AcDbSymbolTableRecord
100
AcDbBlockTableRecord
  2
*B86
340
0
  0
BLOCK_RECORD
  5
5E0
100
AcDbSymbolTableRecord
100
AcDbBlockTableRecord
  2
*B87
340
0
  0
BLOCK_RECORD
  5
5E7
100
AcDbSymbolTableRecord
100
AcDbBlockTableRecord
  2
*B88
340
0
  0
BLOCK_RECORD
  5
5EE
100
AcDbSymbolTableRecord
100
AcDbBlockTableRecord
  2
*B89
340
0
  0
BLOCK_RECORD
  5
5F5
100
AcDbSymbolTableRecord
100
AcDbBlockTableRecord
  2
*B90
340
0
  0
BLOCK_RECORD
  5
5FA
100
AcDbSymbolTableRecord
100
AcDbBlockTableRecord
  2
*B91
340
0
  0
BLOCK_RECORD
  5
5FF
100
AcDbSymbolTableRecord
100
AcDbBlockTableRecord
  2
*B92
340
0
  0
BLOCK_RECORD
  5
604
100
AcDbSymbolTableRecord
100
AcDbBlockTableRecord
  2
*B93
340
0
  0
BLOCK_RECORD
  5
609
100
AcDbSymbolTableRecord
100
AcDbBlockTableRecord
  2
*B94
340
0
  0
BLOCK_RECORD
  5
60E
100
AcDbSymbolTableRecord
100
AcDbBlockTableRecord
  2
*B95
340
0
  0
BLOCK_RECORD
  5
613
100
AcDbSymbolTableRecord
100
AcDbBlockTableRecord
  2
*B96
340
0
  0
BLOCK_RECORD
  5
618
100
AcDbSymbolTableRecord
100
AcDbBlockTableRecord
  2
*B97
340
0
  0
BLOCK_RECORD
  5
61D
100
AcDbSymbolTableRecord
100
AcDbBlockTableRecord
  2
*B98
340
0
  0
BLOCK_RECORD
  5
622
100
AcDbSymbolTableRecord
100
AcDbBlockTableRecord
  2
*B99
340
0
  0
BLOCK_RECORD
  5
627
100
AcDbSymbolTableRecord
100
AcDbBlockTableRecord
  2
*B100
340
0
  0
BLOCK_RECORD
  5
62C
100
AcDbSymbolTableRecord
100
AcDbBlockTableRecord
  2
*B101
340
0
  0
BLOCK_RECORD
  5
631
100
AcDbSymbolTableRecord
100
AcDbBlockTableRecord
  2
*B102
340
0
  0
BLOCK_RECORD
  5
636
100
AcDbSymbolTableRecord
100
AcDbBlockTableRecord
  2
*B103
340
0
  0
BLOCK_RECORD
  5
63B
100
AcDbSymbolTableRecord
100
AcDbBlockTableRecord
  2
*B104
340
0
  0
BLOCK_RECORD
  5
640
100
AcDbSymbolTableRecord
100
AcDbBlockTableRecord
  2
*B105
340
0
  0
BLOCK_RECORD
  5
645
100
AcDbSymbolTableRecord
100
AcDbBlockTableRecord
  2
*B106
340
0
  0
BLOCK_RECORD
  5
64A
100
AcDbSymbolTableRecord
100
AcDbBlockTableRecord
  2
*B107
340
0
  0
BLOCK_RECORD
  5
64F
100
AcDbSymbolTableRecord
100
AcDbBlockTableRecord
  2
*B108
340
0
  0
BLOCK_RECORD
  5
654
100
AcDbSymbolTableRecord
100
AcDbBlockTableRecord
  2
*B109
340
0
  0
BLOCK_RECORD
  5
659
100
AcDbSymbolTableRecord
100
AcDbBlockTableRecord
  2
*B110
340
0
  0
BLOCK_RECORD
  5
65E
100
AcDbSymbolTableRecord
100
AcDbBlockTableRecord
  2
*B111
340
0
  0
ENDTAB
  0
ENDSEC
  0
SECTION
  2
BLOCKS
  0
BLOCK
  5
D
100
AcDbEntity
  8
0
100
AcDbBlockBegin
  2
*MODEL_SPACE
 70
     0
 10
0.0
 20
0.0
 30
0.0
  3
*MODEL_SPACE
  1

  0
ENDBLK
  5
E
100
AcDbEntity
  8
0
100
AcDbBlockEnd
  0
BLOCK
  5
F
100
AcDbEntity
 67
     1
  8
0
100
AcDbBlockBegin
  2
*PAPER_SPACE
 70
     0
 10
0.0
 20
0.0
 30
0.0
  3
*PAPER_SPACE
  1

  0
ENDBLK
  5
10
100
AcDbEntity
 67
     1
  8
0
100
AcDbBlockEnd
  0
BLOCK
  5
2A
100
AcDbEntity
  8
0
100
AcDbBlockBegin
  2
*B0
 70
     0
 10
0.0
 20
0.0
 30
0.0
  3
*B0
  1

  0
ENDBLK
  5
2B
100
AcDbEntity
  8
0
100
AcDbBlockEnd
  0
BLOCK
  5
2D
100
AcDbEntity
  8
0
100
AcDbBlockBegin
  2
*B1
 70
     0
 10
0.0
 20
0.0
 30
0.0
  3
*B1
  1

  0
LINE
  5
2E
100
AcDbEntity
  8
0
  6
HIDDEN
 62
   174
100
AcDbLine
 10
256.185042
 20
411.916953
 30
0.0
 11
247.985586
 21
411.916953
 31
0.0
  0
LINE
  5
2F
100
AcDbEntity
  8
0
  6
HIDDEN
 62
   174
100
AcDbLine
 10
190.188771
 20
411.916953
 30
0.0
 11
181.989315
 21
411.916953
 31
0.0
  0
LINE
  5
30
100
AcDbEntity
  8
0
  6
HIDDEN
 62
   174
100
AcDbLine
 10
190.200486
 20
411.916953
 30
0.0
 11
190.200486
 21
412.916953
 31
0.0
  0
LINE
  5
31
100
AcDbEntity
  8
0
  6
HIDDEN
 62
   174
100
AcDbLine
 10
181.100486
 20
411.916953
 30
0.0
 11
181.100486
 21
412.916953
 31
0.0
  0
LINE
  5
32
100
AcDbEntity
  8
0
  6
HIDDEN
 62
   174
100
AcDbLine
 10
191.100486
 20
411.916953
 30
0.0
 11
191.100486
 21
412.916953
 31
0.0
  0
LINE
  5
33
100
AcDbEntity
  8
0
  6
HIDDEN
 62
   174
100
AcDbLine
 10
191.100486
 20
411.916953
 30
0.0
 11
191.100486
 21
412.916953
 31
0.0
  0
LINE
  5
34
100
AcDbEntity
  8
0
  6
HIDDEN
 62
   174
100
AcDbLine
 10
191.08866
 20
412.916953
 30
0.0
 11
181.089426
 21
412.916953
 31
0.0
  0
LINE
  5
35
100
AcDbEntity
  8
0
  6
HIDDEN
 62
   174
100
AcDbLine
 10
191.08866
 20
411.916953
 30
0.0
 11
181.089426
 21
411.916953
 31
0.0
  0
LINE
  5
36
100
AcDbEntity
  8
0
  6
HIDDEN
 62
   174
100
AcDbLine
 10
190.200486
 20
412.916953
 30
0.0
 11
190.200486
 21
411.916953
 31
0.0
  0
LINE
  5
37
100
AcDbEntity
  8
0
  6
HIDDEN
 62
   174
100
AcDbLine
 10
182.000486
 20
412.916953
 30
0.0
 11
182.000486
 21
411.916953
 31
0.0
  0
LINE
  5
38
100
AcDbEntity
  8
0
  6
HIDDEN
 62
   174
100
AcDbLine
 10
190.200486
 20
412.916953
 30
0.0
 11
190.200486
 21
411.916953
 31
0.0
  0
LINE
  5
39
100
AcDbEntity
  8
0
  6
HIDDEN
 62
   174
100
AcDbLine
 10
182.000486
 20
412.916953
 30
0.0
 11
182.000486
 21
411.916953
 31
0.0
  0
LINE
  5
3A
100
AcDbEntity
  8
0
  6
HIDDEN
 62
   174
100
AcDbLine
 10
182.000486
 20
411.916953
 30
0.0
 11
182.000486
 21
412.916953
 31
0.0
  0
LINE
  5
3B
100
AcDbEntity
  8
0
  6
HIDDEN
 62
   174
100
AcDbLine
 10
257.084931
 20
412.916953
 30
0.0
 11
247.085697
 21
412.916953
 31
0.0
  0
LINE
  5
3C
100
AcDbEntity
  8
0
  6
HIDDEN
 62
   174
100
AcDbLine
 10
256.200486
 20
412.916953
 30
0.0
 11
256.200486
 21
411.916953
 31
0.0
  0
LINE
  5
3D
100
AcDbEntity
  8
0
  6
HIDDEN
 62
   174
100
AcDbLine
 10
248.000486
 20
412.916953
 30
0.0
 11
248.000486
 21
411.916953
 31
0.0
  0
LINE
  5
3E
100
AcDbEntity
  8
0
  6
HIDDEN
 62
   174
100
AcDbLine
 10
256.200486
 20
412.916953
 30
0.0
 11
256.200486
 21
411.916953
 31
0.0
  0
LINE
  5
3F
100
AcDbEntity
  8
0
  6
HIDDEN
 62
   174
100
AcDbLine
 10
535.100486
 20
333.004042
 30
0.0
 11
535.100486
 21
393.001253
 31
0.0
  0
LINE
  5
40
100
AcDbEntity
  8
0
  6
HIDDEN
 62
   174
100
AcDbLine
 10
535.100486
 20
332.916953
 30
0.0
 11
529.326984
 21
342.916953
 31
0.0
  0
LINE
  5
41
100
AcDbEntity
  8
0
  6
HIDDEN
 62
   174
100
AcDbLine
 10
233.086287
 20
410.916953
 30
0.0
 11
205.08807
 21
410.916953
 31
0.0
  0
LINE
  5
42
100
AcDbEntity
  8
0
  6
HIDDEN
 62
   174
100
AcDbLine
 10
529.326984
 20
343.003878
 30
0.0
 11
529.326984
 21
383.002019
 31
0.0
  0
LINE
  5
43
100
AcDbEntity
  8
0
  6
HIDDEN
 62
   174
100
AcDbLine
 10
205.100486
 20
411.916953
 30
0.0
 11
205.100486
 21
410.916953
 31
0.0
  0
LINE
  5
44
100
AcDbEntity
  8
0
  6
HIDDEN
 62
   174
100
AcDbLine
 10
110.100486
 20
392.916953
 30
0.0
 11
170.100486
 21
392.916953
 31
0.0
  0
LINE
  5
45
100
AcDbEntity
  8
0
  6
HIDDEN
 62
   174
100
AcDbLine
 10
543.100486
 20
329.596953
 30
0.0
 11
595.100486
 21
329.596953
 31
0.0
  0
LINE
  5
46
100
AcDbEntity
  8
0
  6
HIDDEN
 62
   174
100
AcDbLine
 10
595.100486
 20
392.916953
 30
0.0
 11
535.100486
 21
392.916953
 31
0.0
  0
LINE
  5
47
100
AcDbEntity
  8
0
  6
HIDDEN
 62
   174
100
AcDbLine
 10
543.100486
 20
332.916953
 30
0.0
 11
595.100486
 21
332.916953
 31
0.0
  0
LINE
  5
48
100
AcDbEntity
  8
0
  6
HIDDEN
 62
   174
100
AcDbLine
 10
162.100486
 20
329.596953
 30
0.0
 11
110.100486
 21
329.596953
 31
0.0
  0
LINE
  5
49
100
AcDbEntity
  8
0
  6
HIDDEN
 62
   174
100
AcDbLine
 10
110.100486
 20
392.916953
 30
0.0
 11
170.100486
 21
392.916953
 31
0.0
  0
LINE
  5
4A
100
AcDbEntity
  8
0
  6
HIDDEN
 62
   174
100
AcDbLine
 10
110.100486
 20
392.916953
 30
0.0
 11
170.100486
 21
392.916953
 31
0.0
  0
LINE
  5
4B
100
AcDbEntity
  8
0
  6
HIDDEN
 62
   174
100
AcDbLine
 10
248.000486
 20
412.916953
 30
0.0
 11
248.000486
 21
411.916953
 31
0.0
  0
LINE
  5
4C
100
AcDbEntity
  8
0
  6
HIDDEN
 62
   174
100
AcDbLine
 10
248.000486
 20
411.916953
 30
0.0
 11
248.000486
 21
412.916953
 31
0.0
  0
LINE
  5
4D
100
AcDbEntity
  8
0
  6
HIDDEN
 62
   174
100
AcDbLine
 10
256.200486
 20
411.916953
 30
0.0
 11
256.200486
 21
412.916953
 31
0.0
  0
LINE
  5
4E
100
AcDbEntity
  8
0
  6
HIDDEN
 62
   174
100
AcDbLine
 10
247.985586
 20
412.916953
 30
0.0
 11
249.18624
 21
412.916953
 31
0.0
  0
LINE
  5
4F
100
AcDbEntity
  8
0
  6
HIDDEN
 62
   174
100
AcDbLine
 10
535.100486
 20
333.004042
 30
0.0
 11
535.100486
 21
393.001253
 31
0.0
  0
LINE
  5
50
100
AcDbEntity
  8
0
  6
HIDDEN
 62
   174
100
AcDbLine
 10
535.100486
 20
333.004042
 30
0.0
 11
535.100486
 21
393.001253
 31
0.0
  0
LINE
  5
51
100
AcDbEntity
  8
0
  6
HIDDEN
 62
   174
100
AcDbLine
 10
535.100486
 20
392.916953
 30
0.0
 11
529.326984
 21
382.916953
 31
0.0
  0
LINE
  5
52
100
AcDbEntity
  8
0
  6
HIDDEN
 62
   174
100
AcDbLine
 10
205.100486
 20
411.916953
 30
0.0
 11
205.100486
 21
410.916953
 31
0.0
  0
LINE
  5
53
100
AcDbEntity
  8
0
  6
HIDDEN
 62
   174
100
AcDbLine
 10
595.100486
 20
329.684197
 30
0.0
 11
595.100486
 21
396.321098
 31
0.0
  0
LINE
  5
54
100
AcDbEntity
  8
0
  6
HIDDEN
 62
   174
100
AcDbLine
 10
543.100486
 20
392.916953
 30
0.0
 11
595.100486
 21
392.916953
 31
0.0
  0
LINE
  5
55
100
AcDbEntity
  8
0
  6
HIDDEN
 62
   174
100
AcDbLine
 10
162.100486
 20
396.236953
 30
0.0
 11
110.100486
 21
396.236953
 31
0.0
  0
LINE
  5
56
100
AcDbEntity
  8
0
  6
HIDDEN
 62
   174
100
AcDbLine
 10
256.200486
 20
411.916953
 30
0.0
 11
256.200486
 21
412.916953
 31
0.0
  0
LINE
  5
57
100
AcDbEntity
  8
0
  6
HIDDEN
 62
   174
100
AcDbLine
 10
535.100486
 20
333.004042
 30
0.0
 11
535.100486
 21
393.001253
 31
0.0
  0
LINE
  5
58
100
AcDbEntity
  8
0
  6
HIDDEN
 62
   174
100
AcDbLine
 10
529.326984
 20
343.003878
 30
0.0
 11
529.326984
 21
383.002019
 31
0.0
  0
LINE
  5
59
100
AcDbEntity
  8
0
  6
HIDDEN
 62
   174
100
AcDbLine
 10
162.100486
 20
332.916953
 30
0.0
 11
110.100486
 21
332.916953
 31
0.0
  0
LINE
  5
5A
100
AcDbEntity
  8
0
  6
HIDDEN
 62
   174
100
AcDbLine
 10
543.100486
 20
332.916953
 30
0.0
 11
595.100486
 21
332.916953
 31
0.0
  0
LINE
  5
5B
100
AcDbEntity
  8
0
  6
HIDDEN
 62
   174
100
AcDbLine
 10
162.100486
 20
396.321098
 30
0.0
 11
162.100486
 21
329.684197
 31
0.0
  0
LINE
  5
5C
100
AcDbEntity
  8
0
  6
HIDDEN
 62
   174
100
AcDbLine
 10
110.100486
 20
332.916953
 30
0.0
 11
170.100486
 21
332.916953
 31
0.0
  0
LINE
  5
5D
100
AcDbEntity
  8
0
  6
HIDDEN
 62
   174
100
AcDbLine
 10
257.084931
 20
411.916953
 30
0.0
 11
247.085697
 21
411.916953
 31
0.0
  0
LINE
  5
5E
100
AcDbEntity
  8
0
  6
HIDDEN
 62
   174
100
AcDbLine
 10
411.075427
 20
410.916953
 30
0.0
 11
383.07721
 21
410.916953
 31
0.0
  0
LINE
  5
5F
100
AcDbEntity
  8
0
  6
HIDDEN
 62
   174
100
AcDbLine
 10
411.075427
 20
410.916953
 30
0.0
 11
383.07721
 21
410.916953
 31
0.0
  0
LINE
  5
60
100
AcDbEntity
  8
0
  6
HIDDEN
 62
   174
100
AcDbLine
 10
233.100486
 20
411.916953
 30
0.0
 11
233.100486
 21
410.916953
 31
0.0
  0
LINE
  5
61
100
AcDbEntity
  8
0
  6
HIDDEN
 62
   174
100
AcDbLine
 10
595.100486
 20
393.001253
 30
0.0
 11
595.100486
 21
333.004042
 31
0.0
  0
LINE
  5
62
100
AcDbEntity
  8
0
  6
HIDDEN
 62
   174
100
AcDbLine
 10
205.100486
 20
411.916953
 30
0.0
 11
205.100486
 21
410.916953
 31
0.0
  0
LINE
  5
63
100
AcDbEntity
  8
0
  6
HIDDEN
 62
   174
100
AcDbLine
 10
162.100486
 20
392.916953
 30
0.0
 11
110.100486
 21
392.916953
 31
0.0
  0
LINE
  5
64
100
AcDbEntity
  8
0
  6
HIDDEN
 62
   174
100
AcDbLine
 10
162.100486
 20
396.236953
 30
0.0
 11
110.100486
 21
396.236953
 31
0.0
  0
LINE
  5
65
100
AcDbEntity
  8
0
  6
HIDDEN
 62
   174
100
AcDbLine
 10
162.100486
 20
396.236953
 30
0.0
 11
110.100486
 21
396.236953
 31
0.0
  0
LINE
  5
66
100
AcDbEntity
  8
0
  6
HIDDEN
 62
   174
100
AcDbLine
 10
110.100486
 20
396.321098
 30
0.0
 11
110.100486
 21
329.684197
 31
0.0
  0
LINE
  5
67
100
AcDbEntity
  8
0
  6
HIDDEN
 62
   174
100
AcDbLine
 10
543.100486
 20
329.684197
 30
0.0
 11
543.100486
 21
396.321098
 31
0.0
  0
LINE
  5
68
100
AcDbEntity
  8
0
  6
HIDDEN
 62
   174
100
AcDbLine
 10
162.100486
 20
392.916953
 30
0.0
 11
110.100486
 21
392.916953
 31
0.0
  0
LINE
  5
69
100
AcDbEntity
  8
0
  6
HIDDEN
 62
   174
100
AcDbLine
 10
110.100486
 20
396.321098
 30
0.0
 11
110.100486
 21
329.684197
 31
0.0
  0
LINE
  5
6A
100
AcDbEntity
  8
0
  6
HIDDEN
 62
   174
100
AcDbLine
 10
162.100486
 20
332.916953
 30
0.0
 11
110.100486
 21
332.916953
 31
0.0
  0
LINE
  5
6B
100
AcDbEntity
  8
0
  6
HIDDEN
 62
   174
100
AcDbLine
 10
249.18624
 20
412.916953
 30
0.0
 11
256.185042
 21
412.916953
 31
0.0
  0
LINE
  5
6C
100
AcDbEntity
  8
0
  6
HIDDEN
 62
   174
100
AcDbLine
 10
181.989315
 20
412.916953
 30
0.0
 11
190.188771
 21
412.916953
 31
0.0
  0
LINE
  5
6D
100
AcDbEntity
  8
0
  6
HIDDEN
 62
   174
100
AcDbLine
 10
175.873989
 20
382.916953
 30
0.0
 11
529.326984
 21
382.916953
 31
0.0
  0
LINE
  5
6E
100
AcDbEntity
  8
0
  6
HIDDEN
 62
   174
100
AcDbLine
 10
535.100486
 20
392.916953
 30
0.0
 11
529.326984
 21
382.916953
 31
0.0
  0
LINE
  5
6F
100
AcDbEntity
  8
0
  6
HIDDEN
 62
   174
100
AcDbLine
 10
535.100486
 20
332.916953
 30
0.0
 11
529.326984
 21
342.916953
 31
0.0
  0
LINE
  5
70
100
AcDbEntity
  8
0
  6
HIDDEN
 62
   174
100
AcDbLine
 10
535.100486
 20
392.916953
 30
0.0
 11
529.326984
 21
382.916953
 31
0.0
  0
LINE
  5
71
100
AcDbEntity
  8
0
  6
HIDDEN
 62
   174
100
AcDbLine
 10
233.100486
 20
411.916953
 30
0.0
 11
233.100486
 21
410.916953
 31
0.0
  0
LINE
  5
72
100
AcDbEntity
  8
0
  6
HIDDEN
 62
   174
100
AcDbLine
 10
595.100486
 20
393.001253
 30
0.0
 11
595.100486
 21
333.004042
 31
0.0
  0
LINE
  5
73
100
AcDbEntity
  8
0
  6
HIDDEN
 62
   174
100
AcDbLine
 10
529.326984
 20
343.003878
 30
0.0
 11
529.326984
 21
383.002019
 31
0.0
  0
LINE
  5
74
100
AcDbEntity
  8
0
  6
HIDDEN
 62
   174
100
AcDbLine
 10
529.326984
 20
343.003878
 30
0.0
 11
529.326984
 21
383.002019
 31
0.0
  0
LINE
  5
75
100
AcDbEntity
  8
0
  6
HIDDEN
 62
   174
100
AcDbLine
 10
233.100486
 20
411.916953
 30
0.0
 11
233.100486
 21
410.916953
 31
0.0
  0
LINE
  5
76
100
AcDbEntity
  8
0
  6
HIDDEN
 62
   174
100
AcDbLine
 10
110.100486
 20
332.916953
 30
0.0
 11
170.100486
 21
332.916953
 31
0.0
  0
LINE
  5
77
100
AcDbEntity
  8
0
  6
HIDDEN
 62
   174
100
AcDbLine
 10
162.100486
 20
392.916953
 30
0.0
 11
110.100486
 21
392.916953
 31
0.0
  0
LINE
  5
78
100
AcDbEntity
  8
0
  6
HIDDEN
 62
   174
100
AcDbLine
 10
595.100486
 20
332.916953
 30
0.0
 11
535.100486
 21
332.916953
 31
0.0
  0
LINE
  5
79
100
AcDbEntity
  8
0
  6
HIDDEN
 62
   174
100
AcDbLine
 10
110.100486
 20
332.916953
 30
0.0
 11
170.100486
 21
332.916953
 31
0.0
  0
LINE
  5
7A
100
AcDbEntity
  8
0
  6
HIDDEN
 62
   174
100
AcDbLine
 10
411.100486
 20
411.916953
 30
0.0
 11
411.100486
 21
410.916953
 31
0.0
  0
LINE
  5
7B
100
AcDbEntity
  8
0
  6
HIDDEN
 62
   174
100
AcDbLine
 10
175.873989
 20
342.916953
 30
0.0
 11
529.326984
 21
342.916953
 31
0.0
  0
LINE
  5
7C
100
AcDbEntity
  8
0
  6
HIDDEN
 62
   174
100
AcDbLine
 10
175.873989
 20
342.916953
 30
0.0
 11
529.326984
 21
342.916953
 31
0.0
  0
LINE
  5
7D
100
AcDbEntity
  8
0
  6
HIDDEN
 62
   174
100
AcDbLine
 10
175.873989
 20
382.916953
 30
0.0
 11
529.326984
 21
382.916953
 31
0.0
  0
LINE
  5
7E
100
AcDbEntity
  8
0
  6
HIDDEN
 62
   174
100
AcDbLine
 10
535.100486
 20
332.916953
 30
0.0
 11
529.326984
 21
342.916953
 31
0.0
  0
LINE
  5
7F
100
AcDbEntity
  8
0
  6
HIDDEN
 62
   174
100
AcDbLine
 10
162.100486
 20
396.321098
 30
0.0
 11
162.100486
 21
329.684197
 31
0.0
  0
LINE
  5
80
100
AcDbEntity
  8
0
  6
HIDDEN
 62
   174
100
AcDbLine
 10
110.100486
 20
332.916953
 30
0.0
 11
170.100486
 21
332.916953
 31
0.0
  0
LINE
  5
81
100
AcDbEntity
  8
0
  6
HIDDEN
 62
   174
100
AcDbLine
 10
543.100486
 20
396.236953
 30
0.0
 11
595.100486
 21
396.236953
 31
0.0
  0
LINE
  5
82
100
AcDbEntity
  8
0
  6
HIDDEN
 62
   174
100
AcDbLine
 10
595.100486
 20
332.916953
 30
0.0
 11
535.100486
 21
332.916953
 31
0.0
  0
LINE
  5
83
100
AcDbEntity
  8
0
  6
HIDDEN
 62
   174
100
AcDbLine
 10
190.200486
 20
411.916953
 30
0.0
 11
190.200486
 21
412.916953
 31
0.0
  0
LINE
  5
84
100
AcDbEntity
  8
0
  6
HIDDEN
 62
   174
100
AcDbLine
 10
411.100486
 20
411.916953
 30
0.0
 11
411.100486
 21
410.916953
 31
0.0
  0
LINE
  5
85
100
AcDbEntity
  8
0
  6
HIDDEN
 62
   174
100
AcDbLine
 10
383.100486
 20
411.916953
 30
0.0
 11
383.100486
 21
410.916953
 31
0.0
  0
LINE
  5
86
100
AcDbEntity
  8
0
  6
HIDDEN
 62
   174
100
AcDbLine
 10
383.100486
 20
411.916953
 30
0.0
 11
383.100486
 21
410.916953
 31
0.0
  0
LINE
  5
87
100
AcDbEntity
  8
0
  6
HIDDEN
 62
   174
100
AcDbLine
 10
411.100486
 20
411.916953
 30
0.0
 11
411.100486
 21
410.916953
 31
0.0
  0
LINE
  5
88
100
AcDbEntity
  8
0
  6
HIDDEN
 62
   174
100
AcDbLine
 10
175.873989
 20
342.916953
 30
0.0
 11
529.326984
 21
342.916953
 31
0.0
  0
LINE
  5
89
100
AcDbEntity
  8
0
  6
HIDDEN
 62
   174
100
AcDbLine
 10
175.873989
 20
342.916953
 30
0.0
 11
529.326984
 21
342.916953
 31
0.0
  0
LINE
  5
8A
100
AcDbEntity
  8
0
  6
HIDDEN
 62
   174
100
AcDbLine
 10
535.100486
 20
332.916953
 30
0.0
 11
529.326984
 21
342.916953
 31
0.0
  0
LINE
  5
8B
100
AcDbEntity
  8
0
  6
HIDDEN
 62
   174
100
AcDbLine
 10
233.100486
 20
411.916953
 30
0.0
 11
233.100486
 21
410.916953
 31
0.0
  0
LINE
  5
8C
100
AcDbEntity
  8
0
  6
HIDDEN
 62
   174
100
AcDbLine
 10
233.086287
 20
410.916953
 30
0.0
 11
205.08807
 21
410.916953
 31
0.0
  0
LINE
  5
8D
100
AcDbEntity
  8
0
  6
HIDDEN
 62
   174
100
AcDbLine
 10
162.100486
 20
396.236953
 30
0.0
 11
110.100486
 21
396.236953
 31
0.0
  0
LINE
  5
8E
100
AcDbEntity
  8
0
  6
HIDDEN
 62
   174
100
AcDbLine
 10
162.100486
 20
392.916953
 30
0.0
 11
110.100486
 21
392.916953
 31
0.0
  0
LINE
  5
8F
100
AcDbEntity
  8
0
  6
HIDDEN
 62
   174
100
AcDbLine
 10
247.100486
 20
411.916953
 30
0.0
 11
247.100486
 21
412.916953
 31
0.0
  0
LINE
  5
90
100
AcDbEntity
  8
0
  6
HIDDEN
 62
   174
100
AcDbLine
 10
257.100486
 20
411.916953
 30
0.0
 11
257.100486
 21
412.916953
 31
0.0
  0
LINE
  5
91
100
AcDbEntity
  8
0
  6
HIDDEN
 62
   174
100
AcDbLine
 10
257.100486
 20
411.916953
 30
0.0
 11
257.100486
 21
412.916953
 31
0.0
  0
LINE
  5
92
100
AcDbEntity
  8
0
  6
HIDDEN
 62
   174
100
AcDbLine
 10
383.100486
 20
411.916953
 30
0.0
 11
383.100486
 21
410.916953
 31
0.0
  0
LINE
  5
93
100
AcDbEntity
  8
0
  6
HIDDEN
 62
   174
100
AcDbLine
 10
383.100486
 20
411.916953
 30
0.0
 11
383.100486
 21
410.916953
 31
0.0
  0
LINE
  5
94
100
AcDbEntity
  8
0
  6
HIDDEN
 62
   174
100
AcDbLine
 10
411.100486
 20
411.916953
 30
0.0
 11
411.100486
 21
410.916953
 31
0.0
  0
LINE
  5
95
100
AcDbEntity
  8
0
  6
HIDDEN
 62
   174
100
AcDbLine
 10
535.100486
 20
392.916953
 30
0.0
 11
529.326984
 21
382.916953
 31
0.0
  0
LINE
  5
96
100
AcDbEntity
  8
0
  6
HIDDEN
 62
   174
100
AcDbLine
 10
205.100486
 20
411.916953
 30
0.0
 11
205.100486
 21
410.916953
 31
0.0
  0
LINE
  5
97
100
AcDbEntity
  8
0
  6
HIDDEN
 62
   174
100
AcDbLine
 10
162.100486
 20
329.596953
 30
0.0
 11
110.100486
 21
329.596953
 31
0.0
  0
LINE
  5
98
100
AcDbEntity
  8
0
  6
HIDDEN
 62
   174
100
AcDbLine
 10
110.100486
 20
392.916953
 30
0.0
 11
170.100486
 21
392.916953
 31
0.0
  0
LINE
  5
99
100
AcDbEntity
  8
0
  6
HIDDEN
 62
   174
100
AcDbLine
 10
543.100486
 20
396.236953
 30
0.0
 11
595.100486
 21
396.236953
 31
0.0
  0
LINE
  5
9A
100
AcDbEntity
  8
0
  6
HIDDEN
 62
   174
100
AcDbLine
 10
543.100486
 20
329.596953
 30
0.0
 11
595.100486
 21
329.596953
 31
0.0
  0
LINE
  5
9B
100
AcDbEntity
  8
0
  6
HIDDEN
 62
   174
100
AcDbLine
 10
595.100486
 20
392.916953
 30
0.0
 11
535.100486
 21
392.916953
 31
0.0
  0
LINE
  5
9C
100
AcDbEntity
  8
0
  6
HIDDEN
 62
   174
100
AcDbLine
 10
434.174182
 20
411.916953
 30
0.0
 11
425.974726
 21
411.916953
 31
0.0
  0
LINE
  5
9D
100
AcDbEntity
  8
0
  6
HIDDEN
 62
   174
100
AcDbLine
 10
294.100486
 20
411.916953
 30
0.0
 11
294.100486
 21
410.916953
 31
0.0
  0
LINE
  5
9E
100
AcDbEntity
  8
0
  6
HIDDEN
 62
   174
100
AcDbLine
 10
518.100486
 20
412.916953
 30
0.0
 11
518.100486
 21
411.916953
 31
0.0
  0
LINE
  5
9F
100
AcDbEntity
  8
0
  6
HIDDEN
 62
   174
100
AcDbLine
 10
187.100486
 20
412.916953
 30
0.0
 11
187.100486
 21
411.916953
 31
0.0
  0
LINE
  5
A0
100
AcDbEntity
  8
0
  6
HIDDEN
 62
   174
100
AcDbLine
 10
595.100486
 20
332.916953
 30
0.0
 11
535.100486
 21
332.916953
 31
0.0
  0
LINE
  5
A1
100
AcDbEntity
  8
0
  6
HIDDEN
 62
   174
100
AcDbLine
 10
456.374251
 20
412.916953
 30
0.0
 11
471.890118
 21
412.916953
 31
0.0
  0
LINE
  5
A2
100
AcDbEntity
  8
0
  6
HIDDEN
 62
   174
100
AcDbLine
 10
560.100486
 20
412.916953
 30
0.0
 11
560.100486
 21
312.916953
 31
0.0
  0
LINE
  5
A3
100
AcDbEntity
  8
0
  6
HIDDEN
 62
   174
100
AcDbLine
 10
170.100486
 20
393.001253
 30
0.0
 11
170.100486
 21
333.004042
 31
0.0
  0
LINE
  5
A4
100
AcDbEntity
  8
0
  6
HIDDEN
 62
   174
100
AcDbLine
 10
500.069997
 20
410.916953
 30
0.0
 11
472.07178
 21
410.916953
 31
0.0
  0
LINE
  5
A5
100
AcDbEntity
  8
0
  6
HIDDEN
 62
   174
100
AcDbLine
 10
368.200486
 20
412.916953
 30
0.0
 11
368.200486
 21
411.916953
 31
0.0
  0
LINE
  5
A6
100
AcDbEntity
  8
0
  6
HIDDEN
 62
   174
100
AcDbLine
 10
340.07984
 20
411.916953
 30
0.0
 11
276.083657
 21
411.916953
 31
0.0
  0
LINE
  5
A7
100
AcDbEntity
  8
0
  6
HIDDEN
 62
   174
100
AcDbLine
 10
170.100486
 20
332.916953
 30
0.0
 11
175.873989
 21
342.916953
 31
0.0
  0
LINE
  5
A8
100
AcDbEntity
  8
0
  6
HIDDEN
 62
   174
100
AcDbLine
 10
472.100486
 20
411.916953
 30
0.0
 11
472.100486
 21
410.916953
 31
0.0
  0
LINE
  5
A9
100
AcDbEntity
  8
0
  6
HIDDEN
 62
   174
100
AcDbLine
 10
346.100486
 20
411.916953
 30
0.0
 11
346.100486
 21
412.916953
 31
0.0
  0
LINE
  5
AA
100
AcDbEntity
  8
0
  6
HIDDEN
 62
   174
100
AcDbLine
 10
322.100486
 20
411.916953
 30
0.0
 11
322.100486
 21
410.916953
 31
0.0
  0
LINE
  5
AB
100
AcDbEntity
  8
0
  6
HIDDEN
 62
   174
100
AcDbLine
 10
515.000486
 20
412.916953
 30
0.0
 11
515.000486
 21
411.916953
 31
0.0
  0
LINE
  5
AC
100
AcDbEntity
  8
0
  6
HIDDEN
 62
   174
100
AcDbLine
 10
515.000486
 20
412.916953
 30
0.0
 11
515.000486
 21
411.916953
 31
0.0
  0
LINE
  5
AD
100
AcDbEntity
  8
0
  6
HIDDEN
 62
   174
100
AcDbLine
 10
294.100486
 20
411.916953
 30
0.0
 11
294.100486
 21
410.916953
 31
0.0
  0
LINE
  5
AE
100
AcDbEntity
  8
0
  6
HIDDEN
 62
   174
100
AcDbLine
 10
543.100486
 20
329.596953
 30
0.0
 11
595.100486
 21
329.596953
 31
0.0
  0
LINE
  5
AF
100
AcDbEntity
  8
0
  6
HIDDEN
 62
   174
100
AcDbLine
 10
340.07984
 20
411.916953
 30
0.0
 11
276.083657
 21
411.916953
 31
0.0
  0
LINE
  5
B0
100
AcDbEntity
  8
0
  6
HIDDEN
 62
   174
100
AcDbLine
 10
582.100486
 20
412.916953
 30
0.0
 11
582.100486
 21
312.916953
 31
0.0
  0
LINE
  5
B1
100
AcDbEntity
  8
0
  6
HIDDEN
 62
   174
100
AcDbLine
 10
523.200486
 20
411.916953
 30
0.0
 11
523.200486
 21
412.916953
 31
0.0
  0
LINE
  5
B2
100
AcDbEntity
  8
0
  6
HIDDEN
 62
   174
100
AcDbLine
 10
471.890118
 20
412.916953
 30
0.0
 11
500.251659
 21
412.916953
 31
0.0
  0
LINE
  5
B3
100
AcDbEntity
  8
0
  6
HIDDEN
 62
   174
100
AcDbLine
 10
524.068641
 20
412.916953
 30
0.0
 11
514.068805
 21
412.916953
 31
0.0
  0
LINE
  5
B4
100
AcDbEntity
  8
0
  6
HIDDEN
 62
   174
100
AcDbLine
 10
523.200486
 20
412.916953
 30
0.0
 11
523.200486
 21
411.916953
 31
0.0
  0
LINE
  5
B5
100
AcDbEntity
  8
0
  6
HIDDEN
 62
   174
100
AcDbLine
 10
523.200486
 20
412.916953
 30
0.0
 11
523.200486
 21
411.916953
 31
0.0
  0
LINE
  5
B6
100
AcDbEntity
  8
0
  6
HIDDEN
 62
   174
100
AcDbLine
 10
336.100486
 20
411.916953
 30
0.0
 11
336.100486
 21
412.916953
 31
0.0
  0
LINE
  5
B7
100
AcDbEntity
  8
0
  6
HIDDEN
 62
   174
100
AcDbLine
 10
170.100486
 20
332.916953
 30
0.0
 11
175.873989
 21
342.916953
 31
0.0
  0
LINE
  5
B8
100
AcDbEntity
  8
0
  6
HIDDEN
 62
   174
100
AcDbLine
 10
233.267949
 20
412.916953
 30
0.0
 11
248.783816
 21
412.916953
 31
0.0
  0
LINE
  5
B9
100
AcDbEntity
  8
0
  6
HIDDEN
 62
   174
100
AcDbLine
 10
322.100486
 20
411.916953
 30
0.0
 11
322.100486
 21
410.916953
 31
0.0
  0
LINE
  5
BA
100
AcDbEntity
  8
0
  6
HIDDEN
 62
   174
100
AcDbLine
 10
515.000486
 20
411.916953
 30
0.0
 11
515.000486
 21
412.916953
 31
0.0
  0
LINE
  5
BB
100
AcDbEntity
  8
0
  6
HIDDEN
 62
   174
100
AcDbLine
 10
368.200486
 20
411.916953
 30
0.0
 11
368.200486
 21
412.916953
 31
0.0
  0
LINE
  5
BC
100
AcDbEntity
  8
0
  6
HIDDEN
 62
   174
100
AcDbLine
 10
336.980156
 20
412.916953
 30
0.0
 11
338.18081
 21
412.916953
 31
0.0
  0
LINE
  5
BD
100
AcDbEntity
  8
0
  6
HIDDEN
 62
   174
100
AcDbLine
 10
582.100486
 20
412.916953
 30
0.0
 11
582.100486
 21
312.916953
 31
0.0
  0
LINE
  5
BE
100
AcDbEntity
  8
0
  6
HIDDEN
 62
   174
100
AcDbLine
 10
270.983885
 20
412.916953
 30
0.0
 11
279.183342
 21
412.916953
 31
0.0
  0
LINE
  5
BF
100
AcDbEntity
  8
0
  6
HIDDEN
 62
   174
100
AcDbLine
 10
270.100486
 20
411.916953
 30
0.0
 11
270.100486
 21
412.916953
 31
0.0
  0
LINE
  5
C0
100
AcDbEntity
  8
0
  6
HIDDEN
 62
   174
100
AcDbLine
 10
170.100486
 20
393.001253
 30
0.0
 11
170.100486
 21
333.004042
 31
0.0
  0
LINE
  5
C1
100
AcDbEntity
  8
0
  6
HIDDEN
 62
   174
100
AcDbLine
 10
170.100486
 20
392.916953
 30
0.0
 11
175.873989
 21
382.916953
 31
0.0
  0
LINE
  5
C2
100
AcDbEntity
  8
0
  6
HIDDEN
 62
   174
100
AcDbLine
 10
500.251659
 20
412.916953
 30
0.0
 11
515.766925
 21
412.916953
 31
0.0
  0
LINE
  5
C3
100
AcDbEntity
  8
0
  6
HIDDEN
 62
   174
100
AcDbLine
 10
524.100486
 20
411.916953
 30
0.0
 11
524.100486
 21
412.916953
 31
0.0
  0
LINE
  5
C4
100
AcDbEntity
  8
0
  6
HIDDEN
 62
   174
100
AcDbLine
 10
251.08527
 20
411.916953
 30
0.0
 11
187.089087
 21
411.916953
 31
0.0
  0
LINE
  5
C5
100
AcDbEntity
  8
0
  6
HIDDEN
 62
   174
100
AcDbLine
 10
276.100486
 20
412.916953
 30
0.0
 11
276.100486
 21
411.916953
 31
0.0
  0
LINE
  5
C6
100
AcDbEntity
  8
0
  6
HIDDEN
 62
   174
100
AcDbLine
 10
523.200486
 20
411.916953
 30
0.0
 11
523.200486
 21
412.916953
 31
0.0
  0
LINE
  5
C7
100
AcDbEntity
  8
0
  6
HIDDEN
 62
   174
100
AcDbLine
 10
294.100486
 20
411.916953
 30
0.0
 11
294.100486
 21
410.916953
 31
0.0
  0
LINE
  5
C8
100
AcDbEntity
  8
0
  6
HIDDEN
 62
   174
100
AcDbLine
 10
280.100486
 20
411.916953
 30
0.0
 11
280.100486
 21
412.916953
 31
0.0
  0
LINE
  5
C9
100
AcDbEntity
  8
0
  6
HIDDEN
 62
   174
100
AcDbLine
 10
500.069997
 20
411.916953
 30
0.0
 11
472.07178
 21
411.916953
 31
0.0
  0
LINE
  5
CA
100
AcDbEntity
  8
0
  6
HIDDEN
 62
   174
100
AcDbLine
 10
248.783816
 20
412.916953
 30
0.0
 11
251.08527
 21
412.916953
 31
0.0
  0
LINE
  5
CB
100
AcDbEntity
  8
0
  6
HIDDEN
 62
   174
100
AcDbLine
 10
322.080857
 20
411.916953
 30
0.0
 11
294.08264
 21
411.916953
 31
0.0
  0
LINE
  5
CC
100
AcDbEntity
  8
0
  6
HIDDEN
 62
   174
100
AcDbLine
 10
175.873989
 20
343.003878
 30
0.0
 11
175.873989
 21
383.002019
 31
0.0
  0
LINE
  5
CD
100
AcDbEntity
  8
0
  6
HIDDEN
 62
   174
100
AcDbLine
 10
340.100486
 20
412.916953
 30
0.0
 11
340.100486
 21
411.916953
 31
0.0
  0
LINE
  5
CE
100
AcDbEntity
  8
0
  6
HIDDEN
 62
   174
100
AcDbLine
 10
170.100486
 20
332.916953
 30
0.0
 11
175.873989
 21
342.916953
 31
0.0
  0
LINE
  5
CF
100
AcDbEntity
  8
0
  6
HIDDEN
 62
   174
100
AcDbLine
 10
170.100486
 20
392.916953
 30
0.0
 11
175.873989
 21
382.916953
 31
0.0
  0
LINE
  5
D0
100
AcDbEntity
  8
0
  6
HIDDEN
 62
   174
100
AcDbLine
 10
276.083657
 20
412.916953
 30
0.0
 11
278.385111
 21
412.916953
 31
0.0
  0
LINE
  5
D1
100
AcDbEntity
  8
0
  6
HIDDEN
 62
   174
100
AcDbLine
 10
429.07441
 20
411.916953
 30
0.0
 11
365.078227
 21
411.916953
 31
0.0
  0
LINE
  5
D2
100
AcDbEntity
  8
0
  6
HIDDEN
 62
   174
100
AcDbLine
 10
454.100486
 20
412.916953
 30
0.0
 11
454.100486
 21
411.916953
 31
0.0
  0
LINE
  5
D3
100
AcDbEntity
  8
0
  6
HIDDEN
 62
   174
100
AcDbLine
 10
251.100486
 20
412.916953
 30
0.0
 11
251.100486
 21
411.916953
 31
0.0
  0
LINE
  5
D4
100
AcDbEntity
  8
0
  6
HIDDEN
 62
   174
100
AcDbLine
 10
456.374251
 20
412.916953
 30
0.0
 11
471.890118
 21
412.916953
 31
0.0
  0
LINE
  5
D5
100
AcDbEntity
  8
0
  6
HIDDEN
 62
   174
100
AcDbLine
 10
280.100486
 20
411.916953
 30
0.0
 11
280.100486
 21
412.916953
 31
0.0
  0
LINE
  5
D6
100
AcDbEntity
  8
0
  6
HIDDEN
 62
   174
100
AcDbLine
 10
524.100486
 20
411.916953
 30
0.0
 11
524.100486
 21
412.916953
 31
0.0
  0
LINE
  5
D7
100
AcDbEntity
  8
0
  6
HIDDEN
 62
   174
100
AcDbLine
 10
359.978455
 20
412.916953
 30
0.0
 11
368.177912
 21
412.916953
 31
0.0
  0
LINE
  5
D8
100
AcDbEntity
  8
0
  6
HIDDEN
 62
   174
100
AcDbLine
 10
337.778386
 20
412.916953
 30
0.0
 11
340.07984
 21
412.916953
 31
0.0
  0
LINE
  5
D9
100
AcDbEntity
  8
0
  6
HIDDEN
 62
   174
100
AcDbLine
 10
365.078227
 20
412.916953
 30
0.0
 11
367.379681
 21
412.916953
 31
0.0
  0
LINE
  5
DA
100
AcDbEntity
  8
0
  6
HIDDEN
 62
   174
100
AcDbLine
 10
500.100486
 20
411.916953
 30
0.0
 11
500.100486
 21
410.916953
 31
0.0
  0
LINE
  5
DB
100
AcDbEntity
  8
0
  6
HIDDEN
 62
   174
100
AcDbLine
 10
365.100486
 20
412.916953
 30
0.0
 11
365.100486
 21
411.916953
 31
0.0
  0
LINE
  5
DC
100
AcDbEntity
  8
0
  6
HIDDEN
 62
   174
100
AcDbLine
 10
276.083657
 20
412.916953
 30
0.0
 11
278.385111
 21
412.916953
 31
0.0
  0
LINE
  5
DD
100
AcDbEntity
  8
0
  6
HIDDEN
 62
   174
100
AcDbLine
 10
515.766925
 20
412.916953
 30
0.0
 11
518.06898
 21
412.916953
 31
0.0
  0
LINE
  5
DE
100
AcDbEntity
  8
0
  6
HIDDEN
 62
   174
100
AcDbLine
 10
524.068641
 20
411.916953
 30
0.0
 11
514.068805
 21
411.916953
 31
0.0
  0
LINE
  5
DF
100
AcDbEntity
  8
0
  6
HIDDEN
 62
   174
100
AcDbLine
 10
369.077801
 20
411.916953
 30
0.0
 11
359.078566
 21
411.916953
 31
0.0
  0
LINE
  5
E0
100
AcDbEntity
  8
0
  6
HIDDEN
 62
   174
100
AcDbLine
 10
514.968694
 20
412.916953
 30
0.0
 11
516.16995
 21
412.916953
 31
0.0
  0
LINE
  5
E1
100
AcDbEntity
  8
0
  6
HIDDEN
 62
   174
100
AcDbLine
 10
276.100486
 20
412.916953
 30
0.0
 11
276.100486
 21
411.916953
 31
0.0
  0
LINE
  5
E2
100
AcDbEntity
  8
0
  6
HIDDEN
 62
   174
100
AcDbLine
 10
454.100486
 20
412.916953
 30
0.0
 11
454.100486
 21
411.916953
 31
0.0
  0
LINE
  5
E3
100
AcDbEntity
  8
0
  6
HIDDEN
 62
   174
100
AcDbLine
 10
279.200486
 20
412.916953
 30
0.0
 11
279.200486
 21
411.916953
 31
0.0
  0
LINE
  5
E4
100
AcDbEntity
  8
0
  6
HIDDEN
 62
   174
100
AcDbLine
 10
435.100486
 20
411.916953
 30
0.0
 11
435.100486
 21
412.916953
 31
0.0
  0
LINE
  5
E5
100
AcDbEntity
  8
0
  6
HIDDEN
 62
   174
100
AcDbLine
 10
123.092904
 20
312.916953
 30
0.0
 11
145.09146
 21
312.916953
 31
0.0
  0
LINE
  5
E6
100
AcDbEntity
  8
0
  6
HIDDEN
 62
   174
100
AcDbLine
 10
518.06898
 20
411.916953
 30
0.0
 11
454.072797
 21
411.916953
 31
0.0
  0
LINE
  5
E7
100
AcDbEntity
  8
0
  6
HIDDEN
 62
   174
100
AcDbLine
 10
233.086287
 20
411.916953
 30
0.0
 11
205.08807
 21
411.916953
 31
0.0
  0
LINE
  5
E8
100
AcDbEntity
  8
0
  6
HIDDEN
 62
   174
100
AcDbLine
 10
382.895548
 20
412.916953
 30
0.0
 11
411.257089
 21
412.916953
 31
0.0
  0
LINE
  5
E9
100
AcDbEntity
  8
0
  6
HIDDEN
 62
   174
100
AcDbLine
 10
187.089087
 20
412.916953
 30
0.0
 11
189.390541
 21
412.916953
 31
0.0
  0
LINE
  5
EA
100
AcDbEntity
  8
0
  6
HIDDEN
 62
   174
100
AcDbLine
 10
145.100486
 20
412.916953
 30
0.0
 11
145.100486
 21
312.916953
 31
0.0
  0
LINE
  5
EB
100
AcDbEntity
  8
0
  6
HIDDEN
 62
   174
100
AcDbLine
 10
145.100486
 20
412.916953
 30
0.0
 11
145.100486
 21
312.916953
 31
0.0
  0
LINE
  5
EC
100
AcDbEntity
  8
0
  6
HIDDEN
 62
   174
100
AcDbLine
 10
514.100486
 20
411.916953
 30
0.0
 11
514.100486
 21
412.916953
 31
0.0
  0
LINE
  5
ED
100
AcDbEntity
  8
0
  6
HIDDEN
 62
   174
100
AcDbLine
 10
458.072371
 20
412.916953
 30
0.0
 11
448.073136
 21
412.916953
 31
0.0
  0
LINE
  5
EE
100
AcDbEntity
  8
0
  6
HIDDEN
 62
   174
100
AcDbLine
 10
322.100486
 20
411.916953
 30
0.0
 11
322.100486
 21
410.916953
 31
0.0
  0
LINE
  5
EF
100
AcDbEntity
  8
0
  6
HIDDEN
 62
   174
100
AcDbLine
 10
294.100486
 20
411.916953
 30
0.0
 11
294.100486
 21
410.916953
 31
0.0
  0
LINE
  5
F0
100
AcDbEntity
  8
0
  6
HIDDEN
 62
   174
100
AcDbLine
 10
518.100486
 20
412.916953
 30
0.0
 11
518.100486
 21
411.916953
 31
0.0
  0
LINE
  5
F1
100
AcDbEntity
  8
0
  6
HIDDEN
 62
   174
100
AcDbLine
 10
279.200486
 20
412.916953
 30
0.0
 11
279.200486
 21
411.916953
 31
0.0
  0
LINE
  5
F2
100
AcDbEntity
  8
0
  6
HIDDEN
 62
   174
100
AcDbLine
 10
271.000486
 20
411.916953
 30
0.0
 11
271.000486
 21
412.916953
 31
0.0
  0
LINE
  5
F3
100
AcDbEntity
  8
0
  6
HIDDEN
 62
   174
100
AcDbLine
 10
516.16995
 20
412.916953
 30
0.0
 11
519.068723
 21
412.916953
 31
0.0
  0
LINE
  5
F4
100
AcDbEntity
  8
0
  6
HIDDEN
 62
   174
100
AcDbLine
 10
175.873989
 20
343.003878
 30
0.0
 11
175.873989
 21
383.002019
 31
0.0
  0
LINE
  5
F5
100
AcDbEntity
  8
0
  6
HIDDEN
 62
   174
100
AcDbLine
 10
187.100486
 20
412.916953
 30
0.0
 11
187.100486
 21
411.916953
 31
0.0
  0
LINE
  5
F6
100
AcDbEntity
  8
0
  6
HIDDEN
 62
   174
100
AcDbLine
 10
472.100486
 20
411.916953
 30
0.0
 11
472.100486
 21
410.916953
 31
0.0
  0
LINE
  5
F7
100
AcDbEntity
  8
0
  6
HIDDEN
 62
   174
100
AcDbLine
 10
368.177912
 20
411.916953
 30
0.0
 11
359.978455
 21
411.916953
 31
0.0
  0
LINE
  5
F8
100
AcDbEntity
  8
0
  6
HIDDEN
 62
   174
100
AcDbLine
 10
449.000486
 20
411.916953
 30
0.0
 11
449.000486
 21
412.916953
 31
0.0
  0
LINE
  5
F9
100
AcDbEntity
  8
0
  6
HIDDEN
 62
   174
100
AcDbLine
 10
278.385111
 20
412.916953
 30
0.0
 11
293.900978
 21
412.916953
 31
0.0
  0
LINE
  5
FA
100
AcDbEntity
  8
0
  6
HIDDEN
 62
   174
100
AcDbLine
 10
543.100486
 20
332.916953
 30
0.0
 11
595.100486
 21
332.916953
 31
0.0
  0
LINE
  5
FB
100
AcDbEntity
  8
0
  6
HIDDEN
 62
   174
100
AcDbLine
 10
429.100486
 20
412.916953
 30
0.0
 11
429.100486
 21
411.916953
 31
0.0
  0
LINE
  5
FC
100
AcDbEntity
  8
0
  6
HIDDEN
 62
   174
100
AcDbLine
 10
518.100486
 20
412.916953
 30
0.0
 11
518.100486
 21
411.916953
 31
0.0
  0
LINE
  5
FD
100
AcDbEntity
  8
0
  6
HIDDEN
 62
   174
100
AcDbLine
 10
471.890118
 20
412.916953
 30
0.0
 11
500.251659
 21
412.916953
 31
0.0
  0
LINE
  5
FE
100
AcDbEntity
  8
0
  6
HIDDEN
 62
   174
100
AcDbLine
 10
280.08323
 20
411.916953
 30
0.0
 11
270.083996
 21
411.916953
 31
0.0
  0
LINE
  5
FF
100
AcDbEntity
  8
0
  6
HIDDEN
 62
   174
100
AcDbLine
 10
560.066005
 20
412.916953
 30
0.0
 11
582.065163
 21
412.916953
 31
0.0
  0
LINE
  5
100
100
AcDbEntity
  8
0
  6
HIDDEN
 62
   174
100
AcDbLine
 10
338.18081
 20
412.916953
 30
0.0
 11
345.179612
 21
412.916953
 31
0.0
  0
LINE
  5
101
100
AcDbEntity
  8
0
  6
HIDDEN
 62
   174
100
AcDbLine
 10
340.100486
 20
412.916953
 30
0.0
 11
340.100486
 21
411.916953
 31
0.0
  0
LINE
  5
102
100
AcDbEntity
  8
0
  6
Continuous
 62
   174
100
AcDbLine
 10
595.100486
 20
312.916953
 30
0.0
 11
110.100486
 21
312.916953
 31
0.0
  0
LINE
  5
103
100
AcDbEntity
  8
0
  6
HIDDEN
 62
   174
100
AcDbLine
 10
367.379681
 20
412.916953
 30
0.0
 11
382.895548
 21
412.916953
 31
0.0
  0
LINE
  5
104
100
AcDbEntity
  8
0
  6
HIDDEN
 62
   174
100
AcDbLine
 10
271.000486
 20
412.916953
 30
0.0
 11
271.000486
 21
411.916953
 31
0.0
  0
LINE
  5
105
100
AcDbEntity
  8
0
  6
HIDDEN
 62
   174
100
AcDbLine
 10
123.100486
 20
412.916953
 30
0.0
 11
123.100486
 21
312.916953
 31
0.0
  0
LINE
  5
106
100
AcDbEntity
  8
0
  6
HIDDEN
 62
   174
100
AcDbLine
 10
425.100486
 20
411.916953
 30
0.0
 11
425.100486
 21
412.916953
 31
0.0
  0
LINE
  5
107
100
AcDbEntity
  8
0
  6
HIDDEN
 62
   174
100
AcDbLine
 10
175.873989
 20
343.003878
 30
0.0
 11
175.873989
 21
383.002019
 31
0.0
  0
LINE
  5
108
100
AcDbEntity
  8
0
  6
HIDDEN
 62
   174
100
AcDbLine
 10
271.000486
 20
412.916953
 30
0.0
 11
271.000486
 21
411.916953
 31
0.0
  0
LINE
  5
109
100
AcDbEntity
  8
0
  6
HIDDEN
 62
   174
100
AcDbLine
 10
345.200486
 20
411.916953
 30
0.0
 11
345.200486
 21
412.916953
 31
0.0
  0
LINE
  5
10A
100
AcDbEntity
  8
0
  6
HIDDEN
 62
   174
100
AcDbLine
 10
435.074071
 20
411.916953
 30
0.0
 11
425.074235
 21
411.916953
 31
0.0
  0
LINE
  5
10B
100
AcDbEntity
  8
0
  6
HIDDEN
 62
   174
100
AcDbLine
 10
543.100486
 20
396.236953
 30
0.0
 11
595.100486
 21
396.236953
 31
0.0
  0
LINE
  5
10C
100
AcDbEntity
  8
0
  6
HIDDEN
 62
   174
100
AcDbLine
 10
322.100486
 20
411.916953
 30
0.0
 11
322.100486
 21
410.916953
 31
0.0
  0
LINE
  5
10D
100
AcDbEntity
  8
0
  6
HIDDEN
 62
   174
100
AcDbLine
 10
278.385111
 20
412.916953
 30
0.0
 11
293.900978
 21
412.916953
 31
0.0
  0
LINE
  5
10E
100
AcDbEntity
  8
0
  6
HIDDEN
 62
   174
100
AcDbLine
 10
426.000486
 20
412.916953
 30
0.0
 11
426.000486
 21
411.916953
 31
0.0
  0
LINE
  5
10F
100
AcDbEntity
  8
0
  6
HIDDEN
 62
   174
100
AcDbLine
 10
449.000486
 20
412.916953
 30
0.0
 11
449.000486
 21
411.916953
 31
0.0
  0
LINE
  5
110
100
AcDbEntity
  8
0
  6
HIDDEN
 62
   174
100
AcDbLine
 10
233.086287
 20
411.916953
 30
0.0
 11
205.08807
 21
411.916953
 31
0.0
  0
LINE
  5
111
100
AcDbEntity
  8
0
  6
HIDDEN
 62
   174
100
AcDbLine
 10
454.100486
 20
412.916953
 30
0.0
 11
454.100486
 21
411.916953
 31
0.0
  0
LINE
  5
112
100
AcDbEntity
  8
0
  6
HIDDEN
 62
   174
100
AcDbLine
 10
251.100486
 20
412.916953
 30
0.0
 11
251.100486
 21
411.916953
 31
0.0
  0
LINE
  5
113
100
AcDbEntity
  8
0
  6
HIDDEN
 62
   174
100
AcDbLine
 10
500.100486
 20
411.916953
 30
0.0
 11
500.100486
 21
410.916953
 31
0.0
  0
LINE
  5
114
100
AcDbEntity
  8
0
  6
HIDDEN
 62
   174
100
AcDbLine
 10
523.168752
 20
411.916953
 30
0.0
 11
514.968694
 21
411.916953
 31
0.0
  0
LINE
  5
115
100
AcDbEntity
  8
0
  6
HIDDEN
 62
   174
100
AcDbLine
 10
345.200486
 20
412.916953
 30
0.0
 11
345.200486
 21
411.916953
 31
0.0
  0
LINE
  5
116
100
AcDbEntity
  8
0
  6
HIDDEN
 62
   174
100
AcDbLine
 10
369.077801
 20
412.916953
 30
0.0
 11
359.078566
 21
412.916953
 31
0.0
  0
LINE
  5
117
100
AcDbEntity
  8
0
  6
HIDDEN
 62
   174
100
AcDbLine
 10
458.100486
 20
411.916953
 30
0.0
 11
458.100486
 21
412.916953
 31
0.0
  0
LINE
  5
118
100
AcDbEntity
  8
0
  6
HIDDEN
 62
   174
100
AcDbLine
 10
429.07441
 20
411.916953
 30
0.0
 11
365.078227
 21
411.916953
 31
0.0
  0
LINE
  5
119
100
AcDbEntity
  8
0
  6
HIDDEN
 62
   174
100
AcDbLine
 10
543.100486
 20
332.916953
 30
0.0
 11
595.100486
 21
332.916953
 31
0.0
  0
LINE
  5
11A
100
AcDbEntity
  8
0
  6
HIDDEN
 62
   174
100
AcDbLine
 10
187.100486
 20
412.916953
 30
0.0
 11
187.100486
 21
411.916953
 31
0.0
  0
LINE
  5
11B
100
AcDbEntity
  8
0
  6
HIDDEN
 62
   174
100
AcDbLine
 10
434.200486
 20
411.916953
 30
0.0
 11
434.200486
 21
412.916953
 31
0.0
  0
LINE
  5
11C
100
AcDbEntity
  8
0
  6
HIDDEN
 62
   174
100
AcDbLine
 10
110.100486
 20
333.004042
 30
0.0
 11
110.100486
 21
393.001253
 31
0.0
  0
LINE
  5
11D
100
AcDbEntity
  8
0
  6
HIDDEN
 62
   174
100
AcDbLine
 10
251.08527
 20
411.916953
 30
0.0
 11
187.089087
 21
411.916953
 31
0.0
  0
LINE
  5
11E
100
AcDbEntity
  8
0
  6
HIDDEN
 62
   174
100
AcDbLine
 10
365.100486
 20
412.916953
 30
0.0
 11
365.100486
 21
411.916953
 31
0.0
  0
LINE
  5
11F
100
AcDbEntity
  8
0
  6
HIDDEN
 62
   174
100
AcDbLine
 10
454.072797
 20
412.916953
 30
0.0
 11
456.374251
 21
412.916953
 31
0.0
  0
LINE
  5
120
100
AcDbEntity
  8
0
  6
HIDDEN
 62
   174
100
AcDbLine
 10
411.257089
 20
412.916953
 30
0.0
 11
429.07441
 21
412.916953
 31
0.0
  0
LINE
  5
121
100
AcDbEntity
  8
0
  6
HIDDEN
 62
   174
100
AcDbLine
 10
189.390541
 20
412.916953
 30
0.0
 11
204.906408
 21
412.916953
 31
0.0
  0
LINE
  5
122
100
AcDbEntity
  8
0
  6
HIDDEN
 62
   174
100
AcDbLine
 10
322.080857
 20
411.916953
 30
0.0
 11
294.08264
 21
411.916953
 31
0.0
  0
LINE
  5
123
100
AcDbEntity
  8
0
  6
HIDDEN
 62
   174
100
AcDbLine
 10
322.080857
 20
410.916953
 30
0.0
 11
294.08264
 21
410.916953
 31
0.0
  0
LINE
  5
124
100
AcDbEntity
  8
0
  6
HIDDEN
 62
   174
100
AcDbLine
 10
293.900978
 20
412.916953
 30
0.0
 11
322.262519
 21
412.916953
 31
0.0
  0
LINE
  5
125
100
AcDbEntity
  8
0
  6
HIDDEN
 62
   174
100
AcDbLine
 10
472.100486
 20
411.916953
 30
0.0
 11
472.100486
 21
410.916953
 31
0.0
  0
LINE
  5
126
100
AcDbEntity
  8
0
  6
HIDDEN
 62
   174
100
AcDbLine
 10
457.200486
 20
412.916953
 30
0.0
 11
457.200486
 21
411.916953
 31
0.0
  0
LINE
  5
127
100
AcDbEntity
  8
0
  6
HIDDEN
 62
   174
100
AcDbLine
 10
519.068723
 20
412.916953
 30
0.0
 11
523.168752
 21
412.916953
 31
0.0
  0
LINE
  5
128
100
AcDbEntity
  8
0
  6
HIDDEN
 62
   174
100
AcDbLine
 10
500.069997
 20
411.916953
 30
0.0
 11
472.07178
 21
411.916953
 31
0.0
  0
LINE
  5
129
100
AcDbEntity
  8
0
  6
HIDDEN
 62
   174
100
AcDbLine
 10
425.974726
 20
412.916953
 30
0.0
 11
427.17538
 21
412.916953
 31
0.0
  0
LINE
  5
12A
100
AcDbEntity
  8
0
  6
HIDDEN
 62
   174
100
AcDbLine
 10
175.873989
 20
343.003878
 30
0.0
 11
175.873989
 21
383.002019
 31
0.0
  0
LINE
  5
12B
100
AcDbEntity
  8
0
  6
HIDDEN
 62
   174
100
AcDbLine
 10
457.200486
 20
411.916953
 30
0.0
 11
457.200486
 21
412.916953
 31
0.0
  0
LINE
  5
12C
100
AcDbEntity
  8
0
  6
HIDDEN
 62
   174
100
AcDbLine
 10
458.100486
 20
411.916953
 30
0.0
 11
458.100486
 21
412.916953
 31
0.0
  0
LINE
  5
12D
100
AcDbEntity
  8
0
  6
HIDDEN
 62
   174
100
AcDbLine
 10
543.100486
 20
329.596953
 30
0.0
 11
595.100486
 21
329.596953
 31
0.0
  0
LINE
  5
12E
100
AcDbEntity
  8
0
  6
HIDDEN
 62
   174
100
AcDbLine
 10
543.100486
 20
392.916953
 30
0.0
 11
595.100486
 21
392.916953
 31
0.0
  0
LINE
  5
12F
100
AcDbEntity
  8
0
  6
HIDDEN
 62
   174
100
AcDbLine
 10
382.895548
 20
412.916953
 30
0.0
 11
411.257089
 21
412.916953
 31
0.0
  0
LINE
  5
130
100
AcDbEntity
  8
0
  6
HIDDEN
 62
   174
100
AcDbLine
 10
123.092904
 20
412.916953
 30
0.0
 11
145.09146
 21
412.916953
 31
0.0
  0
LINE
  5
131
100
AcDbEntity
  8
0
  6
HIDDEN
 62
   174
100
AcDbLine
 10
434.200486
 20
412.916953
 30
0.0
 11
434.200486
 21
411.916953
 31
0.0
  0
LINE
  5
132
100
AcDbEntity
  8
0
  6
HIDDEN
 62
   174
100
AcDbLine
 10
426.000486
 20
411.916953
 30
0.0
 11
426.000486
 21
412.916953
 31
0.0
  0
LINE
  5
133
100
AcDbEntity
  8
0
  6
HIDDEN
 62
   174
100
AcDbLine
 10
518.100486
 20
412.916953
 30
0.0
 11
518.100486
 21
411.916953
 31
0.0
  0
LINE
  5
134
100
AcDbEntity
  8
0
  6
HIDDEN
 62
   174
100
AcDbLine
 10
500.251659
 20
412.916953
 30
0.0
 11
518.06898
 21
412.916953
 31
0.0
  0
LINE
  5
135
100
AcDbEntity
  8
0
  6
HIDDEN
 62
   174
100
AcDbLine
 10
337.000486
 20
412.916953
 30
0.0
 11
337.000486
 21
411.916953
 31
0.0
  0
LINE
  5
136
100
AcDbEntity
  8
0
  6
HIDDEN
 62
   174
100
AcDbLine
 10
435.074071
 20
412.916953
 30
0.0
 11
425.074235
 21
412.916953
 31
0.0
  0
LINE
  5
137
100
AcDbEntity
  8
0
  6
HIDDEN
 62
   174
100
AcDbLine
 10
251.100486
 20
412.916953
 30
0.0
 11
251.100486
 21
411.916953
 31
0.0
  0
LINE
  5
138
100
AcDbEntity
  8
0
  6
HIDDEN
 62
   174
100
AcDbLine
 10
365.100486
 20
412.916953
 30
0.0
 11
365.100486
 21
411.916953
 31
0.0
  0
LINE
  5
139
100
AcDbEntity
  8
0
  6
HIDDEN
 62
   174
100
AcDbLine
 10
560.066005
 20
312.916953
 30
0.0
 11
582.065163
 21
312.916953
 31
0.0
  0
LINE
  5
13A
100
AcDbEntity
  8
0
  6
HIDDEN
 62
   174
100
AcDbLine
 10
110.100486
 20
333.004042
 30
0.0
 11
110.100486
 21
393.001253
 31
0.0
  0
LINE
  5
13B
100
AcDbEntity
  8
0
  6
HIDDEN
 62
   174
100
AcDbLine
 10
429.100486
 20
412.916953
 30
0.0
 11
429.100486
 21
411.916953
 31
0.0
  0
LINE
  5
13C
100
AcDbEntity
  8
0
  6
HIDDEN
 62
   174
100
AcDbLine
 10
187.089087
 20
412.916953
 30
0.0
 11
189.390541
 21
412.916953
 31
0.0
  0
LINE
  5
13D
100
AcDbEntity
  8
0
  6
HIDDEN
 62
   174
100
AcDbLine
 10
369.100486
 20
411.916953
 30
0.0
 11
369.100486
 21
412.916953
 31
0.0
  0
LINE
  5
13E
100
AcDbEntity
  8
0
  6
HIDDEN
 62
   174
100
AcDbLine
 10
457.200486
 20
411.916953
 30
0.0
 11
457.200486
 21
412.916953
 31
0.0
  0
LINE
  5
13F
100
AcDbEntity
  8
0
  6
HIDDEN
 62
   174
100
AcDbLine
 10
276.100486
 20
412.916953
 30
0.0
 11
276.100486
 21
411.916953
 31
0.0
  0
LINE
  5
140
100
AcDbEntity
  8
0
  6
HIDDEN
 62
   174
100
AcDbLine
 10
293.900978
 20
412.916953
 30
0.0
 11
322.262519
 21
412.916953
 31
0.0
  0
LINE
  5
141
100
AcDbEntity
  8
0
  6
HIDDEN
 62
   174
100
AcDbLine
 10
500.100486
 20
411.916953
 30
0.0
 11
500.100486
 21
410.916953
 31
0.0
  0
LINE
  5
142
100
AcDbEntity
  8
0
  6
HIDDEN
 62
   174
100
AcDbLine
 10
368.200486
 20
411.916953
 30
0.0
 11
368.200486
 21
412.916953
 31
0.0
  0
LINE
  5
143
100
AcDbEntity
  8
0
  6
HIDDEN
 62
   174
100
AcDbLine
 10
448.100486
 20
411.916953
 30
0.0
 11
448.100486
 21
412.916953
 31
0.0
  0
LINE
  5
144
100
AcDbEntity
  8
0
  6
HIDDEN
 62
   174
100
AcDbLine
 10
449.000486
 20
412.916953
 30
0.0
 11
449.000486
 21
411.916953
 31
0.0
  0
LINE
  5
145
100
AcDbEntity
  8
0
  6
HIDDEN
 62
   174
100
AcDbLine
 10
346.079501
 20
412.916953
 30
0.0
 11
336.080267
 21
412.916953
 31
0.0
  0
LINE
  5
146
100
AcDbEntity
  8
0
  6
HIDDEN
 62
   174
100
AcDbLine
 10
345.200486
 20
411.916953
 30
0.0
 11
345.200486
 21
412.916953
 31
0.0
  0
LINE
  5
147
100
AcDbEntity
  8
0
  6
HIDDEN
 62
   174
100
AcDbLine
 10
426.000486
 20
412.916953
 30
0.0
 11
426.000486
 21
411.916953
 31
0.0
  0
LINE
  5
148
100
AcDbEntity
  8
0
  6
HIDDEN
 62
   174
100
AcDbLine
 10
411.075427
 20
411.916953
 30
0.0
 11
383.07721
 21
411.916953
 31
0.0
  0
LINE
  5
149
100
AcDbEntity
  8
0
  6
HIDDEN
 62
   174
100
AcDbLine
 10
595.100486
 20
329.684197
 30
0.0
 11
595.100486
 21
396.321098
 31
0.0
  0
LINE
  5
14A
100
AcDbEntity
  8
0
  6
HIDDEN
 62
   174
100
AcDbLine
 10
322.080857
 20
410.916953
 30
0.0
 11
294.08264
 21
410.916953
 31
0.0
  0
LINE
  5
14B
100
AcDbEntity
  8
0
  6
HIDDEN
 62
   174
100
AcDbLine
 10
322.262519
 20
412.916953
 30
0.0
 11
340.07984
 21
412.916953
 31
0.0
  0
LINE
  5
14C
100
AcDbEntity
  8
0
  6
HIDDEN
 62
   174
100
AcDbLine
 10
204.906408
 20
412.916953
 30
0.0
 11
233.267949
 21
412.916953
 31
0.0
  0
LINE
  5
14D
100
AcDbEntity
  8
0
  6
HIDDEN
 62
   174
100
AcDbLine
 10
457.172482
 20
411.916953
 30
0.0
 11
448.973025
 21
411.916953
 31
0.0
  0
LINE
  5
14E
100
AcDbEntity
  8
0
  6
HIDDEN
 62
   174
100
AcDbLine
 10
345.200486
 20
412.916953
 30
0.0
 11
345.200486
 21
411.916953
 31
0.0
  0
LINE
  5
14F
100
AcDbEntity
  8
0
  6
HIDDEN
 62
   174
100
AcDbLine
 10
427.17538
 20
412.916953
 30
0.0
 11
430.074153
 21
412.916953
 31
0.0
  0
LINE
  5
150
100
AcDbEntity
  8
0
  6
HIDDEN
 62
   174
100
AcDbLine
 10
518.06898
 20
411.916953
 30
0.0
 11
454.072797
 21
411.916953
 31
0.0
  0
LINE
  5
151
100
AcDbEntity
  8
0
  6
HIDDEN
 62
   174
100
AcDbLine
 10
170.100486
 20
392.916953
 30
0.0
 11
175.873989
 21
382.916953
 31
0.0
  0
LINE
  5
152
100
AcDbEntity
  8
0
  6
HIDDEN
 62
   174
100
AcDbLine
 10
187.100486
 20
412.916953
 30
0.0
 11
187.100486
 21
411.916953
 31
0.0
  0
LINE
  5
153
100
AcDbEntity
  8
0
  6
HIDDEN
 62
   174
100
AcDbLine
 10
429.100486
 20
412.916953
 30
0.0
 11
429.100486
 21
411.916953
 31
0.0
  0
LINE
  5
154
100
AcDbEntity
  8
0
  6
HIDDEN
 62
   174
100
AcDbLine
 10
411.257089
 20
412.916953
 30
0.0
 11
426.772355
 21
412.916953
 31
0.0
  0
LINE
  5
155
100
AcDbEntity
  8
0
  6
HIDDEN
 62
   174
100
AcDbLine
 10
435.100486
 20
411.916953
 30
0.0
 11
435.100486
 21
412.916953
 31
0.0
  0
LINE
  5
156
100
AcDbEntity
  8
0
  6
HIDDEN
 62
   174
100
AcDbLine
 10
595.100486
 20
392.916953
 30
0.0
 11
535.100486
 21
392.916953
 31
0.0
  0
LINE
  5
157
100
AcDbEntity
  8
0
  6
Continuous
 62
   174
100
AcDbLine
 10
110.100486
 20
412.916953
 30
0.0
 11
110.100486
 21
312.916953
 31
0.0
  0
LINE
  5
158
100
AcDbEntity
  8
0
  6
Continuous
 62
   174
100
AcDbLine
 10
595.100486
 20
412.916953
 30
0.0
 11
110.100486
 21
412.916953
 31
0.0
  0
LINE
  5
159
100
AcDbEntity
  8
0
  6
HIDDEN
 62
   174
100
AcDbLine
 10
280.08323
 20
412.916953
 30
0.0
 11
270.083996
 21
412.916953
 31
0.0
  0
LINE
  5
15A
100
AcDbEntity
  8
0
  6
HIDDEN
 62
   174
100
AcDbLine
 10
369.100486
 20
411.916953
 30
0.0
 11
369.100486
 21
412.916953
 31
0.0
  0
LINE
  5
15B
100
AcDbEntity
  8
0
  6
HIDDEN
 62
   174
100
AcDbLine
 10
448.973025
 20
412.916953
 30
0.0
 11
457.172482
 21
412.916953
 31
0.0
  0
LINE
  5
15C
100
AcDbEntity
  8
0
  6
HIDDEN
 62
   174
100
AcDbLine
 10
340.100486
 20
412.916953
 30
0.0
 11
340.100486
 21
411.916953
 31
0.0
  0
LINE
  5
15D
100
AcDbEntity
  8
0
  6
HIDDEN
 62
   174
100
AcDbLine
 10
472.100486
 20
411.916953
 30
0.0
 11
472.100486
 21
410.916953
 31
0.0
  0
LINE
  5
15E
100
AcDbEntity
  8
0
  6
HIDDEN
 62
   174
100
AcDbLine
 10
337.000486
 20
411.916953
 30
0.0
 11
337.000486
 21
412.916953
 31
0.0
  0
LINE
  5
15F
100
AcDbEntity
  8
0
  6
HIDDEN
 62
   174
100
AcDbLine
 10
360.000486
 20
411.916953
 30
0.0
 11
360.000486
 21
412.916953
 31
0.0
  0
LINE
  5
160
100
AcDbEntity
  8
0
  6
Continuous
 62
   174
100
AcDbLine
 10
595.100486
 20
412.916953
 30
0.0
 11
595.100486
 21
312.916953
 31
0.0
  0
LINE
  5
161
100
AcDbEntity
  8
0
  6
HIDDEN
 62
   174
100
AcDbLine
 10
346.079501
 20
411.916953
 30
0.0
 11
336.080267
 21
411.916953
 31
0.0
  0
LINE
  5
162
100
AcDbEntity
  8
0
  6
HIDDEN
 62
   174
100
AcDbLine
 10
434.200486
 20
411.916953
 30
0.0
 11
434.200486
 21
412.916953
 31
0.0
  0
LINE
  5
163
100
AcDbEntity
  8
0
  6
HIDDEN
 62
   174
100
AcDbLine
 10
434.200486
 20
412.916953
 30
0.0
 11
434.200486
 21
411.916953
 31
0.0
  0
LINE
  5
164
100
AcDbEntity
  8
0
  6
HIDDEN
 62
   174
100
AcDbLine
 10
345.179612
 20
411.916953
 30
0.0
 11
336.980156
 21
411.916953
 31
0.0
  0
LINE
  5
165
100
AcDbEntity
  8
0
  6
HIDDEN
 62
   174
100
AcDbLine
 10
279.183342
 20
411.916953
 30
0.0
 11
270.983885
 21
411.916953
 31
0.0
  0
LINE
  5
166
100
AcDbEntity
  8
0
  6
HIDDEN
 62
   174
100
AcDbLine
 10
279.200486
 20
411.916953
 30
0.0
 11
279.200486
 21
412.916953
 31
0.0
  0
LINE
  5
167
100
AcDbEntity
  8
0
  6
HIDDEN
 62
   174
100
AcDbLine
 10
595.100486
 20
332.916953
 30
0.0
 11
535.100486
 21
332.916953
 31
0.0
  0
LINE
  5
168
100
AcDbEntity
  8
0
  6
HIDDEN
 62
   174
100
AcDbLine
 10
322.262519
 20
412.916953
 30
0.0
 11
337.778386
 21
412.916953
 31
0.0
  0
LINE
  5
169
100
AcDbEntity
  8
0
  6
HIDDEN
 62
   174
100
AcDbLine
 10
365.078227
 20
412.916953
 30
0.0
 11
367.379681
 21
412.916953
 31
0.0
  0
LINE
  5
16A
100
AcDbEntity
  8
0
  6
HIDDEN
 62
   174
100
AcDbLine
 10
189.390541
 20
412.916953
 30
0.0
 11
204.906408
 21
412.916953
 31
0.0
  0
LINE
  5
16B
100
AcDbEntity
  8
0
  6
HIDDEN
 62
   174
100
AcDbLine
 10
346.100486
 20
411.916953
 30
0.0
 11
346.100486
 21
412.916953
 31
0.0
  0
LINE
  5
16C
100
AcDbEntity
  8
0
  6
HIDDEN
 62
   174
100
AcDbLine
 10
457.200486
 20
412.916953
 30
0.0
 11
457.200486
 21
411.916953
 31
0.0
  0
LINE
  5
16D
100
AcDbEntity
  8
0
  6
HIDDEN
 62
   174
100
AcDbLine
 10
411.075427
 20
411.916953
 30
0.0
 11
383.07721
 21
411.916953
 31
0.0
  0
LINE
  5
16E
100
AcDbEntity
  8
0
  6
HIDDEN
 62
   174
100
AcDbLine
 10
251.100486
 20
412.916953
 30
0.0
 11
251.100486
 21
411.916953
 31
0.0
  0
LINE
  5
16F
100
AcDbEntity
  8
0
  6
HIDDEN
 62
   174
100
AcDbLine
 10
365.100486
 20
412.916953
 30
0.0
 11
365.100486
 21
411.916953
 31
0.0
  0
LINE
  5
170
100
AcDbEntity
  8
0
  6
HIDDEN
 62
   174
100
AcDbLine
 10
337.000486
 20
412.916953
 30
0.0
 11
337.000486
 21
411.916953
 31
0.0
  0
LINE
  5
171
100
AcDbEntity
  8
0
  6
HIDDEN
 62
   174
100
AcDbLine
 10
368.200486
 20
412.916953
 30
0.0
 11
368.200486
 21
411.916953
 31
0.0
  0
LINE
  5
172
100
AcDbEntity
  8
0
  6
HIDDEN
 62
   174
100
AcDbLine
 10
430.074153
 20
412.916953
 30
0.0
 11
434.174182
 21
412.916953
 31
0.0
  0
LINE
  5
173
100
AcDbEntity
  8
0
  6
HIDDEN
 62
   174
100
AcDbLine
 10
170.100486
 20
332.916953
 30
0.0
 11
175.873989
 21
342.916953
 31
0.0
  0
LINE
  5
174
100
AcDbEntity
  8
0
  6
HIDDEN
 62
   174
100
AcDbLine
 10
359.100486
 20
411.916953
 30
0.0
 11
359.100486
 21
412.916953
 31
0.0
  0
LINE
  5
175
100
AcDbEntity
  8
0
  6
HIDDEN
 62
   174
100
AcDbLine
 10
170.100486
 20
393.001253
 30
0.0
 11
170.100486
 21
333.004042
 31
0.0
  0
LINE
  5
176
100
AcDbEntity
  8
0
  6
HIDDEN
 62
   174
100
AcDbLine
 10
276.100486
 20
412.916953
 30
0.0
 11
276.100486
 21
411.916953
 31
0.0
  0
LINE
  5
177
100
AcDbEntity
  8
0
  6
HIDDEN
 62
   174
100
AcDbLine
 10
500.100486
 20
411.916953
 30
0.0
 11
500.100486
 21
410.916953
 31
0.0
  0
LINE
  5
178
100
AcDbEntity
  8
0
  6
HIDDEN
 62
   174
100
AcDbLine
 10
426.772355
 20
412.916953
 30
0.0
 11
429.07441
 21
412.916953
 31
0.0
  0
LINE
  5
179
100
AcDbEntity
  8
0
  6
HIDDEN
 62
   174
100
AcDbLine
 10
233.267949
 20
412.916953
 30
0.0
 11
251.08527
 21
412.916953
 31
0.0
  0
LINE
  5
17A
100
AcDbEntity
  8
0
  6
HIDDEN
 62
   174
100
AcDbLine
 10
360.000486
 20
412.916953
 30
0.0
 11
360.000486
 21
411.916953
 31
0.0
  0
LINE
  5
17B
100
AcDbEntity
  8
0
  6
HIDDEN
 62
   174
100
AcDbLine
 10
543.100486
 20
396.236953
 30
0.0
 11
595.100486
 21
396.236953
 31
0.0
  0
LINE
  5
17C
100
AcDbEntity
  8
0
  6
HIDDEN
 62
   174
100
AcDbLine
 10
454.100486
 20
412.916953
 30
0.0
 11
454.100486
 21
411.916953
 31
0.0
  0
LINE
  5
17D
100
AcDbEntity
  8
0
  6
HIDDEN
 62
   174
100
AcDbLine
 10
454.072797
 20
412.916953
 30
0.0
 11
456.374251
 21
412.916953
 31
0.0
  0
LINE
  5
17E
100
AcDbEntity
  8
0
  6
HIDDEN
 62
   174
100
AcDbLine
 10
500.069997
 20
410.916953
 30
0.0
 11
472.07178
 21
410.916953
 31
0.0
  0
LINE
  5
17F
100
AcDbEntity
  8
0
  6
HIDDEN
 62
   174
100
AcDbLine
 10
279.200486
 20
411.916953
 30
0.0
 11
279.200486
 21
412.916953
 31
0.0
  0
LINE
  5
180
100
AcDbEntity
  8
0
  6
HIDDEN
 62
   174
100
AcDbLine
 10
595.100486
 20
392.916953
 30
0.0
 11
535.100486
 21
392.916953
 31
0.0
  0
LINE
  5
181
100
AcDbEntity
  8
0
  6
HIDDEN
 62
   174
100
AcDbLine
 10
170.100486
 20
393.001253
 30
0.0
 11
170.100486
 21
333.004042
 31
0.0
  0
LINE
  5
182
100
AcDbEntity
  8
0
  6
HIDDEN
 62
   174
100
AcDbLine
 10
543.100486
 20
329.684197
 30
0.0
 11
543.100486
 21
396.321098
 31
0.0
  0
LINE
  5
183
100
AcDbEntity
  8
0
  6
HIDDEN
 62
   174
100
AcDbLine
 10
458.072371
 20
411.916953
 30
0.0
 11
448.073136
 21
411.916953
 31
0.0
  0
LINE
  5
184
100
AcDbEntity
  8
0
  6
HIDDEN
 62
   174
100
AcDbLine
 10
429.100486
 20
412.916953
 30
0.0
 11
429.100486
 21
411.916953
 31
0.0
  0
LINE
  5
185
100
AcDbEntity
  8
0
  6
HIDDEN
 62
   174
100
AcDbLine
 10
360.000486
 20
412.916953
 30
0.0
 11
360.000486
 21
411.916953
 31
0.0
  0
LINE
  5
186
100
AcDbEntity
  8
0
  6
HIDDEN
 62
   174
100
AcDbLine
 10
170.100486
 20
392.916953
 30
0.0
 11
175.873989
 21
382.916953
 31
0.0
  0
LINE
  5
187
100
AcDbEntity
  8
0
  6
HIDDEN
 62
   174
100
AcDbLine
 10
340.100486
 20
412.916953
 30
0.0
 11
340.100486
 21
411.916953
 31
0.0
  0
LINE
  5
188
100
AcDbEntity
  8
0
  6
HIDDEN
 62
   174
100
AcDbLine
 10
367.379681
 20
412.916953
 30
0.0
 11
382.895548
 21
412.916953
 31
0.0
  0
LINE
  5
189
100
AcDbEntity
  8
0
  6
HIDDEN
 62
   174
100
AcDbLine
 10
204.906408
 20
412.916953
 30
0.0
 11
233.267949
 21
412.916953
 31
0.0
  0
ENDBLK
  5
18A
100
AcDbEntity
  8
0
100
AcDbBlockEnd
  0
BLOCK
  5
18D
100
AcDbEntity
  8
0
100
AcDbBlockBegin
  2
*B2
 70
     0
 10
0.0
 20
0.0
 30
0.0
  3
*B2
  1

  0
LINE
  5
18E
100
AcDbEntity
  8
0
  6
HIDDEN
 62
   172
100
AcDbLine
 10
442.100486
 20
572.916953
 30
0.0
 11
442.100486
 21
412.916953
 31
0.0
  0
LINE
  5
18F
100
AcDbEntity
  8
0
  6
HIDDEN
 62
   172
100
AcDbLine
 10
530.100486
 20
572.916953
 30
0.0
 11
442.100486
 21
572.916953
 31
0.0
  0
LINE
  5
190
100
AcDbEntity
  8
0
  6
HIDDEN
 62
   172
100
AcDbLine
 10
530.100486
 20
412.916953
 30
0.0
 11
530.100486
 21
572.916953
 31
0.0
  0
LINE
  5
191
100
AcDbEntity
  8
0
  6
HIDDEN
 62
   172
100
AcDbLine
 10
442.100486
 20
412.916953
 30
0.0
 11
530.100486
 21
412.916953
 31
0.0
  0
LINE
  5
192
100
AcDbEntity
  8
0
  6
HIDDEN
 62
   172
100
AcDbLine
 10
353.100486
 20
572.916953
 30
0.0
 11
353.100486
 21
412.916953
 31
0.0
  0
LINE
  5
193
100
AcDbEntity
  8
0
  6
HIDDEN
 62
   172
100
AcDbLine
 10
441.100486
 20
572.916953
 30
0.0
 11
353.100486
 21
572.916953
 31
0.0
  0
LINE
  5
194
100
AcDbEntity
  8
0
  6
HIDDEN
 62
   172
100
AcDbLine
 10
441.100486
 20
412.916953
 30
0.0
 11
441.100486
 21
572.916953
 31
0.0
  0
LINE
  5
195
100
AcDbEntity
  8
0
  6
HIDDEN
 62
   172
100
AcDbLine
 10
353.100486
 20
412.916953
 30
0.0
 11
441.100486
 21
412.916953
 31
0.0
  0
LINE
  5
196
100
AcDbEntity
  8
0
  6
HIDDEN
 62
   172
100
AcDbLine
 10
264.100486
 20
572.916953
 30
0.0
 11
264.100486
 21
412.916953
 31
0.0
  0
LINE
  5
197
100
AcDbEntity
  8
0
  6
HIDDEN
 62
   172
100
AcDbLine
 10
352.100486
 20
572.916953
 30
0.0
 11
264.100486
 21
572.916953
 31
0.0
  0
LINE
  5
198
100
AcDbEntity
  8
0
  6
HIDDEN
 62
   172
100
AcDbLine
 10
352.100486
 20
412.916953
 30
0.0
 11
352.100486
 21
572.916953
 31
0.0
  0
LINE
  5
199
100
AcDbEntity
  8
0
  6
HIDDEN
 62
   172
100
AcDbLine
 10
264.100486
 20
412.916953
 30
0.0
 11
352.100486
 21
412.916953
 31
0.0
  0
LINE
  5
19A
100
AcDbEntity
  8
0
  6
HIDDEN
 62
   172
100
AcDbLine
 10
263.100486
 20
412.916953
 30
0.0
 11
263.100486
 21
572.916953
 31
0.0
  0
LINE
  5
19B
100
AcDbEntity
  8
0
  6
HIDDEN
 62
   172
100
AcDbLine
 10
263.100486
 20
572.916953
 30
0.0
 11
175.100486
 21
572.916953
 31
0.0
  0
LINE
  5
19C
100
AcDbEntity
  8
0
  6
HIDDEN
 62
   172
100
AcDbLine
 10
175.100486
 20
572.916953
 30
0.0
 11
175.100486
 21
412.916953
 31
0.0
  0
LINE
  5
19D
100
AcDbEntity
  8
0
  6
HIDDEN
 62
   172
100
AcDbLine
 10
175.100486
 20
412.916953
 30
0.0
 11
263.100486
 21
412.916953
 31
0.0
  0
ENDBLK
  5
19E
100
AcDbEntity
  8
0
100
AcDbBlockEnd
  0
BLOCK
  5
1A1
100
AcDbEntity
  8
0
100
AcDbBlockBegin
  2
*B3
 70
     0
 10
0.0
 20
0.0
 30
0.0
  3
*B3
  1

  0
ARC
  5
1A2
100
AcDbEntity
  8
0
  6
Continuous
 62
   174
100
AcDbCircle
 10
186.100486
 20
83.107237
 30
0.0
 40
5.0
100
AcDbArc
 50
0.0
 51
1.830625
  0
ARC
  5
1A3
100
AcDbEntity
  8
0
  6
Continuous
 62
   174
100
AcDbCircle
 10
186.100486
 20
83.107237
 30
0.0
 40
5.0
100
AcDbArc
 50
-178.169375
 51
-61.189941
  0
ARC
  5
1A4
100
AcDbEntity
  8
0
  6
Continuous
 62
   174
100
AcDbCircle
 10
186.100486
 20
83.107237
 30
0.0
 40
5.0
100
AcDbArc
 50
-180.0
 51
-178.169375
  0
ARC
  5
1A5
100
AcDbEntity
  8
0
  6
Continuous
 62
   174
100
AcDbCircle
 10
186.100486
 20
83.107237
 30
0.0
 40
5.0
100
AcDbArc
 50
-181.830625
 51
-180.0
  0
ARC
  5
1A6
100
AcDbEntity
  8
0
  6
Continuous
 62
   174
100
AcDbCircle
 10
186.100486
 20
83.107237
 30
0.0
 40
5.0
100
AcDbArc
 50
-358.169375
 51
-181.830625
  0
ARC
  5
1A7
100
AcDbEntity
  8
0
  6
Continuous
 62
   174
100
AcDbCircle
 10
252.100486
 20
219.107237
 30
0.0
 40
5.0
100
AcDbArc
 50
0.0
 51
1.830625
  0
ARC
  5
1A8
100
AcDbEntity
  8
0
  6
Continuous
 62
   174
100
AcDbCircle
 10
252.100486
 20
219.107237
 30
0.0
 40
5.0
100
AcDbArc
 50
-178.169375
 51
-61.189941
  0
ARC
  5
1A9
100
AcDbEntity
  8
0
  6
Continuous
 62
   174
100
AcDbCircle
 10
252.100486
 20
219.107237
 30
0.0
 40
5.0
100
AcDbArc
 50
-180.0
 51
-178.169375
  0
ARC
  5
1AA
100
AcDbEntity
  8
0
  6
Continuous
 62
   174
100
AcDbCircle
 10
252.100486
 20
219.107237
 30
0.0
 40
5.0
100
AcDbArc
 50
-181.830625
 51
-180.0
  0
ARC
  5
1AB
100
AcDbEntity
  8
0
  6
Continuous
 62
   174
100
AcDbCircle
 10
252.100486
 20
219.107237
 30
0.0
 40
5.0
100
AcDbArc
 50
-358.169375
 51
-181.830625
  0
ARC
  5
1AC
100
AcDbEntity
  8
0
  6
Continuous
 62
   174
100
AcDbCircle
 10
252.100486
 20
219.107237
 30
0.0
 40
4.1
100
AcDbArc
 50
-43.622256
 51
0.0
  0
ARC
  5
1AD
100
AcDbEntity
  8
0
  6
Continuous
 62
   174
100
AcDbCircle
 10
252.100486
 20
219.107237
 30
0.0
 40
4.1
100
AcDbArc
 50
0.0
 51
47.129795
  0
ARC
  5
1AE
100
AcDbEntity
  8
0
  6
Continuous
 62
   174
100
AcDbCircle
 10
252.100486
 20
219.107237
 30
0.0
 40
4.1
100
AcDbArc
 50
47.129795
 51
92.233542
  0
LINE
  5
1AF
100
AcDbEntity
  8
0
  6
HIDDEN
 62
   174
100
AcDbLine
 10
535.100486
 20
173.202164
 30
0.0
 11
535.100486
 21
203.200469
 31
0.0
  0
LINE
  5
1B0
100
AcDbEntity
  8
0
  6
HIDDEN
 62
   174
100
AcDbLine
 10
175.873989
 20
183.107237
 30
0.0
 11
529.326984
 21
183.107237
 31
0.0
  0
LINE
  5
1B1
100
AcDbEntity
  8
0
  6
HIDDEN
 62
   174
100
AcDbLine
 10
535.100486
 20
69.107237
 30
0.0
 11
529.326984
 21
79.107237
 31
0.0
  0
LINE
  5
1B2
100
AcDbEntity
  8
0
  6
HIDDEN
 62
   174
100
AcDbLine
 10
535.100486
 20
233.107237
 30
0.0
 11
529.326984
 21
223.107237
 31
0.0
  0
LINE
  5
1B3
100
AcDbEntity
  8
0
  6
HIDDEN
 62
   174
100
AcDbLine
 10
595.100486
 20
203.200469
 30
0.0
 11
595.100486
 21
173.202164
 31
0.0
  0
LINE
  5
1B4
100
AcDbEntity
  8
0
  6
HIDDEN
 62
   174
100
AcDbLine
 10
595.100486
 20
129.203848
 30
0.0
 11
595.100486
 21
99.205543
 31
0.0
  0
LINE
  5
1B5
100
AcDbEntity
  8
0
  6
HIDDEN
 62
   174
100
AcDbLine
 10
595.100486
 20
99.205543
 30
0.0
 11
595.100486
 21
69.206637
 31
0.0
  0
LINE
  5
1B6
100
AcDbEntity
  8
0
  6
HIDDEN
 62
   174
100
AcDbLine
 10
162.100486
 20
69.107237
 30
0.0
 11
110.100486
 21
69.107237
 31
0.0
  0
LINE
  5
1B7
100
AcDbEntity
  8
0
  6
HIDDEN
 62
   174
100
AcDbLine
 10
110.100486
 20
129.107237
 30
0.0
 11
170.100486
 21
129.107237
 31
0.0
  0
LINE
  5
1B8
100
AcDbEntity
  8
0
  6
HIDDEN
 62
   174
100
AcDbLine
 10
543.100486
 20
203.200469
 30
0.0
 11
543.100486
 21
236.519219
 31
0.0
  0
LINE
  5
1B9
100
AcDbEntity
  8
0
  6
HIDDEN
 62
   174
100
AcDbLine
 10
595.100486
 20
203.200469
 30
0.0
 11
595.100486
 21
236.519219
 31
0.0
  0
LINE
  5
1BA
100
AcDbEntity
  8
0
  6
HIDDEN
 62
   174
100
AcDbLine
 10
162.100486
 20
233.107237
 30
0.0
 11
110.100486
 21
233.107237
 31
0.0
  0
ARC
  5
1BB
100
AcDbEntity
  8
0
  6
Continuous
 62
   174
100
AcDbCircle
 10
308.100486
 20
195.107237
 30
0.0
 40
14.0
100
AcDbArc
 50
0.0
 51
180.0
  0
ARC
  5
1BC
100
AcDbEntity
  8
0
  6
Continuous
 62
   174
100
AcDbCircle
 10
275.100486
 20
83.107237
 30
0.0
 40
5.0
100
AcDbArc
 50
-182.06818
 51
-180.0
  0
ARC
  5
1BD
100
AcDbEntity
  8
0
  6
Continuous
 62
   174
100
AcDbCircle
 10
430.100486
 20
219.107237
 30
0.0
 40
5.0
100
AcDbArc
 50
0.0
 51
1.830625
  0
ARC
  5
1BE
100
AcDbEntity
  8
0
  6
Continuous
 62
   174
100
AcDbCircle
 10
252.100486
 20
219.107237
 30
0.0
 40
4.1
100
AcDbArc
 50
180.0
 51
227.129795
  0
LINE
  5
1BF
100
AcDbEntity
  8
0
  6
HIDDEN
 62
   174
100
AcDbLine
 10
529.326984
 20
183.201398
 30
0.0
 11
529.326984
 21
203.200469
 31
0.0
  0
LINE
  5
1C0
100
AcDbEntity
  8
0
  6
HIDDEN
 62
   174
100
AcDbLine
 10
529.326984
 20
99.205543
 30
0.0
 11
529.326984
 21
119.204613
 31
0.0
  0
LINE
  5
1C1
100
AcDbEntity
  8
0
  6
HIDDEN
 62
   174
100
AcDbLine
 10
529.326984
 20
79.206473
 30
0.0
 11
529.326984
 21
99.205543
 31
0.0
  0
LINE
  5
1C2
100
AcDbEntity
  8
0
  6
HIDDEN
 62
   174
100
AcDbLine
 10
595.100486
 20
233.107237
 30
0.0
 11
535.100486
 21
233.107237
 31
0.0
  0
LINE
  5
1C3
100
AcDbEntity
  8
0
  6
HIDDEN
 62
   174
100
AcDbLine
 10
162.100486
 20
203.200469
 30
0.0
 11
162.100486
 21
169.882319
 31
0.0
  0
ARC
  5
1C4
100
AcDbEntity
  8
0
  6
Continuous
 62
   174
100
AcDbCircle
 10
364.100486
 20
83.107237
 30
0.0
 40
5.0
100
AcDbArc
 50
0.0
 51
2.06818
  0
ARC
  5
1C5
100
AcDbEntity
  8
0
  6
Continuous
 62
   174
100
AcDbCircle
 10
571.100486
 20
151.107237
 30
0.0
 40
11.0
100
AcDbArc
 50
-180.0
 51
0.0
  0
ARC
  5
1C6
100
AcDbEntity
  8
0
  6
Continuous
 62
   174
100
AcDbCircle
 10
252.100486
 20
219.107237
 30
0.0
 40
4.1
100
AcDbArc
 50
136.377744
 51
180.0
  0
ARC
  5
1C7
100
AcDbEntity
  8
0
  6
Continuous
 62
   174
100
AcDbCircle
 10
186.100486
 20
83.107237
 30
0.0
 40
4.1
100
AcDbArc
 50
-180.0
 51
0.0
  0
ARC
  5
1C8
100
AcDbEntity
  8
0
  6
Continuous
 62
   174
100
AcDbCircle
 10
186.100486
 20
83.107237
 30
0.0
 40
4.1
100
AcDbArc
 50
0.0
 51
180.0
  0
LINE
  5
1C9
100
AcDbEntity
  8
0
  6
HIDDEN
 62
   174
100
AcDbLine
 10
175.873989
 20
223.107237
 30
0.0
 11
529.326984
 21
223.107237
 31
0.0
  0
LINE
  5
1CA
100
AcDbEntity
  8
0
  6
HIDDEN
 62
   174
100
AcDbLine
 10
175.873989
 20
79.107237
 30
0.0
 11
529.326984
 21
79.107237
 31
0.0
  0
LINE
  5
1CB
100
AcDbEntity
  8
0
  6
HIDDEN
 62
   174
100
AcDbLine
 10
535.100486
 20
129.107237
 30
0.0
 11
529.326984
 21
119.107237
 31
0.0
  0
LINE
  5
1CC
100
AcDbEntity
  8
0
  6
HIDDEN
 62
   174
100
AcDbLine
 10
110.100486
 20
132.523692
 30
0.0
 11
110.100486
 21
99.205543
 31
0.0
  0
LINE
  5
1CD
100
AcDbEntity
  8
0
  6
HIDDEN
 62
   174
100
AcDbLine
 10
543.100486
 20
236.427237
 30
0.0
 11
595.100486
 21
236.427237
 31
0.0
  0
LINE
  5
1CE
100
AcDbEntity
  8
0
  6
HIDDEN
 62
   174
100
AcDbLine
 10
162.100486
 20
173.107237
 30
0.0
 11
110.100486
 21
173.107237
 31
0.0
  0
LINE
  5
1CF
100
AcDbEntity
  8
0
  6
HIDDEN
 62
   174
100
AcDbLine
 10
162.100486
 20
236.519219
 30
0.0
 11
162.100486
 21
203.200469
 31
0.0
  0
ARC
  5
1D0
100
AcDbEntity
  8
0
  6
Continuous
 62
   174
100
AcDbCircle
 10
308.100486
 20
195.107237
 30
0.0
 40
14.0
100
AcDbArc
 50
-180.0
 51
0.0
  0
ARC
  5
1D1
100
AcDbEntity
  8
0
  6
Continuous
 62
   174
100
AcDbCircle
 10
519.100486
 20
219.107237
 30
0.0
 40
5.0
100
AcDbArc
 50
-178.169375
 51
-61.189941
  0
ARC
  5
1D2
100
AcDbEntity
  8
0
  6
Continuous
 62
   174
100
AcDbCircle
 10
519.100486
 20
219.107237
 30
0.0
 40
5.0
100
AcDbArc
 50
-180.0
 51
-178.169375
  0
ARC
  5
1D3
100
AcDbEntity
  8
0
  6
Continuous
 62
   174
100
AcDbCircle
 10
519.100486
 20
219.107237
 30
0.0
 40
5.0
100
AcDbArc
 50
-181.830625
 51
-180.0
  0
ARC
  5
1D4
100
AcDbEntity
  8
0
  6
Continuous
 62
   174
100
AcDbCircle
 10
519.100486
 20
219.107237
 30
0.0
 40
5.0
100
AcDbArc
 50
-358.169375
 51
-181.830625
  0
ARC
  5
1D5
100
AcDbEntity
  8
0
  6
Continuous
 62
   174
100
AcDbCircle
 10
430.100486
 20
219.107237
 30
0.0
 40
5.0
100
AcDbArc
 50
-358.169375
 51
-181.830625
  0
LINE
  5
1D6
100
AcDbEntity
  8
0
  6
HIDDEN
 62
   174
100
AcDbLine
 10
535.100486
 20
203.200469
 30
0.0
 11
535.100486
 21
233.199375
 31
0.0
  0
LINE
  5
1D7
100
AcDbEntity
  8
0
  6
HIDDEN
 62
   174
100
AcDbLine
 10
535.100486
 20
99.205543
 30
0.0
 11
535.100486
 21
129.203848
 31
0.0
  0
LINE
  5
1D8
100
AcDbEntity
  8
0
  6
HIDDEN
 62
   174
100
AcDbLine
 10
535.100486
 20
69.206637
 30
0.0
 11
535.100486
 21
99.205543
 31
0.0
  0
LINE
  5
1D9
100
AcDbEntity
  8
0
  6
HIDDEN
 62
   174
100
AcDbLine
 10
529.326984
 20
203.200469
 30
0.0
 11
529.326984
 21
223.199539
 31
0.0
  0
LINE
  5
1DA
100
AcDbEntity
  8
0
  6
HIDDEN
 62
   174
100
AcDbLine
 10
529.326984
 20
99.205543
 30
0.0
 11
529.326984
 21
119.204613
 31
0.0
  0
LINE
  5
1DB
100
AcDbEntity
  8
0
  6
HIDDEN
 62
   174
100
AcDbLine
 10
162.100486
 20
99.205543
 30
0.0
 11
162.100486
 21
65.886792
 31
0.0
  0
LINE
  5
1DC
100
AcDbEntity
  8
0
  6
HIDDEN
 62
   174
100
AcDbLine
 10
162.100486
 20
132.523692
 30
0.0
 11
162.100486
 21
99.205543
 31
0.0
  0
LINE
  5
1DD
100
AcDbEntity
  8
0
  6
HIDDEN
 62
   174
100
AcDbLine
 10
543.100486
 20
169.787237
 30
0.0
 11
595.100486
 21
169.787237
 31
0.0
  0
LINE
  5
1DE
100
AcDbEntity
  8
0
  6
HIDDEN
 62
   174
100
AcDbLine
 10
543.100486
 20
233.107237
 30
0.0
 11
595.100486
 21
233.107237
 31
0.0
  0
LINE
  5
1DF
100
AcDbEntity
  8
0
  6
HIDDEN
 62
   174
100
AcDbLine
 10
162.100486
 20
169.787237
 30
0.0
 11
110.100486
 21
169.787237
 31
0.0
  0
LINE
  5
1E0
100
AcDbEntity
  8
0
  6
HIDDEN
 62
   174
100
AcDbLine
 10
110.100486
 20
203.200469
 30
0.0
 11
110.100486
 21
169.882319
 31
0.0
  0
LINE
  5
1E1
100
AcDbEntity
  8
0
  6
HIDDEN
 62
   174
100
AcDbLine
 10
110.100486
 20
236.519219
 30
0.0
 11
110.100486
 21
203.200469
 31
0.0
  0
ARC
  5
1E2
100
AcDbEntity
  8
0
  6
Continuous
 62
   174
100
AcDbCircle
 10
275.100486
 20
83.107237
 30
0.0
 40
5.0
100
AcDbArc
 50
-180.0
 51
-177.93182
  0
ARC
  5
1E3
100
AcDbEntity
  8
0
  6
Continuous
 62
   174
100
AcDbCircle
 10
134.100486
 20
151.107237
 30
0.0
 40
11.0
100
AcDbArc
 50
-180.0
 51
0.0
  0
ARC
  5
1E4
100
AcDbEntity
  8
0
  6
Continuous
 62
   174
100
AcDbCircle
 10
364.100486
 20
83.107237
 30
0.0
 40
5.0
100
AcDbArc
 50
-357.93182
 51
-182.06818
  0
ARC
  5
1E5
100
AcDbEntity
  8
0
  6
Continuous
 62
   174
100
AcDbCircle
 10
571.100486
 20
151.107237
 30
0.0
 40
11.0
100
AcDbArc
 50
0.0
 51
180.0
  0
ARC
  5
1E6
100
AcDbEntity
  8
0
  6
Continuous
 62
   174
100
AcDbCircle
 10
430.100486
 20
219.107237
 30
0.0
 40
5.0
100
AcDbArc
 50
-181.830625
 51
-180.0
  0
ARC
  5
1E7
100
AcDbEntity
  8
0
  6
Continuous
 62
   174
100
AcDbCircle
 10
308.100486
 20
107.107237
 30
0.0
 40
14.0
100
AcDbArc
 50
0.0
 51
180.0
  0
ARC
  5
1E8
100
AcDbEntity
  8
0
  6
Continuous
 62
   174
100
AcDbCircle
 10
252.100486
 20
219.107237
 30
0.0
 40
4.1
100
AcDbArc
 50
92.233542
 51
136.377744
  0
LINE
  5
1E9
100
AcDbEntity
  8
0
  6
HIDDEN
 62
   174
100
AcDbLine
 10
535.100486
 20
69.206637
 30
0.0
 11
535.100486
 21
99.205543
 31
0.0
  0
LINE
  5
1EA
100
AcDbEntity
  8
0
  6
HIDDEN
 62
   174
100
AcDbLine
 10
175.873989
 20
119.107237
 30
0.0
 11
529.326984
 21
119.107237
 31
0.0
  0
LINE
  5
1EB
100
AcDbEntity
  8
0
  6
HIDDEN
 62
   174
100
AcDbLine
 10
529.326984
 20
183.201398
 30
0.0
 11
529.326984
 21
203.200469
 31
0.0
  0
LINE
  5
1EC
100
AcDbEntity
  8
0
  6
HIDDEN
 62
   174
100
AcDbLine
 10
529.326984
 20
79.206473
 30
0.0
 11
529.326984
 21
99.205543
 31
0.0
  0
LINE
  5
1ED
100
AcDbEntity
  8
0
  6
HIDDEN
 62
   174
100
AcDbLine
 10
110.100486
 20
99.205543
 30
0.0
 11
110.100486
 21
65.886792
 31
0.0
  0
LINE
  5
1EE
100
AcDbEntity
  8
0
  6
HIDDEN
 62
   174
100
AcDbLine
 10
162.100486
 20
132.427237
 30
0.0
 11
110.100486
 21
132.427237
 31
0.0
  0
LINE
  5
1EF
100
AcDbEntity
  8
0
  6
HIDDEN
 62
   174
100
AcDbLine
 10
162.100486
 20
236.427237
 30
0.0
 11
110.100486
 21
236.427237
 31
0.0
  0
LINE
  5
1F0
100
AcDbEntity
  8
0
  6
HIDDEN
 62
   174
100
AcDbLine
 10
110.100486
 20
173.107237
 30
0.0
 11
170.100486
 21
173.107237
 31
0.0
  0
ARC
  5
1F1
100
AcDbEntity
  8
0
  6
Continuous
 62
   174
100
AcDbCircle
 10
275.100486
 20
83.107237
 30
0.0
 40
5.0
100
AcDbArc
 50
-177.93182
 51
-61.225923
  0
ARC
  5
1F2
100
AcDbEntity
  8
0
  6
Continuous
 62
   174
100
AcDbCircle
 10
341.100486
 20
219.107237
 30
0.0
 40
5.0
100
AcDbArc
 50
0.0
 51
1.830625
  0
ARC
  5
1F3
100
AcDbEntity
  8
0
  6
Continuous
 62
   174
100
AcDbCircle
 10
341.100486
 20
219.107237
 30
0.0
 40
5.0
100
AcDbArc
 50
-180.0
 51
-178.169375
  0
ARC
  5
1F4
100
AcDbEntity
  8
0
  6
Continuous
 62
   174
100
AcDbCircle
 10
134.100486
 20
151.107237
 30
0.0
 40
11.0
100
AcDbArc
 50
0.0
 51
180.0
  0
ARC
  5
1F5
100
AcDbEntity
  8
0
  6
Continuous
 62
   174
100
AcDbCircle
 10
364.100486
 20
83.107237
 30
0.0
 40
5.0
100
AcDbArc
 50
-182.06818
 51
-180.0
  0
ARC
  5
1F6
100
AcDbEntity
  8
0
  6
Continuous
 62
   174
100
AcDbCircle
 10
430.100486
 20
219.107237
 30
0.0
 40
5.0
100
AcDbArc
 50
-180.0
 51
-178.169375
  0
LINE
  5
1F7
100
AcDbEntity
  8
0
  6
HIDDEN
 62
   174
100
AcDbLine
 10
535.100486
 20
203.200469
 30
0.0
 11
535.100486
 21
233.199375
 31
0.0
  0
LINE
  5
1F8
100
AcDbEntity
  8
0
  6
HIDDEN
 62
   174
100
AcDbLine
 10
162.100486
 20
65.787237
 30
0.0
 11
110.100486
 21
65.787237
 31
0.0
  0
LINE
  5
1F9
100
AcDbEntity
  8
0
  6
HIDDEN
 62
   174
100
AcDbLine
 10
110.100486
 20
69.107237
 30
0.0
 11
170.100486
 21
69.107237
 31
0.0
  0
LINE
  5
1FA
100
AcDbEntity
  8
0
  6
HIDDEN
 62
   174
100
AcDbLine
 10
543.100486
 20
173.107237
 30
0.0
 11
595.100486
 21
173.107237
 31
0.0
  0
LINE
  5
1FB
100
AcDbEntity
  8
0
  6
HIDDEN
 62
   174
100
AcDbLine
 10
543.100486
 20
169.882319
 30
0.0
 11
543.100486
 21
203.200469
 31
0.0
  0
ARC
  5
1FC
100
AcDbEntity
  8
0
  6
Continuous
 62
   174
100
AcDbCircle
 10
275.100486
 20
83.107237
 30
0.0
 40
5.0
100
AcDbArc
 50
0.0
 51
2.06818
  0
ARC
  5
1FD
100
AcDbEntity
  8
0
  6
Continuous
 62
   174
100
AcDbCircle
 10
341.100486
 20
219.107237
 30
0.0
 40
5.0
100
AcDbArc
 50
-178.169375
 51
-61.189941
  0
ARC
  5
1FE
100
AcDbEntity
  8
0
  6
Continuous
 62
   174
100
AcDbCircle
 10
341.100486
 20
219.107237
 30
0.0
 40
5.0
100
AcDbArc
 50
-358.169375
 51
-181.830625
  0
ARC
  5
1FF
100
AcDbEntity
  8
0
  6
Continuous
 62
   174
100
AcDbCircle
 10
430.100486
 20
219.107237
 30
0.0
 40
5.0
100
AcDbArc
 50
-178.169375
 51
-61.189941
  0
LINE
  5
200
100
AcDbEntity
  8
0
  6
HIDDEN
 62
   174
100
AcDbLine
 10
535.100486
 20
173.202164
 30
0.0
 11
535.100486
 21
203.200469
 31
0.0
  0
LINE
  5
201
100
AcDbEntity
  8
0
  6
HIDDEN
 62
   174
100
AcDbLine
 10
535.100486
 20
99.205543
 30
0.0
 11
535.100486
 21
129.203848
 31
0.0
  0
LINE
  5
202
100
AcDbEntity
  8
0
  6
HIDDEN
 62
   174
100
AcDbLine
 10
535.100486
 20
173.107237
 30
0.0
 11
529.326984
 21
183.107237
 31
0.0
  0
LINE
  5
203
100
AcDbEntity
  8
0
  6
HIDDEN
 62
   174
100
AcDbLine
 10
529.326984
 20
203.200469
 30
0.0
 11
529.326984
 21
223.199539
 31
0.0
  0
LINE
  5
204
100
AcDbEntity
  8
0
  6
HIDDEN
 62
   174
100
AcDbLine
 10
162.100486
 20
129.107237
 30
0.0
 11
110.100486
 21
129.107237
 31
0.0
  0
LINE
  5
205
100
AcDbEntity
  8
0
  6
HIDDEN
 62
   174
100
AcDbLine
 10
595.100486
 20
169.882319
 30
0.0
 11
595.100486
 21
203.200469
 31
0.0
  0
LINE
  5
206
100
AcDbEntity
  8
0
  6
HIDDEN
 62
   174
100
AcDbLine
 10
110.100486
 20
233.107237
 30
0.0
 11
170.100486
 21
233.107237
 31
0.0
  0
ARC
  5
207
100
AcDbEntity
  8
0
  6
Continuous
 62
   174
100
AcDbCircle
 10
519.100486
 20
219.107237
 30
0.0
 40
5.0
100
AcDbArc
 50
0.0
 51
1.830625
  0
ARC
  5
208
100
AcDbEntity
  8
0
  6
Continuous
 62
   174
100
AcDbCircle
 10
364.100486
 20
83.107237
 30
0.0
 40
5.0
100
AcDbArc
 50
-180.0
 51
-177.93182
  0
ARC
  5
209
100
AcDbEntity
  8
0
  6
Continuous
 62
   174
100
AcDbCircle
 10
252.100486
 20
219.107237
 30
0.0
 40
4.1
100
AcDbArc
 50
227.129795
 51
272.233542
  0
ARC
  5
20A
100
AcDbEntity
  8
0
  6
Continuous
 62
   174
100
AcDbCircle
 10
252.100486
 20
219.107237
 30
0.0
 40
4.1
100
AcDbArc
 50
272.233542
 51
316.377744
  0
LINE
  5
20B
100
AcDbEntity
  8
0
  6
HIDDEN
 62
   174
100
AcDbLine
 10
595.100486
 20
233.199375
 30
0.0
 11
595.100486
 21
203.200469
 31
0.0
  0
LINE
  5
20C
100
AcDbEntity
  8
0
  6
HIDDEN
 62
   174
100
AcDbLine
 10
595.100486
 20
173.107237
 30
0.0
 11
535.100486
 21
173.107237
 31
0.0
  0
ARC
  5
20D
100
AcDbEntity
  8
0
  6
Continuous
 62
   174
100
AcDbCircle
 10
275.100486
 20
83.107237
 30
0.0
 40
5.0
100
AcDbArc
 50
-357.93182
 51
-182.06818
  0
ARC
  5
20E
100
AcDbEntity
  8
0
  6
Continuous
 62
   174
100
AcDbCircle
 10
341.100486
 20
219.107237
 30
0.0
 40
5.0
100
AcDbArc
 50
-181.830625
 51
-180.0
  0
ARC
  5
20F
100
AcDbEntity
  8
0
  6
Continuous
 62
   174
100
AcDbCircle
 10
364.100486
 20
83.107237
 30
0.0
 40
5.0
100
AcDbArc
 50
-177.93182
 51
-61.225923
  0
LINE
  5
210
100
AcDbEntity
  8
0
  6
HIDDEN
 62
   174
100
AcDbLine
 10
543.100486
 20
132.427237
 30
0.0
 11
595.100486
 21
132.427237
 31
0.0
  0
LINE
  5
211
100
AcDbEntity
  8
0
  6
Continuous
 62
   174
100
AcDbLine
 10
110.100486
 20
251.107237
 30
0.0
 11
595.100486
 21
251.107237
 31
0.0
  0
ARC
  5
212
100
AcDbEntity
  8
0
  6
Continuous
 62
   174
100
AcDbCircle
 10
519.100486
 20
219.107237
 30
0.0
 40
4.1
100
AcDbArc
 50
227.129795
 51
272.233542
  0
LINE
  5
213
100
AcDbEntity
  8
0
  6
HIDDEN
 62
   174
100
AcDbLine
 10
175.873989
 20
203.200469
 30
0.0
 11
175.873989
 21
223.199539
 31
0.0
  0
LINE
  5
214
100
AcDbEntity
  8
0
  6
HIDDEN
 62
   174
100
AcDbLine
 10
543.100486
 20
99.205543
 30
0.0
 11
543.100486
 21
132.523692
 31
0.0
  0
ARC
  5
215
100
AcDbEntity
  8
0
  6
Continuous
 62
   174
100
AcDbCircle
 10
341.100486
 20
219.107237
 30
0.0
 40
4.1
100
AcDbArc
 50
0.0
 51
45.0
  0
LINE
  5
216
100
AcDbEntity
  8
0
  6
HIDDEN
 62
   174
100
AcDbLine
 10
170.100486
 20
99.205543
 30
0.0
 11
170.100486
 21
69.206637
 31
0.0
  0
LINE
  5
217
100
AcDbEntity
  8
0
  6
HIDDEN
 62
   174
100
AcDbLine
 10
543.100486
 20
69.107237
 30
0.0
 11
595.100486
 21
69.107237
 31
0.0
  0
ARC
  5
218
100
AcDbEntity
  8
0
  6
Continuous
 62
   174
100
AcDbCircle
 10
397.100486
 20
107.107237
 30
0.0
 40
32.0
100
AcDbArc
 50
-180.0
 51
0.0
  0
ARC
  5
219
100
AcDbEntity
  8
0
  6
Continuous
 62
   174
100
AcDbCircle
 10
486.100486
 20
107.107237
 30
0.0
 40
14.0
100
AcDbArc
 50
0.0
 51
180.0
  0
ARC
  5
21A
100
AcDbEntity
  8
0
  6
Continuous
 62
   174
100
AcDbCircle
 10
397.100486
 20
195.107237
 30
0.0
 40
32.0
100
AcDbArc
 50
0.0
 51
180.0
  0
ARC
  5
21B
100
AcDbEntity
  8
0
  6
Continuous
 62
   174
100
AcDbCircle
 10
308.100486
 20
195.107237
 30
0.0
 40
32.0
100
AcDbArc
 50
0.0
 51
180.0
  0
ARC
  5
21C
100
AcDbEntity
  8
0
  6
Continuous
 62
   174
100
AcDbCircle
 10
219.100486
 20
195.107237
 30
0.0
 40
14.0
100
AcDbArc
 50
0.0
 51
180.0
  0
ARC
  5
21D
100
AcDbEntity
  8
0
  6
Continuous
 62
   174
100
AcDbCircle
 10
486.100486
 20
195.107237
 30
0.0
 40
32.0
100
AcDbArc
 50
-180.0
 51
0.0
  0
ARC
  5
21E
100
AcDbEntity
  8
0
  6
Continuous
 62
   174
100
AcDbCircle
 10
519.100486
 20
219.107237
 30
0.0
 40
4.1
100
AcDbArc
 50
180.0
 51
227.129795
  0
ARC
  5
21F
100
AcDbEntity
  8
0
  6
Continuous
 62
   174
100
AcDbCircle
 10
453.100486
 20
83.107237
 30
0.0
 40
5.0
100
AcDbArc
 50
-357.93182
 51
-182.06818
  0
LINE
  5
220
100
AcDbEntity
  8
0
  6
HIDDEN
 62
   174
100
AcDbLine
 10
543.100486
 20
65.787237
 30
0.0
 11
595.100486
 21
65.787237
 31
0.0
  0
LINE
  5
221
100
AcDbEntity
  8
0
  6
HIDDEN
 62
   174
100
AcDbLine
 10
175.873989
 20
183.201398
 30
0.0
 11
175.873989
 21
203.200469
 31
0.0
  0
LINE
  5
222
100
AcDbEntity
  8
0
  6
HIDDEN
 62
   174
100
AcDbLine
 10
110.100486
 20
99.205543
 30
0.0
 11
110.100486
 21
129.203848
 31
0.0
  0
ARC
  5
223
100
AcDbEntity
  8
0
  6
Continuous
 62
   174
100
AcDbCircle
 10
397.100486
 20
107.107237
 30
0.0
 40
32.0
100
AcDbArc
 50
0.0
 51
180.0
  0
LINE
  5
224
100
AcDbEntity
  8
0
  6
HIDDEN
 62
   174
100
AcDbLine
 10
170.100486
 20
233.199375
 30
0.0
 11
170.100486
 21
203.200469
 31
0.0
  0
ARC
  5
225
100
AcDbEntity
  8
0
  6
Continuous
 62
   174
100
AcDbCircle
 10
275.100486
 20
83.107237
 30
0.0
 40
4.1
100
AcDbArc
 50
-180.0
 51
0.0
  0
ARC
  5
226
100
AcDbEntity
  8
0
  6
Continuous
 62
   174
100
AcDbCircle
 10
519.100486
 20
219.107237
 30
0.0
 40
4.1
100
AcDbArc
 50
0.0
 51
47.129795
  0
ARC
  5
227
100
AcDbEntity
  8
0
  6
Continuous
 62
   174
100
AcDbCircle
 10
486.100486
 20
107.107237
 30
0.0
 40
14.0
100
AcDbArc
 50
-180.0
 51
0.0
  0
ARC
  5
228
100
AcDbEntity
  8
0
  6
Continuous
 62
   174
100
AcDbCircle
 10
219.100486
 20
195.107237
 30
0.0
 40
32.0
100
AcDbArc
 50
-180.0
 51
0.0
  0
ARC
  5
229
100
AcDbEntity
  8
0
  6
Continuous
 62
   174
100
AcDbCircle
 10
453.100486
 20
83.107237
 30
0.0
 40
5.0
100
AcDbArc
 50
-182.06818
 51
-180.0
  0
ARC
  5
22A
100
AcDbEntity
  8
0
  6
Continuous
 62
   174
100
AcDbCircle
 10
219.100486
 20
195.107237
 30
0.0
 40
14.0
100
AcDbArc
 50
-180.0
 51
0.0
  0
ARC
  5
22B
100
AcDbEntity
  8
0
  6
Continuous
 62
   174
100
AcDbCircle
 10
486.100486
 20
195.107237
 30
0.0
 40
32.0
100
AcDbArc
 50
0.0
 51
180.0
  0
ARC
  5
22C
100
AcDbEntity
  8
0
  6
Continuous
 62
   174
100
AcDbCircle
 10
519.100486
 20
219.107237
 30
0.0
 40
4.1
100
AcDbArc
 50
136.377744
 51
180.0
  0
LINE
  5
22D
100
AcDbEntity
  8
0
  6
HIDDEN
 62
   174
100
AcDbLine
 10
543.100486
 20
129.107237
 30
0.0
 11
595.100486
 21
129.107237
 31
0.0
  0
ARC
  5
22E
100
AcDbEntity
  8
0
  6
Continuous
 62
   174
100
AcDbCircle
 10
430.100486
 20
219.107237
 30
0.0
 40
4.1
100
AcDbArc
 50
-90.0
 51
0.0
  0
LINE
  5
22F
100
AcDbEntity
  8
0
  6
HIDDEN
 62
   174
100
AcDbLine
 10
175.873989
 20
203.200469
 30
0.0
 11
175.873989
 21
223.199539
 31
0.0
  0
LINE
  5
230
100
AcDbEntity
  8
0
  6
HIDDEN
 62
   174
100
AcDbLine
 10
175.873989
 20
99.205543
 30
0.0
 11
175.873989
 21
119.204613
 31
0.0
  0
LINE
  5
231
100
AcDbEntity
  8
0
  6
HIDDEN
 62
   174
100
AcDbLine
 10
170.100486
 20
203.200469
 30
0.0
 11
170.100486
 21
173.202164
 31
0.0
  0
ARC
  5
232
100
AcDbEntity
  8
0
  6
Continuous
 62
   174
100
AcDbCircle
 10
275.100486
 20
83.107237
 30
0.0
 40
4.1
100
AcDbArc
 50
0.0
 51
180.0
  0
ARC
  5
233
100
AcDbEntity
  8
0
  6
Continuous
 62
   174
100
AcDbCircle
 10
397.100486
 20
107.107237
 30
0.0
 40
14.0
100
AcDbArc
 50
0.0
 51
180.0
  0
LINE
  5
234
100
AcDbEntity
  8
0
  6
HIDDEN
 62
   174
100
AcDbLine
 10
595.100486
 20
129.107237
 30
0.0
 11
535.100486
 21
129.107237
 31
0.0
  0
ARC
  5
235
100
AcDbEntity
  8
0
  6
Continuous
 62
   174
100
AcDbCircle
 10
453.100486
 20
83.107237
 30
0.0
 40
5.0
100
AcDbArc
 50
-180.0
 51
-177.93182
  0
ARC
  5
236
100
AcDbEntity
  8
0
  6
Continuous
 62
   174
100
AcDbCircle
 10
219.100486
 20
195.107237
 30
0.0
 40
32.0
100
AcDbArc
 50
0.0
 51
180.0
  0
ARC
  5
237
100
AcDbEntity
  8
0
  6
Continuous
 62
   174
100
AcDbCircle
 10
453.100486
 20
83.107237
 30
0.0
 40
4.1
100
AcDbArc
 50
-180.0
 51
0.0
  0
LINE
  5
238
100
AcDbEntity
  8
0
  6
HIDDEN
 62
   174
100
AcDbLine
 10
110.100486
 20
203.200469
 30
0.0
 11
110.100486
 21
233.199375
 31
0.0
  0
ARC
  5
239
100
AcDbEntity
  8
0
  6
Continuous
 62
   174
100
AcDbCircle
 10
519.100486
 20
219.107237
 30
0.0
 40
4.1
100
AcDbArc
 50
92.233542
 51
136.377744
  0
ARC
  5
23A
100
AcDbEntity
  8
0
  6
Continuous
 62
   174
100
AcDbCircle
 10
430.100486
 20
219.107237
 30
0.0
 40
4.1
100
AcDbArc
 50
180.0
 51
270.0
  0
LINE
  5
23B
100
AcDbEntity
  8
0
  6
Continuous
 62
   174
100
AcDbLine
 10
110.100486
 20
51.107237
 30
0.0
 11
110.100486
 21
251.107237
 31
0.0
  0
ARC
  5
23C
100
AcDbEntity
  8
0
  6
Continuous
 62
   174
100
AcDbCircle
 10
364.100486
 20
83.107237
 30
0.0
 40
4.1
100
AcDbArc
 50
-180.0
 51
0.0
  0
LINE
  5
23D
100
AcDbEntity
  8
0
  6
HIDDEN
 62
   174
100
AcDbLine
 10
170.100486
 20
129.107237
 30
0.0
 11
175.873989
 21
119.107237
 31
0.0
  0
LINE
  5
23E
100
AcDbEntity
  8
0
  6
HIDDEN
 62
   174
100
AcDbLine
 10
175.873989
 20
183.201398
 30
0.0
 11
175.873989
 21
203.200469
 31
0.0
  0
LINE
  5
23F
100
AcDbEntity
  8
0
  6
HIDDEN
 62
   174
100
AcDbLine
 10
175.873989
 20
79.206473
 30
0.0
 11
175.873989
 21
99.205543
 31
0.0
  0
LINE
  5
240
100
AcDbEntity
  8
0
  6
HIDDEN
 62
   174
100
AcDbLine
 10
595.100486
 20
69.107237
 30
0.0
 11
535.100486
 21
69.107237
 31
0.0
  0
ARC
  5
241
100
AcDbEntity
  8
0
  6
Continuous
 62
   174
100
AcDbCircle
 10
397.100486
 20
107.107237
 30
0.0
 40
14.0
100
AcDbArc
 50
-180.0
 51
0.0
  0
ARC
  5
242
100
AcDbEntity
  8
0
  6
Continuous
 62
   174
100
AcDbCircle
 10
453.100486
 20
83.107237
 30
0.0
 40
5.0
100
AcDbArc
 50
-177.93182
 51
-61.225923
  0
LINE
  5
243
100
AcDbEntity
  8
0
  6
Continuous
 62
   174
100
AcDbLine
 10
595.100486
 20
251.107237
 30
0.0
 11
595.100486
 21
51.107237
 31
0.0
  0
ARC
  5
244
100
AcDbEntity
  8
0
  6
Continuous
 62
   174
100
AcDbCircle
 10
430.100486
 20
219.107237
 30
0.0
 40
4.1
100
AcDbArc
 50
0.0
 51
180.0
  0
LINE
  5
245
100
AcDbEntity
  8
0
  6
HIDDEN
 62
   174
100
AcDbLine
 10
110.100486
 20
173.202164
 30
0.0
 11
110.100486
 21
203.200469
 31
0.0
  0
LINE
  5
246
100
AcDbEntity
  8
0
  6
HIDDEN
 62
   174
100
AcDbLine
 10
170.100486
 20
69.107237
 30
0.0
 11
175.873989
 21
79.107237
 31
0.0
  0
ARC
  5
247
100
AcDbEntity
  8
0
  6
Continuous
 62
   174
100
AcDbCircle
 10
453.100486
 20
83.107237
 30
0.0
 40
4.1
100
AcDbArc
 50
0.0
 51
180.0
  0
ARC
  5
248
100
AcDbEntity
  8
0
  6
Continuous
 62
   174
100
AcDbCircle
 10
364.100486
 20
83.107237
 30
0.0
 40
4.1
100
AcDbArc
 50
0.0
 51
180.0
  0
LINE
  5
249
100
AcDbEntity
  8
0
  6
HIDDEN
 62
   174
100
AcDbLine
 10
543.100486
 20
65.886792
 30
0.0
 11
543.100486
 21
99.205543
 31
0.0
  0
ARC
  5
24A
100
AcDbEntity
  8
0
  6
Continuous
 62
   174
100
AcDbCircle
 10
486.100486
 20
107.107237
 30
0.0
 40
32.0
100
AcDbArc
 50
-180.0
 51
0.0
  0
ARC
  5
24B
100
AcDbEntity
  8
0
  6
Continuous
 62
   174
100
AcDbCircle
 10
519.100486
 20
219.107237
 30
0.0
 40
4.1
100
AcDbArc
 50
47.129795
 51
92.233542
  0
ARC
  5
24C
100
AcDbEntity
  8
0
  6
Continuous
 62
   174
100
AcDbCircle
 10
219.100486
 20
107.107237
 30
0.0
 40
32.0
100
AcDbArc
 50
-180.0
 51
0.0
  0
ARC
  5
24D
100
AcDbEntity
  8
0
  6
Continuous
 62
   174
100
AcDbCircle
 10
453.100486
 20
83.107237
 30
0.0
 40
5.0
100
AcDbArc
 50
0.0
 51
2.06818
  0
LINE
  5
24E
100
AcDbEntity
  8
0
  6
HIDDEN
 62
   174
100
AcDbLine
 10
175.873989
 20
79.206473
 30
0.0
 11
175.873989
 21
99.205543
 31
0.0
  0
ARC
  5
24F
100
AcDbEntity
  8
0
  6
Continuous
 62
   174
100
AcDbCircle
 10
308.100486
 20
107.107237
 30
0.0
 40
32.0
100
AcDbArc
 50
-180.0
 51
0.0
  0
ARC
  5
250
100
AcDbEntity
  8
0
  6
Continuous
 62
   174
100
AcDbCircle
 10
341.100486
 20
219.107237
 30
0.0
 40
4.1
100
AcDbArc
 50
-135.0
 51
0.0
  0
LINE
  5
251
100
AcDbEntity
  8
0
  6
HIDDEN
 62
   174
100
AcDbLine
 10
170.100486
 20
233.107237
 30
0.0
 11
175.873989
 21
223.107237
 31
0.0
  0
ARC
  5
252
100
AcDbEntity
  8
0
  6
Continuous
 62
   174
100
AcDbCircle
 10
219.100486
 20
107.107237
 30
0.0
 40
14.0
100
AcDbArc
 50
0.0
 51
180.0
  0
ARC
  5
253
100
AcDbEntity
  8
0
  6
Continuous
 62
   174
100
AcDbCircle
 10
397.100486
 20
195.107237
 30
0.0
 40
14.0
100
AcDbArc
 50
0.0
 51
180.0
  0
ARC
  5
254
100
AcDbEntity
  8
0
  6
Continuous
 62
   174
100
AcDbCircle
 10
486.100486
 20
107.107237
 30
0.0
 40
32.0
100
AcDbArc
 50
0.0
 51
180.0
  0
LINE
  5
255
100
AcDbEntity
  8
0
  6
HIDDEN
 62
   174
100
AcDbLine
 10
595.100486
 20
65.886792
 30
0.0
 11
595.100486
 21
99.205543
 31
0.0
  0
ARC
  5
256
100
AcDbEntity
  8
0
  6
Continuous
 62
   174
100
AcDbCircle
 10
219.100486
 20
107.107237
 30
0.0
 40
32.0
100
AcDbArc
 50
0.0
 51
180.0
  0
LINE
  5
257
100
AcDbEntity
  8
0
  6
HIDDEN
 62
   174
100
AcDbLine
 10
170.100486
 20
99.205543
 30
0.0
 11
170.100486
 21
69.206637
 31
0.0
  0
LINE
  5
258
100
AcDbEntity
  8
0
  6
HIDDEN
 62
   174
100
AcDbLine
 10
110.100486
 20
69.206637
 30
0.0
 11
110.100486
 21
99.205543
 31
0.0
  0
ARC
  5
259
100
AcDbEntity
  8
0
  6
Continuous
 62
   174
100
AcDbCircle
 10
519.100486
 20
219.107237
 30
0.0
 40
4.1
100
AcDbArc
 50
-43.622256
 51
0.0
  0
ARC
  5
25A
100
AcDbEntity
  8
0
  6
Continuous
 62
   174
100
AcDbCircle
 10
486.100486
 20
195.107237
 30
0.0
 40
14.0
100
AcDbArc
 50
0.0
 51
180.0
  0
LINE
  5
25B
100
AcDbEntity
  8
0
  6
HIDDEN
 62
   174
100
AcDbLine
 10
170.100486
 20
203.200469
 30
0.0
 11
170.100486
 21
173.202164
 31
0.0
  0
LINE
  5
25C
100
AcDbEntity
  8
0
  6
HIDDEN
 62
   174
100
AcDbLine
 10
175.873989
 20
99.205543
 30
0.0
 11
175.873989
 21
119.204613
 31
0.0
  0
LINE
  5
25D
100
AcDbEntity
  8
0
  6
HIDDEN
 62
   174
100
AcDbLine
 10
170.100486
 20
173.107237
 30
0.0
 11
175.873989
 21
183.107237
 31
0.0
  0
ARC
  5
25E
100
AcDbEntity
  8
0
  6
Continuous
 62
   174
100
AcDbCircle
 10
341.100486
 20
219.107237
 30
0.0
 40
4.1
100
AcDbArc
 50
180.0
 51
225.0
  0
ARC
  5
25F
100
AcDbEntity
  8
0
  6
Continuous
 62
   174
100
AcDbCircle
 10
308.100486
 20
107.107237
 30
0.0
 40
32.0
100
AcDbArc
 50
0.0
 51
180.0
  0
ARC
  5
260
100
AcDbEntity
  8
0
  6
Continuous
 62
   174
100
AcDbCircle
 10
308.100486
 20
107.107237
 30
0.0
 40
14.0
100
AcDbArc
 50
-180.0
 51
0.0
  0
ARC
  5
261
100
AcDbEntity
  8
0
  6
Continuous
 62
   174
100
AcDbCircle
 10
219.100486
 20
107.107237
 30
0.0
 40
14.0
100
AcDbArc
 50
-180.0
 51
0.0
  0
ARC
  5
262
100
AcDbEntity
  8
0
  6
Continuous
 62
   174
100
AcDbCircle
 10
397.100486
 20
195.107237
 30
0.0
 40
14.0
100
AcDbArc
 50
-180.0
 51
0.0
  0
LINE
  5
263
100
AcDbEntity
  8
0
  6
HIDDEN
 62
   174
100
AcDbLine
 10
595.100486
 20
99.205543
 30
0.0
 11
595.100486
 21
132.523692
 31
0.0
  0
ARC
  5
264
100
AcDbEntity
  8
0
  6
Continuous
 62
   174
100
AcDbCircle
 10
519.100486
 20
219.107237
 30
0.0
 40
4.1
100
AcDbArc
 50
272.233542
 51
316.377744
  0
LINE
  5
265
100
AcDbEntity
  8
0
  6
HIDDEN
 62
   174
100
AcDbLine
 10
170.100486
 20
233.199375
 30
0.0
 11
170.100486
 21
203.200469
 31
0.0
  0
LINE
  5
266
100
AcDbEntity
  8
0
  6
HIDDEN
 62
   174
100
AcDbLine
 10
170.100486
 20
129.203848
 30
0.0
 11
170.100486
 21
99.205543
 31
0.0
  0
LINE
  5
267
100
AcDbEntity
  8
0
  6
Continuous
 62
   174
100
AcDbLine
 10
595.100486
 20
51.107237
 30
0.0
 11
110.100486
 21
51.107237
 31
0.0
  0
ARC
  5
268
100
AcDbEntity
  8
0
  6
Continuous
 62
   174
100
AcDbCircle
 10
341.100486
 20
219.107237
 30
0.0
 40
4.1
100
AcDbArc
 50
45.0
 51
180.0
  0
ARC
  5
269
100
AcDbEntity
  8
0
  6
Continuous
 62
   174
100
AcDbCircle
 10
486.100486
 20
195.107237
 30
0.0
 40
14.0
100
AcDbArc
 50
-180.0
 51
0.0
  0
ARC
  5
26A
100
AcDbEntity
  8
0
  6
Continuous
 62
   174
100
AcDbCircle
 10
397.100486
 20
195.107237
 30
0.0
 40
32.0
100
AcDbArc
 50
180.0
 51
360.0
  0
LINE
  5
26B
100
AcDbEntity
  8
0
  6
HIDDEN
 62
   174
100
AcDbLine
 10
170.100486
 20
129.203848
 30
0.0
 11
170.100486
 21
99.205543
 31
0.0
  0
ARC
  5
26C
100
AcDbEntity
  8
0
  6
Continuous
 62
   174
100
AcDbCircle
 10
308.100486
 20
195.107237
 30
0.0
 40
32.0
100
AcDbArc
 50
-180.0
 51
0.0
  0
ENDBLK
  5
26D
100
AcDbEntity
  8
0
100
AcDbBlockEnd
  0
BLOCK
  5
270
100
AcDbEntity
  8
0
100
AcDbBlockBegin
  2
*B4
 70
     0
 10
0.0
 20
0.0
 30
0.0
  3
*B4
  1

  0
LINE
  5
271
100
AcDbEntity
  8
0
  6
Continuous
 62
     0
100
AcDbLine
 10
634.961312
 20
203.200469
 30
0.0
 11
634.961312
 21
99.205543
 31
0.0
  0
SOLID
  5
272
100
AcDbEntity
  8
0
  6
Continuous
 62
     0
100
AcDbTrace
 10
637.46067
 20
191.201147
 30
0.0
 11
634.961312
 21
203.200469
 31
0.0
 12
632.461353
 22
191.201147
 32
0.0
 13
632.461353
 23
191.201147
 33
0.0
  0
SOLID
  5
273
100
AcDbEntity
  8
0
  6
Continuous
 62
     0
100
AcDbTrace
 10
632.461353
 20
111.204865
 30
0.0
 11
634.961312
 21
99.205543
 31
0.0
 12
637.46067
 22
111.204865
 32
0.0
 13
637.46067
 23
111.204865
 33
0.0
  0
ENDBLK
  5
274
100
AcDbEntity
  8
0
100
AcDbBlockEnd
  0
BLOCK
  5
277
100
AcDbEntity
  8
0
100
AcDbBlockBegin
  2
*B5
 70
     0
 10
0.0
 20
0.0
 30
0.0
  3
*B5
  1

  0
LINE
  5
278
100
AcDbEntity
  8
0
  6
Continuous
 62
     0
100
AcDbLine
 10
669.958933
 20
51.207654
 30
0.0
 11
669.958933
 21
251.198358
 31
0.0
  0
SOLID
  5
279
100
AcDbEntity
  8
0
  6
Continuous
 62
     0
100
AcDbTrace
 10
667.458974
 20
63.206976
 30
0.0
 11
669.958933
 21
51.207654
 31
0.0
 12
672.458892
 22
63.206976
 32
0.0
 13
672.458892
 23
63.206976
 33
0.0
  0
SOLID
  5
27A
100
AcDbEntity
  8
0
  6
Continuous
 62
     0
100
AcDbTrace
 10
672.458892
 20
239.199036
 30
0.0
 11
669.958933
 21
251.198358
 31
0.0
 12
667.458974
 22
239.199036
 32
0.0
 13
667.458974
 23
239.199036
 33
0.0
  0
ENDBLK
  5
27B
100
AcDbEntity
  8
0
100
AcDbBlockEnd
  0
BLOCK
  5
27E
100
AcDbEntity
  8
0
100
AcDbBlockBegin
  2
*B6
 70
     0
 10
0.0
 20
0.0
 30
0.0
  3
*B6
  1

  0
LINE
  5
27F
100
AcDbEntity
  8
0
  6
Continuous
 62
     0
100
AcDbLine
 10
79.995079
 20
195.20072
 30
0.0
 11
79.995079
 21
107.205292
 31
0.0
  0
SOLID
  5
280
100
AcDbEntity
  8
0
  6
Continuous
 62
     0
100
AcDbTrace
 10
82.495038
 20
183.201398
 30
0.0
 11
79.995079
 21
195.20072
 31
0.0
 12
77.49512
 22
183.201398
 32
0.0
 13
77.49512
 23
183.201398
 33
0.0
  0
SOLID
  5
281
100
AcDbEntity
  8
0
  6
Continuous
 62
     0
100
AcDbTrace
 10
77.49512
 20
119.204613
 30
0.0
 11
79.995079
 21
107.205292
 31
0.0
 12
82.495038
 22
119.204613
 32
0.0
 13
82.495038
 23
119.204613
 33
0.0
  0
ENDBLK
  5
282
100
AcDbEntity
  8
0
100
AcDbBlockEnd
  0
BLOCK
  5
285
100
AcDbEntity
  8
0
100
AcDbBlockBegin
  2
*B7
 70
     0
 10
0.0
 20
0.0
 30
0.0
  3
*B7
  1

  0
LINE
  5
286
100
AcDbEntity
  8
0
  6
Continuous
 62
     0
100
AcDbLine
 10
158.091127
 20
20.101932
 30
0.0
 11
86.095195
 21
20.101932
 31
0.0
  0
SOLID
  5
287
100
AcDbEntity
  8
0
  6
Continuous
 62
     0
100
AcDbTrace
 10
146.091805
 20
22.601891
 30
0.0
 11
134.092483
 21
20.101932
 31
0.0
 12
146.091805
 22
17.601973
 32
0.0
 13
146.091805
 23
17.601973
 33
0.0
  0
SOLID
  5
288
100
AcDbEntity
  8
0
  6
Continuous
 62
     0
100
AcDbTrace
 10
98.094517
 20
17.601973
 30
0.0
 11
110.093839
 21
20.101932
 31
0.0
 12
98.094517
 22
22.601891
 32
0.0
 13
98.094517
 23
22.601891
 33
0.0
  0
ENDBLK
  5
289
100
AcDbEntity
  8
0
100
AcDbBlockEnd
  0
BLOCK
  5
28C
100
AcDbEntity
  8
0
100
AcDbBlockBegin
  2
*B8
 70
     0
 10
0.0
 20
0.0
 30
0.0
  3
*B8
  1

  0
LINE
  5
28D
100
AcDbEntity
  8
0
  6
Continuous
 62
     0
100
AcDbLine
 10
547.066941
 20
20.101932
 30
0.0
 11
619.062872
 21
20.101932
 31
0.0
  0
SOLID
  5
28E
100
AcDbEntity
  8
0
  6
Continuous
 62
     0
100
AcDbTrace
 10
559.066262
 20
17.601973
 30
0.0
 11
571.065584
 21
20.101932
 31
0.0
 12
559.066262
 22
22.601891
 32
0.0
 13
559.066262
 23
22.601891
 33
0.0
  0
SOLID
  5
28F
100
AcDbEntity
  8
0
  6
Continuous
 62
     0
100
AcDbTrace
 10
607.06355
 20
22.601891
 30
0.0
 11
595.064228
 21
20.101932
 31
0.0
 12
607.06355
 22
17.601973
 32
0.0
 13
607.06355
 23
17.601973
 33
0.0
  0
ENDBLK
  5
290
100
AcDbEntity
  8
0
100
AcDbBlockEnd
  0
BLOCK
  5
293
100
AcDbEntity
  8
0
100
AcDbBlockBegin
  2
*B9
 70
     0
 10
0.0
 20
0.0
 30
0.0
  3
*B9
  1

  0
LINE
  5
294
100
AcDbEntity
  8
0
  6
Continuous
 62
     0
100
AcDbLine
 10
536.067963
 20
453.010495
 30
0.0
 11
634.584754
 21
453.010495
 31
0.0
  0
SOLID
  5
295
100
AcDbEntity
  8
0
  6
Continuous
 62
     0
100
AcDbTrace
 10
548.066684
 20
450.510536
 30
0.0
 11
560.066005
 21
453.010495
 31
0.0
 12
548.066684
 22
455.510454
 32
0.0
 13
548.066684
 23
455.510454
 33
0.0
  0
SOLID
  5
296
100
AcDbEntity
  8
0
  6
Continuous
 62
     0
100
AcDbTrace
 10
594.063884
 20
455.510454
 30
0.0
 11
582.065163
 21
453.010495
 31
0.0
 12
594.063884
 22
450.510536
 32
0.0
 13
594.063884
 23
450.510536
 33
0.0
  0
ENDBLK
  5
297
100
AcDbEntity
  8
0
100
AcDbBlockEnd
  0
BLOCK
  5
29A
100
AcDbEntity
  8
0
100
AcDbBlockBegin
  2
*B10
 70
     0
 10
0.0
 20
0.0
 30
0.0
  3
*B10
  1

  0
LINE
  5
29B
100
AcDbEntity
  8
0
  6
Continuous
 62
     0
100
AcDbLine
 10
308.081448
 20
280.089847
 30
0.0
 11
397.076018
 21
280.089847
 31
0.0
  0
SOLID
  5
29C
100
AcDbEntity
  8
0
  6
Continuous
 62
     0
100
AcDbTrace
 10
320.08077
 20
282.589806
 30
0.0
 11
308.081448
 21
280.089847
 31
0.0
 12
320.08077
 22
277.589888
 32
0.0
 13
320.08077
 23
277.589888
 33
0.0
  0
SOLID
  5
29D
100
AcDbEntity
  8
0
  6
Continuous
 62
     0
100
AcDbTrace
 10
385.076696
 20
277.589888
 30
0.0
 11
397.076018
 21
280.089847
 31
0.0
 12
385.076696
 22
282.589806
 32
0.0
 13
385.076696
 23
282.589806
 33
0.0
  0
ENDBLK
  5
29E
100
AcDbEntity
  8
0
100
AcDbBlockEnd
  0
BLOCK
  5
2A1
100
AcDbEntity
  8
0
100
AcDbBlockBegin
  2
*B11
 70
     0
 10
0.0
 20
0.0
 30
0.0
  3
*B11
  1

  0
LINE
  5
2A2
100
AcDbEntity
  8
0
  6
Continuous
 62
     0
100
AcDbLine
 10
397.076018
 20
280.089847
 30
0.0
 11
486.070588
 21
280.089847
 31
0.0
  0
SOLID
  5
2A3
100
AcDbEntity
  8
0
  6
Continuous
 62
     0
100
AcDbTrace
 10
409.07534
 20
282.589806
 30
0.0
 11
397.076018
 21
280.089847
 31
0.0
 12
409.07534
 22
277.589888
 32
0.0
 13
409.07534
 23
277.589888
 33
0.0
  0
SOLID
  5
2A4
100
AcDbEntity
  8
0
  6
Continuous
 62
     0
100
AcDbTrace
 10
474.071266
 20
277.589888
 30
0.0
 11
486.070588
 21
280.089847
 31
0.0
 12
474.071266
 22
282.589806
 32
0.0
 13
474.071266
 23
282.589806
 33
0.0
  0
ENDBLK
  5
2A5
100
AcDbEntity
  8
0
100
AcDbBlockEnd
  0
BLOCK
  5
2A8
100
AcDbEntity
  8
0
100
AcDbBlockBegin
  2
*B12
 70
     0
 10
0.0
 20
0.0
 30
0.0
  3
*B12
  1

  0
LINE
  5
2A9
100
AcDbEntity
  8
0
  6
Continuous
 62
     0
100
AcDbLine
 10
486.070588
 20
280.089847
 30
0.0
 11
595.064228
 21
280.089847
 31
0.0
  0
SOLID
  5
2AA
100
AcDbEntity
  8
0
  6
Continuous
 62
     0
100
AcDbTrace
 10
498.06991
 20
282.589806
 30
0.0
 11
486.070588
 21
280.089847
 31
0.0
 12
498.06991
 22
277.589888
 32
0.0
 13
498.06991
 23
277.589888
 33
0.0
  0
SOLID
  5
2AB
100
AcDbEntity
  8
0
  6
Continuous
 62
     0
100
AcDbTrace
 10
583.064906
 20
277.589888
 30
0.0
 11
595.064228
 21
280.089847
 31
0.0
 12
583.064906
 22
282.589806
 32
0.0
 13
583.064906
 23
282.589806
 33
0.0
  0
ENDBLK
  5
2AC
100
AcDbEntity
  8
0
100
AcDbBlockEnd
  0
BLOCK
  5
2AF
100
AcDbEntity
  8
0
100
AcDbBlockBegin
  2
*B13
 70
     0
 10
0.0
 20
0.0
 30
0.0
  3
*B13
  1

  0
LINE
  5
2B0
100
AcDbEntity
  8
0
  6
Continuous
 62
     0
100
AcDbLine
 10
79.995079
 20
309.005398
 30
0.0
 11
79.995079
 21
417.000499
 31
0.0
  0
SOLID
  5
2B1
100
AcDbEntity
  8
0
  6
Continuous
 62
     0
100
AcDbTrace
 10
82.495038
 20
321.00472
 30
0.0
 11
79.995079
 21
333.004042
 31
0.0
 12
77.49512
 22
321.00472
 32
0.0
 13
77.49512
 23
321.00472
 33
0.0
  0
SOLID
  5
2B2
100
AcDbEntity
  8
0
  6
Continuous
 62
     0
100
AcDbTrace
 10
77.49512
 20
405.001177
 30
0.0
 11
79.995079
 21
393.001253
 31
0.0
 12
82.495038
 22
405.001177
 32
0.0
 13
82.495038
 23
405.001177
 33
0.0
  0
ENDBLK
  5
2B3
100
AcDbEntity
  8
0
100
AcDbBlockEnd
  0
BLOCK
  5
2B6
100
AcDbEntity
  8
0
100
AcDbBlockBegin
  2
*B14
 70
     0
 10
0.0
 20
0.0
 30
0.0
  3
*B14
  1

  0
LINE
  5
2B7
100
AcDbEntity
  8
0
  6
Continuous
 62
     0
100
AcDbLine
 10
44.997457
 20
219.199965
 30
0.0
 11
44.997457
 21
83.206046
 31
0.0
  0
SOLID
  5
2B8
100
AcDbEntity
  8
0
  6
Continuous
 62
     0
100
AcDbTrace
 10
47.497416
 20
207.200644
 30
0.0
 11
44.997457
 21
219.199965
 31
0.0
 12
42.497498
 22
207.200644
 32
0.0
 13
42.497498
 23
207.200644
 33
0.0
  0
SOLID
  5
2B9
100
AcDbEntity
  8
0
  6
Continuous
 62
     0
100
AcDbTrace
 10
42.497498
 20
95.205368
 30
0.0
 11
44.997457
 21
83.206046
 31
0.0
 12
47.497416
 22
95.205368
 32
0.0
 13
47.497416
 23
95.205368
 33
0.0
  0
ENDBLK
  5
2BA
100
AcDbEntity
  8
0
100
AcDbBlockEnd
  0
BLOCK
  5
2BD
100
AcDbEntity
  8
0
100
AcDbBlockBegin
  2
*B15
 70
     0
 10
0.0
 20
0.0
 30
0.0
  3
*B15
  1

  0
LINE
  5
2BE
100
AcDbEntity
  8
0
  6
Continuous
 62
     0
100
AcDbLine
 10
275.083914
 20
20.101932
 30
0.0
 11
341.079583
 21
20.101932
 31
0.0
  0
SOLID
  5
2BF
100
AcDbEntity
  8
0
  6
Continuous
 62
     0
100
AcDbTrace
 10
287.083236
 20
22.601891
 30
0.0
 11
275.083914
 21
20.101932
 31
0.0
 12
287.083236
 22
17.601973
 32
0.0
 13
287.083236
 23
17.601973
 33
0.0
  0
SOLID
  5
2C0
100
AcDbEntity
  8
0
  6
Continuous
 62
     0
100
AcDbTrace
 10
329.080261
 20
17.601973
 30
0.0
 11
341.079583
 21
20.101932
 31
0.0
 12
329.080261
 22
22.601891
 32
0.0
 13
329.080261
 23
22.601891
 33
0.0
  0
ENDBLK
  5
2C1
100
AcDbEntity
  8
0
100
AcDbBlockEnd
  0
BLOCK
  5
2C4
100
AcDbEntity
  8
0
100
AcDbBlockBegin
  2
*B16
 70
     0
 10
0.0
 20
0.0
 30
0.0
  3
*B16
  1

  0
LINE
  5
2C5
100
AcDbEntity
  8
0
  6
Continuous
 62
     0
100
AcDbLine
 10
219.087479
 20
280.089847
 30
0.0
 11
308.081448
 21
280.089847
 31
0.0
  0
SOLID
  5
2C6
100
AcDbEntity
  8
0
  6
Continuous
 62
     0
100
AcDbTrace
 10
231.0862
 20
282.589806
 30
0.0
 11
219.087479
 21
280.089847
 31
0.0
 12
231.0862
 22
277.589888
 32
0.0
 13
231.0862
 23
277.589888
 33
0.0
  0
SOLID
  5
2C7
100
AcDbEntity
  8
0
  6
Continuous
 62
     0
100
AcDbTrace
 10
296.082727
 20
277.589888
 30
0.0
 11
308.081448
 21
280.089847
 31
0.0
 12
296.082727
 22
282.589806
 32
0.0
 13
296.082727
 23
282.589806
 33
0.0
  0
ENDBLK
  5
2C8
100
AcDbEntity
  8
0
100
AcDbBlockEnd
  0
BLOCK
  5
2CB
100
AcDbEntity
  8
0
100
AcDbBlockBegin
  2
*B17
 70
     0
 10
0.0
 20
0.0
 30
0.0
  3
*B17
  1

  0
LINE
  5
2CC
100
AcDbEntity
  8
0
  6
Continuous
 62
     0
100
AcDbLine
 10
308.081448
 20
595.075056
 30
0.0
 11
219.087479
 21
595.075056
 31
0.0
  0
SOLID
  5
2CD
100
AcDbEntity
  8
0
  6
Continuous
 62
     0
100
AcDbTrace
 10
296.082727
 20
592.575097
 30
0.0
 11
308.081448
 21
595.075056
 31
0.0
 12
296.082727
 22
597.575015
 32
0.0
 13
296.082727
 23
597.575015
 33
0.0
  0
SOLID
  5
2CE
100
AcDbEntity
  8
0
  6
Continuous
 62
     0
100
AcDbTrace
 10
231.0862
 20
597.575015
 30
0.0
 11
219.087479
 21
595.075056
 31
0.0
 12
231.0862
 22
592.575097
 32
0.0
 13
231.0862
 23
592.575097
 33
0.0
  0
ENDBLK
  5
2CF
100
AcDbEntity
  8
0
100
AcDbBlockEnd
  0
BLOCK
  5
2D2
100
AcDbEntity
  8
0
100
AcDbBlockBegin
  2
*B18
 70
     0
 10
0.0
 20
0.0
 30
0.0
  3
*B18
  1

  0
LINE
  5
2D3
100
AcDbEntity
  8
0
  6
Continuous
 62
     0
100
AcDbLine
 10
397.076018
 20
595.075056
 30
0.0
 11
308.081448
 21
595.075056
 31
0.0
  0
SOLID
  5
2D4
100
AcDbEntity
  8
0
  6
Continuous
 62
     0
100
AcDbTrace
 10
385.076696
 20
592.575097
 30
0.0
 11
397.076018
 21
595.075056
 31
0.0
 12
385.076696
 22
597.575015
 32
0.0
 13
385.076696
 23
597.575015
 33
0.0
  0
SOLID
  5
2D5
100
AcDbEntity
  8
0
  6
Continuous
 62
     0
100
AcDbTrace
 10
320.08077
 20
597.575015
 30
0.0
 11
308.081448
 21
595.075056
 31
0.0
 12
320.08077
 22
592.575097
 32
0.0
 13
320.08077
 23
592.575097
 33
0.0
  0
ENDBLK
  5
2D6
100
AcDbEntity
  8
0
100
AcDbBlockEnd
  0
BLOCK
  5
2D9
100
AcDbEntity
  8
0
100
AcDbBlockBegin
  2
*B19
 70
     0
 10
0.0
 20
0.0
 30
0.0
  3
*B19
  1

  0
LINE
  5
2DA
100
AcDbEntity
  8
0
  6
Continuous
 62
     0
100
AcDbLine
 10
44.997457
 20
413.000324
 30
0.0
 11
44.997457
 21
313.004972
 31
0.0
  0
SOLID
  5
2DB
100
AcDbEntity
  8
0
  6
Continuous
 62
     0
100
AcDbTrace
 10
47.497416
 20
401.001002
 30
0.0
 11
44.997457
 21
413.000324
 31
0.0
 12
42.497498
 22
401.001002
 32
0.0
 13
42.497498
 23
401.001002
 33
0.0
  0
SOLID
  5
2DC
100
AcDbEntity
  8
0
  6
Continuous
 62
     0
100
AcDbTrace
 10
42.497498
 20
325.004895
 30
0.0
 11
44.997457
 21
313.004972
 31
0.0
 12
47.497416
 22
325.004895
 32
0.0
 13
47.497416
 23
325.004895
 33
0.0
  0
ENDBLK
  5
2DD
100
AcDbEntity
  8
0
100
AcDbBlockEnd
  0
BLOCK
  5
2E0
100
AcDbEntity
  8
0
100
AcDbBlockBegin
  2
*B20
 70
     0
 10
0.0
 20
0.0
 30
0.0
  3
*B20
  1

  0
LINE
  5
2E1
100
AcDbEntity
  8
0
  6
Continuous
 62
     0
100
AcDbLine
 10
397.076018
 20
595.075056
 30
0.0
 11
486.070588
 21
595.075056
 31
0.0
  0
SOLID
  5
2E2
100
AcDbEntity
  8
0
  6
Continuous
 62
     0
100
AcDbTrace
 10
409.07534
 20
597.575015
 30
0.0
 11
397.076018
 21
595.075056
 31
0.0
 12
409.07534
 22
592.575097
 32
0.0
 13
409.07534
 23
592.575097
 33
0.0
  0
SOLID
  5
2E3
100
AcDbEntity
  8
0
  6
Continuous
 62
     0
100
AcDbTrace
 10
474.071266
 20
592.575097
 30
0.0
 11
486.070588
 21
595.075056
 31
0.0
 12
474.071266
 22
597.575015
 32
0.0
 13
474.071266
 23
597.575015
 33
0.0
  0
ENDBLK
  5
2E4
100
AcDbEntity
  8
0
100
AcDbBlockEnd
  0
BLOCK
  5
2E7
100
AcDbEntity
  8
0
100
AcDbBlockBegin
  2
*B21
 70
     0
 10
0.0
 20
0.0
 30
0.0
  3
*B21
  1

  0
LINE
  5
2E8
100
AcDbEntity
  8
0
  6
Continuous
 62
     0
100
AcDbLine
 10
44.997457
 20
413.000324
 30
0.0
 11
44.997457
 21
572.992887
 31
0.0
  0
SOLID
  5
2E9
100
AcDbEntity
  8
0
  6
Continuous
 62
     0
100
AcDbTrace
 10
42.497498
 20
425.000247
 30
0.0
 11
44.997457
 21
413.000324
 31
0.0
 12
47.497416
 22
425.000247
 32
0.0
 13
47.497416
 23
425.000247
 33
0.0
  0
SOLID
  5
2EA
100
AcDbEntity
  8
0
  6
Continuous
 62
     0
100
AcDbTrace
 10
47.497416
 20
560.993565
 30
0.0
 11
44.997457
 21
572.992887
 31
0.0
 12
42.497498
 22
560.993565
 32
0.0
 13
42.497498
 23
560.993565
 33
0.0
  0
ENDBLK
  5
2EB
100
AcDbEntity
  8
0
100
AcDbBlockEnd
  0
BLOCK
  5
2EE
100
AcDbEntity
  8
0
100
AcDbBlockBegin
  2
*B22
 70
     0
 10
0.0
 20
0.0
 30
0.0
  3
*B22
  1

  0
LINE
  5
2EF
100
AcDbEntity
  8
0
  6
Continuous
 62
     0
100
AcDbLine
 10
110.093839
 20
280.089847
 30
0.0
 11
219.087479
 21
280.089847
 31
0.0
  0
SOLID
  5
2F0
100
AcDbEntity
  8
0
  6
Continuous
 62
     0
100
AcDbTrace
 10
122.093161
 20
282.589806
 30
0.0
 11
110.093839
 21
280.089847
 31
0.0
 12
122.093161
 22
277.589888
 32
0.0
 13
122.093161
 23
277.589888
 33
0.0
  0
SOLID
  5
2F1
100
AcDbEntity
  8
0
  6
Continuous
 62
     0
100
AcDbTrace
 10
207.088157
 20
277.589888
 30
0.0
 11
219.087479
 21
280.089847
 31
0.0
 12
207.088157
 22
282.589806
 32
0.0
 13
207.088157
 23
282.589806
 33
0.0
  0
ENDBLK
  5
2F2
100
AcDbEntity
  8
0
100
AcDbBlockEnd
  0
BLOCK
  5
2F5
100
AcDbEntity
  8
0
100
AcDbBlockBegin
  2
*B23
 70
     0
 10
0.0
 20
0.0
 30
0.0
  3
*B23
  1

  0
LINE
  5
2F6
100
AcDbEntity
  8
0
  6
Continuous
 62
     8
100
AcDbLine
 10
601.063889
 20
51.207654
 30
0.0
 11
671.959021
 21
51.207654
 31
0.0
  0
ENDBLK
  5
2F7
100
AcDbEntity
  8
0
100
AcDbBlockEnd
  0
BLOCK
  5
2FA
100
AcDbEntity
  8
0
100
AcDbBlockBegin
  2
*B24
 70
     0
 10
0.0
 20
0.0
 30
0.0
  3
*B24
  1

  0
LINE
  5
2FB
100
AcDbEntity
  8
0
  6
Continuous
 62
     8
100
AcDbLine
 10
252.085013
 20
209.100276
 30
0.0
 11
252.085013
 21
212.19996
 31
0.0
  0
LINE
  5
2FC
100
AcDbEntity
  8
0
  6
Continuous
 62
     8
100
AcDbLine
 10
252.085013
 20
226.199369
 30
0.0
 11
252.085013
 21
229.299655
 31
0.0
  0
ENDBLK
  5
2FD
100
AcDbEntity
  8
0
100
AcDbBlockEnd
  0
BLOCK
  5
300
100
AcDbEntity
  8
0
100
AcDbBlockBegin
  2
*B25
 70
     0
 10
0.0
 20
0.0
 30
0.0
  3
*B25
  1

  0
LINE
  5
301
100
AcDbEntity
  8
0
  6
Continuous
 62
     8
100
AcDbLine
 10
595.064228
 20
18.101845
 30
0.0
 11
595.064228
 21
45.207993
 31
0.0
  0
LINE
  5
302
100
AcDbEntity
  8
0
  6
Continuous
 62
     8
100
AcDbLine
 10
595.064228
 20
257.198019
 30
0.0
 11
595.064228
 21
282.089935
 31
0.0
  0
ENDBLK
  5
303
100
AcDbEntity
  8
0
100
AcDbBlockEnd
  0
BLOCK
  5
306
100
AcDbEntity
  8
0
100
AcDbBlockBegin
  2
*B26
 70
     0
 10
0.0
 20
0.0
 30
0.0
  3
*B26
  1

  0
LINE
  5
307
100
AcDbEntity
  8
0
  6
Continuous
 62
     8
100
AcDbLine
 10
110.093839
 20
18.101845
 30
0.0
 11
110.093839
 21
45.207993
 31
0.0
  0
LINE
  5
308
100
AcDbEntity
  8
0
  6
Continuous
 62
     8
100
AcDbLine
 10
110.093839
 20
257.198019
 30
0.0
 11
110.093839
 21
282.089935
 31
0.0
  0
ENDBLK
  5
309
100
AcDbEntity
  8
0
100
AcDbBlockEnd
  0
BLOCK
  5
30C
100
AcDbEntity
  8
0
100
AcDbBlockBegin
  2
*B27
 70
     0
 10
0.0
 20
0.0
 30
0.0
  3
*B27
  1

  0
LINE
  5
30D
100
AcDbEntity
  8
0
  6
Continuous
 62
     8
100
AcDbLine
 10
104.094178
 20
151.203006
 30
0.0
 11
127.093079
 21
151.203006
 31
0.0
  0
LINE
  5
30E
100
AcDbEntity
  8
0
  6
Continuous
 62
     8
100
AcDbLine
 10
141.091887
 20
151.203006
 30
0.0
 11
151.369028
 21
151.203006
 31
0.0
  0
LINE
  5
30F
100
AcDbEntity
  8
0
  6
Continuous
 62
     8
100
AcDbLine
 10
157.368689
 20
151.203006
 30
0.0
 11
159.368777
 21
151.203006
 31
0.0
  0
LINE
  5
310
100
AcDbEntity
  8
0
  6
Continuous
 62
     8
100
AcDbLine
 10
165.368438
 20
151.203006
 30
0.0
 11
175.645579
 21
151.203006
 31
0.0
  0
LINE
  5
311
100
AcDbEntity
  8
0
  6
Continuous
 62
     8
100
AcDbLine
 10
181.64524
 20
151.203006
 30
0.0
 11
183.644726
 21
151.203006
 31
0.0
  0
LINE
  5
312
100
AcDbEntity
  8
0
  6
Continuous
 62
     8
100
AcDbLine
 10
189.644387
 20
151.203006
 30
0.0
 11
199.921528
 21
151.203006
 31
0.0
  0
LINE
  5
313
100
AcDbEntity
  8
0
  6
Continuous
 62
     8
100
AcDbLine
 10
205.921189
 20
151.203006
 30
0.0
 11
207.921277
 21
151.203006
 31
0.0
  0
LINE
  5
314
100
AcDbEntity
  8
0
  6
Continuous
 62
     8
100
AcDbLine
 10
213.920938
 20
151.203006
 30
0.0
 11
224.198079
 21
151.203006
 31
0.0
  0
LINE
  5
315
100
AcDbEntity
  8
0
  6
Continuous
 62
     8
100
AcDbLine
 10
230.19774
 20
151.203006
 30
0.0
 11
232.197226
 21
151.203006
 31
0.0
  0
LINE
  5
316
100
AcDbEntity
  8
0
  6
Continuous
 62
     8
100
AcDbLine
 10
238.196887
 20
151.203006
 30
0.0
 11
248.474028
 21
151.203006
 31
0.0
  0
LINE
  5
317
100
AcDbEntity
  8
0
  6
Continuous
 62
     8
100
AcDbLine
 10
254.473689
 20
151.203006
 30
0.0
 11
256.473777
 21
151.203006
 31
0.0
  0
LINE
  5
318
100
AcDbEntity
  8
0
  6
Continuous
 62
     8
100
AcDbLine
 10
262.473438
 20
151.203006
 30
0.0
 11
272.750579
 21
151.203006
 31
0.0
  0
LINE
  5
319
100
AcDbEntity
  8
0
  6
Continuous
 62
     8
100
AcDbLine
 10
278.75024
 20
151.203006
 30
0.0
 11
280.750327
 21
151.203006
 31
0.0
  0
LINE
  5
31A
100
AcDbEntity
  8
0
  6
Continuous
 62
     8
100
AcDbLine
 10
286.749988
 20
151.203006
 30
0.0
 11
297.02713
 21
151.203006
 31
0.0
  0
LINE
  5
31B
100
AcDbEntity
  8
0
  6
Continuous
 62
     8
100
AcDbLine
 10
303.026791
 20
151.203006
 30
0.0
 11
305.026277
 21
151.203006
 31
0.0
  0
LINE
  5
31C
100
AcDbEntity
  8
0
  6
Continuous
 62
     8
100
AcDbLine
 10
311.025938
 20
151.203006
 30
0.0
 11
321.303079
 21
151.203006
 31
0.0
  0
LINE
  5
31D
100
AcDbEntity
  8
0
  6
Continuous
 62
     8
100
AcDbLine
 10
327.30274
 20
151.203006
 30
0.0
 11
329.302827
 21
151.203006
 31
0.0
  0
LINE
  5
31E
100
AcDbEntity
  8
0
  6
Continuous
 62
     8
100
AcDbLine
 10
335.302488
 20
151.203006
 30
0.0
 11
345.57963
 21
151.203006
 31
0.0
  0
LINE
  5
31F
100
AcDbEntity
  8
0
  6
Continuous
 62
     8
100
AcDbLine
 10
351.579291
 20
151.203006
 30
0.0
 11
353.578777
 21
151.203006
 31
0.0
  0
LINE
  5
320
100
AcDbEntity
  8
0
  6
Continuous
 62
     8
100
AcDbLine
 10
359.578438
 20
151.203006
 30
0.0
 11
369.855579
 21
151.203006
 31
0.0
  0
LINE
  5
321
100
AcDbEntity
  8
0
  6
Continuous
 62
     8
100
AcDbLine
 10
375.85524
 20
151.203006
 30
0.0
 11
377.855327
 21
151.203006
 31
0.0
  0
LINE
  5
322
100
AcDbEntity
  8
0
  6
Continuous
 62
     8
100
AcDbLine
 10
383.854988
 20
151.203006
 30
0.0
 11
394.13213
 21
151.203006
 31
0.0
  0
LINE
  5
323
100
AcDbEntity
  8
0
  6
Continuous
 62
     8
100
AcDbLine
 10
400.131791
 20
151.203006
 30
0.0
 11
402.131277
 21
151.203006
 31
0.0
  0
LINE
  5
324
100
AcDbEntity
  8
0
  6
Continuous
 62
     8
100
AcDbLine
 10
408.130938
 20
151.203006
 30
0.0
 11
418.408079
 21
151.203006
 31
0.0
  0
LINE
  5
325
100
AcDbEntity
  8
0
  6
Continuous
 62
     8
100
AcDbLine
 10
424.40774
 20
151.203006
 30
0.0
 11
426.407827
 21
151.203006
 31
0.0
  0
LINE
  5
326
100
AcDbEntity
  8
0
  6
Continuous
 62
     8
100
AcDbLine
 10
432.407488
 20
151.203006
 30
0.0
 11
442.68463
 21
151.203006
 31
0.0
  0
LINE
  5
327
100
AcDbEntity
  8
0
  6
Continuous
 62
     8
100
AcDbLine
 10
448.684291
 20
151.203006
 30
0.0
 11
450.683777
 21
151.203006
 31
0.0
  0
LINE
  5
328
100
AcDbEntity
  8
0
  6
Continuous
 62
     8
100
AcDbLine
 10
456.683438
 20
151.203006
 30
0.0
 11
466.960579
 21
151.203006
 31
0.0
  0
LINE
  5
329
100
AcDbEntity
  8
0
  6
Continuous
 62
     8
100
AcDbLine
 10
472.96024
 20
151.203006
 30
0.0
 11
474.960327
 21
151.203006
 31
0.0
  0
LINE
  5
32A
100
AcDbEntity
  8
0
  6
Continuous
 62
     8
100
AcDbLine
 10
480.959988
 20
151.203006
 30
0.0
 11
491.23713
 21
151.203006
 31
0.0
  0
LINE
  5
32B
100
AcDbEntity
  8
0
  6
Continuous
 62
     8
100
AcDbLine
 10
497.236791
 20
151.203006
 30
0.0
 11
499.236878
 21
151.203006
 31
0.0
  0
LINE
  5
32C
100
AcDbEntity
  8
0
  6
Continuous
 62
     8
100
AcDbLine
 10
505.236539
 20
151.203006
 30
0.0
 11
515.51368
 21
151.203006
 31
0.0
  0
LINE
  5
32D
100
AcDbEntity
  8
0
  6
Continuous
 62
     8
100
AcDbLine
 10
521.51274
 20
151.203006
 30
0.0
 11
523.512827
 21
151.203006
 31
0.0
  0
LINE
  5
32E
100
AcDbEntity
  8
0
  6
Continuous
 62
     8
100
AcDbLine
 10
529.512488
 20
151.203006
 30
0.0
 11
539.78963
 21
151.203006
 31
0.0
  0
LINE
  5
32F
100
AcDbEntity
  8
0
  6
Continuous
 62
     8
100
AcDbLine
 10
545.789291
 20
151.203006
 30
0.0
 11
547.789378
 21
151.203006
 31
0.0
  0
LINE
  5
330
100
AcDbEntity
  8
0
  6
Continuous
 62
     8
100
AcDbLine
 10
553.789039
 20
151.203006
 30
0.0
 11
564.06618
 21
151.203006
 31
0.0
  0
LINE
  5
331
100
AcDbEntity
  8
0
  6
Continuous
 62
     8
100
AcDbLine
 10
578.064988
 20
151.203006
 30
0.0
 11
601.063889
 21
151.203006
 31
0.0
  0
ENDBLK
  5
332
100
AcDbEntity
  8
0
100
AcDbBlockEnd
  0
BLOCK
  5
335
100
AcDbEntity
  8
0
100
AcDbBlockBegin
  2
*B28
 70
     0
 10
0.0
 20
0.0
 30
0.0
  3
*B28
  1

  0
LINE
  5
336
100
AcDbEntity
  8
0
  6
Continuous
 62
     8
100
AcDbLine
 10
453.073054
 20
73.106958
 30
0.0
 11
453.073054
 21
76.206642
 31
0.0
  0
LINE
  5
337
100
AcDbEntity
  8
0
  6
Continuous
 62
     8
100
AcDbLine
 10
453.073054
 20
90.206052
 30
0.0
 11
453.073054
 21
93.305736
 31
0.0
  0
ENDBLK
  5
338
100
AcDbEntity
  8
0
100
AcDbBlockEnd
  0
BLOCK
  5
33B
100
AcDbEntity
  8
0
100
AcDbBlockBegin
  2
*B29
 70
     0
 10
0.0
 20
0.0
 30
0.0
  3
*B29
  1

  0
LINE
  5
33C
100
AcDbEntity
  8
0
  6
Continuous
 62
     8
100
AcDbLine
 10
42.99737
 20
313.004972
 30
0.0
 11
104.094178
 21
313.004972
 31
0.0
  0
ENDBLK
  5
33D
100
AcDbEntity
  8
0
100
AcDbBlockEnd
  0
BLOCK
  5
340
100
AcDbEntity
  8
0
100
AcDbBlockBegin
  2
*B30
 70
     0
 10
0.0
 20
0.0
 30
0.0
  3
*B30
  1

  0
LINE
  5
341
100
AcDbEntity
  8
0
  6
Continuous
 62
     8
100
AcDbLine
 10
77.995593
 20
333.004042
 30
0.0
 11
104.094178
 21
333.004042
 31
0.0
  0
ENDBLK
  5
342
100
AcDbEntity
  8
0
100
AcDbBlockEnd
  0
BLOCK
  5
345
100
AcDbEntity
  8
0
100
AcDbBlockBegin
  2
*B31
 70
     0
 10
0.0
 20
0.0
 30
0.0
  3
*B31
  1

  0
LINE
  5
346
100
AcDbEntity
  8
0
  6
Continuous
 62
     8
100
AcDbLine
 10
601.063889
 20
251.198358
 30
0.0
 11
671.959021
 21
251.198358
 31
0.0
  0
ENDBLK
  5
347
100
AcDbEntity
  8
0
100
AcDbBlockEnd
  0
BLOCK
  5
34A
100
AcDbEntity
  8
0
100
AcDbBlockBegin
  2
*B32
 70
     0
 10
0.0
 20
0.0
 30
0.0
  3
*B32
  1

  0
LINE
  5
34B
100
AcDbEntity
  8
0
  6
Continuous
 62
     8
100
AcDbLine
 10
341.079583
 20
18.101845
 30
0.0
 11
341.079583
 21
22.10202
 31
0.0
  0
LINE
  5
34C
100
AcDbEntity
  8
0
  6
Continuous
 62
     8
100
AcDbLine
 10
341.079583
 20
22.10202
 30
0.0
 11
341.079583
 21
33.614704
 31
0.0
  0
LINE
  5
34D
100
AcDbEntity
  8
0
  6
Continuous
 62
     8
100
AcDbLine
 10
341.079583
 20
39.614365
 30
0.0
 11
341.079583
 21
41.614452
 31
0.0
  0
LINE
  5
34E
100
AcDbEntity
  8
0
  6
Continuous
 62
     8
100
AcDbLine
 10
341.079583
 20
47.614113
 30
0.0
 11
341.079583
 21
59.126797
 31
0.0
  0
LINE
  5
34F
100
AcDbEntity
  8
0
  6
Continuous
 62
     8
100
AcDbLine
 10
341.079583
 20
65.126458
 30
0.0
 11
341.079583
 21
67.126546
 31
0.0
  0
LINE
  5
350
100
AcDbEntity
  8
0
  6
Continuous
 62
     8
100
AcDbLine
 10
341.079583
 20
73.126207
 30
0.0
 11
341.079583
 21
84.638891
 31
0.0
  0
LINE
  5
351
100
AcDbEntity
  8
0
  6
Continuous
 62
     8
100
AcDbLine
 10
341.079583
 20
90.638552
 30
0.0
 11
341.079583
 21
92.638639
 31
0.0
  0
LINE
  5
352
100
AcDbEntity
  8
0
  6
Continuous
 62
     8
100
AcDbLine
 10
341.079583
 20
98.6383
 30
0.0
 11
341.079583
 21
110.151586
 31
0.0
  0
LINE
  5
353
100
AcDbEntity
  8
0
  6
Continuous
 62
     8
100
AcDbLine
 10
341.079583
 20
116.151247
 30
0.0
 11
341.079583
 21
118.150733
 31
0.0
  0
LINE
  5
354
100
AcDbEntity
  8
0
  6
Continuous
 62
     8
100
AcDbLine
 10
341.079583
 20
124.150394
 30
0.0
 11
341.079583
 21
135.663679
 31
0.0
  0
LINE
  5
355
100
AcDbEntity
  8
0
  6
Continuous
 62
     8
100
AcDbLine
 10
341.079583
 20
141.66334
 30
0.0
 11
341.079583
 21
143.663428
 31
0.0
  0
LINE
  5
356
100
AcDbEntity
  8
0
  6
Continuous
 62
     8
100
AcDbLine
 10
341.079583
 20
149.663089
 30
0.0
 11
341.079583
 21
161.175773
 31
0.0
  0
LINE
  5
357
100
AcDbEntity
  8
0
  6
Continuous
 62
     8
100
AcDbLine
 10
341.079583
 20
167.175434
 30
0.0
 11
341.079583
 21
169.175521
 31
0.0
  0
LINE
  5
358
100
AcDbEntity
  8
0
  6
Continuous
 62
     8
100
AcDbLine
 10
341.079583
 20
175.175182
 30
0.0
 11
341.079583
 21
186.687866
 31
0.0
  0
LINE
  5
359
100
AcDbEntity
  8
0
  6
Continuous
 62
     8
100
AcDbLine
 10
341.079583
 20
192.687527
 30
0.0
 11
341.079583
 21
194.687615
 31
0.0
  0
LINE
  5
35A
100
AcDbEntity
  8
0
  6
Continuous
 62
     8
100
AcDbLine
 10
341.079583
 20
200.687276
 30
0.0
 11
341.079583
 21
212.19996
 31
0.0
  0
LINE
  5
35B
100
AcDbEntity
  8
0
  6
Continuous
 62
     8
100
AcDbLine
 10
341.079583
 20
226.199369
 30
0.0
 11
341.079583
 21
229.299655
 31
0.0
  0
ENDBLK
  5
35C
100
AcDbEntity
  8
0
100
AcDbBlockEnd
  0
BLOCK
  5
35F
100
AcDbEntity
  8
0
100
AcDbBlockBegin
  2
*B33
 70
     0
 10
0.0
 20
0.0
 30
0.0
  3
*B33
  1

  0
LINE
  5
360
100
AcDbEntity
  8
0
  6
Continuous
 62
     8
100
AcDbLine
 10
104.094178
 20
363.002948
 30
0.0
 11
114.42666
 21
363.002948
 31
0.0
  0
LINE
  5
361
100
AcDbEntity
  8
0
  6
Continuous
 62
     8
100
AcDbLine
 10
120.426321
 20
363.002948
 30
0.0
 11
122.426409
 21
363.002948
 31
0.0
  0
LINE
  5
362
100
AcDbEntity
  8
0
  6
Continuous
 62
     8
100
AcDbLine
 10
128.426069
 20
363.002948
 30
0.0
 11
138.758552
 21
363.002948
 31
0.0
  0
LINE
  5
363
100
AcDbEntity
  8
0
  6
Continuous
 62
     8
100
AcDbLine
 10
144.758213
 20
363.002948
 30
0.0
 11
146.7583
 21
363.002948
 31
0.0
  0
LINE
  5
364
100
AcDbEntity
  8
0
  6
Continuous
 62
     8
100
AcDbLine
 10
152.757961
 20
363.002948
 30
0.0
 11
163.090443
 21
363.002948
 31
0.0
  0
LINE
  5
365
100
AcDbEntity
  8
0
  6
Continuous
 62
     8
100
AcDbLine
 10
169.090104
 20
363.002948
 30
0.0
 11
171.090192
 21
363.002948
 31
0.0
  0
LINE
  5
366
100
AcDbEntity
  8
0
  6
Continuous
 62
     8
100
AcDbLine
 10
177.089853
 20
363.002948
 30
0.0
 11
187.422335
 21
363.002948
 31
0.0
  0
LINE
  5
367
100
AcDbEntity
  8
0
  6
Continuous
 62
     8
100
AcDbLine
 10
193.421996
 20
363.002948
 30
0.0
 11
195.422083
 21
363.002948
 31
0.0
  0
LINE
  5
368
100
AcDbEntity
  8
0
  6
Continuous
 62
     8
100
AcDbLine
 10
201.421744
 20
363.002948
 30
0.0
 11
211.754226
 21
363.002948
 31
0.0
  0
LINE
  5
369
100
AcDbEntity
  8
0
  6
Continuous
 62
     8
100
AcDbLine
 10
217.753887
 20
363.002948
 30
0.0
 11
219.753975
 21
363.002948
 31
0.0
  0
LINE
  5
36A
100
AcDbEntity
  8
0
  6
Continuous
 62
     8
100
AcDbLine
 10
225.753636
 20
363.002948
 30
0.0
 11
236.086118
 21
363.002948
 31
0.0
  0
LINE
  5
36B
100
AcDbEntity
  8
0
  6
Continuous
 62
     8
100
AcDbLine
 10
242.085779
 20
363.002948
 30
0.0
 11
244.085866
 21
363.002948
 31
0.0
  0
LINE
  5
36C
100
AcDbEntity
  8
0
  6
Continuous
 62
     8
100
AcDbLine
 10
250.085527
 20
363.002948
 30
0.0
 11
260.418009
 21
363.002948
 31
0.0
  0
LINE
  5
36D
100
AcDbEntity
  8
0
  6
Continuous
 62
     8
100
AcDbLine
 10
266.41767
 20
363.002948
 30
0.0
 11
268.417758
 21
363.002948
 31
0.0
  0
LINE
  5
36E
100
AcDbEntity
  8
0
  6
Continuous
 62
     8
100
AcDbLine
 10
274.416817
 20
363.002948
 30
0.0
 11
284.749901
 21
363.002948
 31
0.0
  0
LINE
  5
36F
100
AcDbEntity
  8
0
  6
Continuous
 62
     8
100
AcDbLine
 10
290.749562
 20
363.002948
 30
0.0
 11
292.749048
 21
363.002948
 31
0.0
  0
LINE
  5
370
100
AcDbEntity
  8
0
  6
Continuous
 62
     8
100
AcDbLine
 10
298.748709
 20
363.002948
 30
0.0
 11
309.081792
 21
363.002948
 31
0.0
  0
LINE
  5
371
100
AcDbEntity
  8
0
  6
Continuous
 62
     8
100
AcDbLine
 10
315.081453
 20
363.002948
 30
0.0
 11
317.080939
 21
363.002948
 31
0.0
  0
LINE
  5
372
100
AcDbEntity
  8
0
  6
Continuous
 62
     8
100
AcDbLine
 10
323.0806
 20
363.002948
 30
0.0
 11
333.413684
 21
363.002948
 31
0.0
  0
LINE
  5
373
100
AcDbEntity
  8
0
  6
Continuous
 62
     8
100
AcDbLine
 10
339.413345
 20
363.002948
 30
0.0
 11
341.412831
 21
363.002948
 31
0.0
  0
LINE
  5
374
100
AcDbEntity
  8
0
  6
Continuous
 62
     8
100
AcDbLine
 10
347.412492
 20
363.002948
 30
0.0
 11
357.745575
 21
363.002948
 31
0.0
  0
LINE
  5
375
100
AcDbEntity
  8
0
  6
Continuous
 62
     8
100
AcDbLine
 10
363.745236
 20
363.002948
 30
0.0
 11
365.744722
 21
363.002948
 31
0.0
  0
LINE
  5
376
100
AcDbEntity
  8
0
  6
Continuous
 62
     8
100
AcDbLine
 10
371.744383
 20
363.002948
 30
0.0
 11
382.076865
 21
363.002948
 31
0.0
  0
LINE
  5
377
100
AcDbEntity
  8
0
  6
Continuous
 62
     8
100
AcDbLine
 10
388.076526
 20
363.002948
 30
0.0
 11
390.076614
 21
363.002948
 31
0.0
  0
LINE
  5
378
100
AcDbEntity
  8
0
  6
Continuous
 62
     8
100
AcDbLine
 10
396.076275
 20
363.002948
 30
0.0
 11
406.408757
 21
363.002948
 31
0.0
  0
LINE
  5
379
100
AcDbEntity
  8
0
  6
Continuous
 62
     8
100
AcDbLine
 10
412.408418
 20
363.002948
 30
0.0
 11
414.408505
 21
363.002948
 31
0.0
  0
LINE
  5
37A
100
AcDbEntity
  8
0
  6
Continuous
 62
     8
100
AcDbLine
 10
420.408166
 20
363.002948
 30
0.0
 11
430.740649
 21
363.002948
 31
0.0
  0
LINE
  5
37B
100
AcDbEntity
  8
0
  6
Continuous
 62
     8
100
AcDbLine
 10
436.740309
 20
363.002948
 30
0.0
 11
438.740397
 21
363.002948
 31
0.0
  0
LINE
  5
37C
100
AcDbEntity
  8
0
  6
Continuous
 62
     8
100
AcDbLine
 10
444.740058
 20
363.002948
 30
0.0
 11
455.07254
 21
363.002948
 31
0.0
  0
LINE
  5
37D
100
AcDbEntity
  8
0
  6
Continuous
 62
     8
100
AcDbLine
 10
461.072201
 20
363.002948
 30
0.0
 11
463.072289
 21
363.002948
 31
0.0
  0
LINE
  5
37E
100
AcDbEntity
  8
0
  6
Continuous
 62
     8
100
AcDbLine
 10
469.071949
 20
363.002948
 30
0.0
 11
479.404432
 21
363.002948
 31
0.0
  0
LINE
  5
37F
100
AcDbEntity
  8
0
  6
Continuous
 62
     8
100
AcDbLine
 10
485.404093
 20
363.002948
 30
0.0
 11
487.40418
 21
363.002948
 31
0.0
  0
LINE
  5
380
100
AcDbEntity
  8
0
  6
Continuous
 62
     8
100
AcDbLine
 10
493.403841
 20
363.002948
 30
0.0
 11
503.736323
 21
363.002948
 31
0.0
  0
LINE
  5
381
100
AcDbEntity
  8
0
  6
Continuous
 62
     8
100
AcDbLine
 10
509.735984
 20
363.002948
 30
0.0
 11
511.736072
 21
363.002948
 31
0.0
  0
LINE
  5
382
100
AcDbEntity
  8
0
  6
Continuous
 62
     8
100
AcDbLine
 10
517.735733
 20
363.002948
 30
0.0
 11
528.068215
 21
363.002948
 31
0.0
  0
LINE
  5
383
100
AcDbEntity
  8
0
  6
Continuous
 62
     8
100
AcDbLine
 10
534.067876
 20
363.002948
 30
0.0
 11
536.067963
 21
363.002948
 31
0.0
  0
LINE
  5
384
100
AcDbEntity
  8
0
  6
Continuous
 62
     8
100
AcDbLine
 10
542.067624
 20
363.002948
 30
0.0
 11
552.400106
 21
363.002948
 31
0.0
  0
LINE
  5
385
100
AcDbEntity
  8
0
  6
Continuous
 62
     8
100
AcDbLine
 10
558.399767
 20
363.002948
 30
0.0
 11
560.399253
 21
363.002948
 31
0.0
  0
LINE
  5
386
100
AcDbEntity
  8
0
  6
Continuous
 62
     8
100
AcDbLine
 10
566.398914
 20
363.002948
 30
0.0
 11
576.731998
 21
363.002948
 31
0.0
  0
LINE
  5
387
100
AcDbEntity
  8
0
  6
Continuous
 62
     8
100
AcDbLine
 10
582.731659
 20
363.002948
 30
0.0
 11
584.731145
 21
363.002948
 31
0.0
  0
LINE
  5
388
100
AcDbEntity
  8
0
  6
Continuous
 62
     8
100
AcDbLine
 10
590.730806
 20
363.002948
 30
0.0
 11
601.063889
 21
363.002948
 31
0.0
  0
ENDBLK
  5
389
100
AcDbEntity
  8
0
100
AcDbBlockEnd
  0
BLOCK
  5
38C
100
AcDbEntity
  8
0
100
AcDbBlockBegin
  2
*B34
 70
     0
 10
0.0
 20
0.0
 30
0.0
  3
*B34
  1

  0
LINE
  5
38D
100
AcDbEntity
  8
0
  6
Continuous
 62
     8
100
AcDbLine
 10
632.961225
 20
99.205543
 30
0.0
 11
636.960798
 21
99.205543
 31
0.0
  0
LINE
  5
38E
100
AcDbEntity
  8
0
  6
Continuous
 62
     8
100
AcDbLine
 10
104.094178
 20
99.205543
 30
0.0
 11
114.770735
 21
99.205543
 31
0.0
  0
LINE
  5
38F
100
AcDbEntity
  8
0
  6
Continuous
 62
     8
100
AcDbLine
 10
120.770396
 20
99.205543
 30
0.0
 11
122.770484
 21
99.205543
 31
0.0
  0
LINE
  5
390
100
AcDbEntity
  8
0
  6
Continuous
 62
     8
100
AcDbLine
 10
128.770145
 20
99.205543
 30
0.0
 11
139.446702
 21
99.205543
 31
0.0
  0
LINE
  5
391
100
AcDbEntity
  8
0
  6
Continuous
 62
     8
100
AcDbLine
 10
145.446363
 20
99.205543
 30
0.0
 11
147.445849
 21
99.205543
 31
0.0
  0
LINE
  5
392
100
AcDbEntity
  8
0
  6
Continuous
 62
     8
100
AcDbLine
 10
153.44551
 20
99.205543
 30
0.0
 11
164.122067
 21
99.205543
 31
0.0
  0
LINE
  5
393
100
AcDbEntity
  8
0
  6
Continuous
 62
     8
100
AcDbLine
 10
170.121728
 20
99.205543
 30
0.0
 11
172.121816
 21
99.205543
 31
0.0
  0
LINE
  5
394
100
AcDbEntity
  8
0
  6
Continuous
 62
     8
100
AcDbLine
 10
178.121477
 20
99.205543
 30
0.0
 11
188.798034
 21
99.205543
 31
0.0
  0
LINE
  5
395
100
AcDbEntity
  8
0
  6
Continuous
 62
     8
100
AcDbLine
 10
194.797695
 20
99.205543
 30
0.0
 11
196.797782
 21
99.205543
 31
0.0
  0
LINE
  5
396
100
AcDbEntity
  8
0
  6
Continuous
 62
     8
100
AcDbLine
 10
202.797443
 20
99.205543
 30
0.0
 11
213.474001
 21
99.205543
 31
0.0
  0
LINE
  5
397
100
AcDbEntity
  8
0
  6
Continuous
 62
     8
100
AcDbLine
 10
219.473662
 20
99.205543
 30
0.0
 11
221.473148
 21
99.205543
 31
0.0
  0
LINE
  5
398
100
AcDbEntity
  8
0
  6
Continuous
 62
     8
100
AcDbLine
 10
227.472809
 20
99.205543
 30
0.0
 11
238.149366
 21
99.205543
 31
0.0
  0
LINE
  5
399
100
AcDbEntity
  8
0
  6
Continuous
 62
     8
100
AcDbLine
 10
244.149027
 20
99.205543
 30
0.0
 11
246.149114
 21
99.205543
 31
0.0
  0
LINE
  5
39A
100
AcDbEntity
  8
0
  6
Continuous
 62
     8
100
AcDbLine
 10
252.148775
 20
99.205543
 30
0.0
 11
262.825333
 21
99.205543
 31
0.0
  0
LINE
  5
39B
100
AcDbEntity
  8
0
  6
Continuous
 62
     8
100
AcDbLine
 10
268.824994
 20
99.205543
 30
0.0
 11
270.82448
 21
99.205543
 31
0.0
  0
LINE
  5
39C
100
AcDbEntity
  8
0
  6
Continuous
 62
     8
100
AcDbLine
 10
276.824141
 20
99.205543
 30
0.0
 11
287.501299
 21
99.205543
 31
0.0
  0
LINE
  5
39D
100
AcDbEntity
  8
0
  6
Continuous
 62
     8
100
AcDbLine
 10
293.500359
 20
99.205543
 30
0.0
 11
295.500446
 21
99.205543
 31
0.0
  0
LINE
  5
39E
100
AcDbEntity
  8
0
  6
Continuous
 62
     8
100
AcDbLine
 10
301.500107
 20
99.205543
 30
0.0
 11
312.176665
 21
99.205543
 31
0.0
  0
LINE
  5
39F
100
AcDbEntity
  8
0
  6
Continuous
 62
     8
100
AcDbLine
 10
318.176326
 20
99.205543
 30
0.0
 11
320.176413
 21
99.205543
 31
0.0
  0
LINE
  5
3A0
100
AcDbEntity
  8
0
  6
Continuous
 62
     8
100
AcDbLine
 10
326.176074
 20
99.205543
 30
0.0
 11
336.852631
 21
99.205543
 31
0.0
  0
LINE
  5
3A1
100
AcDbEntity
  8
0
  6
Continuous
 62
     8
100
AcDbLine
 10
342.852292
 20
99.205543
 30
0.0
 11
344.851778
 21
99.205543
 31
0.0
  0
LINE
  5
3A2
100
AcDbEntity
  8
0
  6
Continuous
 62
     8
100
AcDbLine
 10
350.851439
 20
99.205543
 30
0.0
 11
361.527997
 21
99.205543
 31
0.0
  0
LINE
  5
3A3
100
AcDbEntity
  8
0
  6
Continuous
 62
     8
100
AcDbLine
 10
367.527658
 20
99.205543
 30
0.0
 11
369.527745
 21
99.205543
 31
0.0
  0
LINE
  5
3A4
100
AcDbEntity
  8
0
  6
Continuous
 62
     8
100
AcDbLine
 10
375.527406
 20
99.205543
 30
0.0
 11
386.203963
 21
99.205543
 31
0.0
  0
LINE
  5
3A5
100
AcDbEntity
  8
0
  6
Continuous
 62
     8
100
AcDbLine
 10
392.203624
 20
99.205543
 30
0.0
 11
394.203712
 21
99.205543
 31
0.0
  0
LINE
  5
3A6
100
AcDbEntity
  8
0
  6
Continuous
 62
     8
100
AcDbLine
 10
400.202771
 20
99.205543
 30
0.0
 11
410.87993
 21
99.205543
 31
0.0
  0
LINE
  5
3A7
100
AcDbEntity
  8
0
  6
Continuous
 62
     8
100
AcDbLine
 10
416.878989
 20
99.205543
 30
0.0
 11
418.879077
 21
99.205543
 31
0.0
  0
LINE
  5
3A8
100
AcDbEntity
  8
0
  6
Continuous
 62
     8
100
AcDbLine
 10
424.878738
 20
99.205543
 30
0.0
 11
435.555295
 21
99.205543
 31
0.0
  0
LINE
  5
3A9
100
AcDbEntity
  8
0
  6
Continuous
 62
     8
100
AcDbLine
 10
441.554956
 20
99.205543
 30
0.0
 11
443.555044
 21
99.205543
 31
0.0
  0
LINE
  5
3AA
100
AcDbEntity
  8
0
  6
Continuous
 62
     8
100
AcDbLine
 10
449.554705
 20
99.205543
 30
0.0
 11
460.231262
 21
99.205543
 31
0.0
  0
LINE
  5
3AB
100
AcDbEntity
  8
0
  6
Continuous
 62
     8
100
AcDbLine
 10
466.230923
 20
99.205543
 30
0.0
 11
468.230409
 21
99.205543
 31
0.0
  0
LINE
  5
3AC
100
AcDbEntity
  8
0
  6
Continuous
 62
     8
100
AcDbLine
 10
474.23007
 20
99.205543
 30
0.0
 11
484.906627
 21
99.205543
 31
0.0
  0
LINE
  5
3AD
100
AcDbEntity
  8
0
  6
Continuous
 62
     8
100
AcDbLine
 10
490.906288
 20
99.205543
 30
0.0
 11
492.906376
 21
99.205543
 31
0.0
  0
LINE
  5
3AE
100
AcDbEntity
  8
0
  6
Continuous
 62
     8
100
AcDbLine
 10
498.906037
 20
99.205543
 30
0.0
 11
509.582594
 21
99.205543
 31
0.0
  0
LINE
  5
3AF
100
AcDbEntity
  8
0
  6
Continuous
 62
     8
100
AcDbLine
 10
515.582255
 20
99.205543
 30
0.0
 11
517.582342
 21
99.205543
 31
0.0
  0
LINE
  5
3B0
100
AcDbEntity
  8
0
  6
Continuous
 62
     8
100
AcDbLine
 10
523.582003
 20
99.205543
 30
0.0
 11
534.258561
 21
99.205543
 31
0.0
  0
LINE
  5
3B1
100
AcDbEntity
  8
0
  6
Continuous
 62
     8
100
AcDbLine
 10
540.258222
 20
99.205543
 30
0.0
 11
542.257708
 21
99.205543
 31
0.0
  0
LINE
  5
3B2
100
AcDbEntity
  8
0
  6
Continuous
 62
     8
100
AcDbLine
 10
548.257369
 20
99.205543
 30
0.0
 11
558.933926
 21
99.205543
 31
0.0
  0
LINE
  5
3B3
100
AcDbEntity
  8
0
  6
Continuous
 62
     8
100
AcDbLine
 10
564.933587
 20
99.205543
 30
0.0
 11
566.933674
 21
99.205543
 31
0.0
  0
LINE
  5
3B4
100
AcDbEntity
  8
0
  6
Continuous
 62
     8
100
AcDbLine
 10
572.933335
 20
99.205543
 30
0.0
 11
583.609893
 21
99.205543
 31
0.0
  0
LINE
  5
3B5
100
AcDbEntity
  8
0
  6
Continuous
 62
     8
100
AcDbLine
 10
589.609554
 20
99.205543
 30
0.0
 11
591.60904
 21
99.205543
 31
0.0
  0
LINE
  5
3B6
100
AcDbEntity
  8
0
  6
Continuous
 62
     8
100
AcDbLine
 10
597.608701
 20
99.205543
 30
0.0
 11
608.285258
 21
99.205543
 31
0.0
  0
LINE
  5
3B7
100
AcDbEntity
  8
0
  6
Continuous
 62
     8
100
AcDbLine
 10
614.284919
 20
99.205543
 30
0.0
 11
616.285006
 21
99.205543
 31
0.0
  0
LINE
  5
3B8
100
AcDbEntity
  8
0
  6
Continuous
 62
     8
100
AcDbLine
 10
622.284667
 20
99.205543
 30
0.0
 11
632.961225
 21
99.205543
 31
0.0
  0
ENDBLK
  5
3B9
100
AcDbEntity
  8
0
100
AcDbBlockEnd
  0
BLOCK
  5
3BC
100
AcDbEntity
  8
0
100
AcDbBlockBegin
  2
*B35
 70
     0
 10
0.0
 20
0.0
 30
0.0
  3
*B35
  1

  0
LINE
  5
3BD
100
AcDbEntity
  8
0
  6
Continuous
 62
     8
100
AcDbLine
 10
77.995593
 20
393.001253
 30
0.0
 11
104.094178
 21
393.001253
 31
0.0
  0
ENDBLK
  5
3BE
100
AcDbEntity
  8
0
100
AcDbBlockEnd
  0
BLOCK
  5
3C1
100
AcDbEntity
  8
0
100
AcDbBlockBegin
  2
*B36
 70
     0
 10
0.0
 20
0.0
 30
0.0
  3
*B36
  1

  0
LINE
  5
3C2
100
AcDbEntity
  8
0
  6
Continuous
 62
     8
100
AcDbLine
 10
508.969635
 20
219.199965
 30
0.0
 11
512.069319
 21
219.199965
 31
0.0
  0
LINE
  5
3C3
100
AcDbEntity
  8
0
  6
Continuous
 62
     8
100
AcDbLine
 10
526.068127
 20
219.199965
 30
0.0
 11
529.168413
 21
219.199965
 31
0.0
  0
ENDBLK
  5
3C4
100
AcDbEntity
  8
0
100
AcDbBlockEnd
  0
BLOCK
  5
3C7
100
AcDbEntity
  8
0
100
AcDbBlockBegin
  2
*B37
 70
     0
 10
0.0
 20
0.0
 30
0.0
  3
*B37
  1

  0
LINE
  5
3C8
100
AcDbEntity
  8
0
  6
Continuous
 62
     8
100
AcDbLine
 10
430.074153
 20
209.100276
 30
0.0
 11
430.074153
 21
212.19996
 31
0.0
  0
LINE
  5
3C9
100
AcDbEntity
  8
0
  6
Continuous
 62
     8
100
AcDbLine
 10
430.074153
 20
226.199369
 30
0.0
 11
430.074153
 21
229.299655
 31
0.0
  0
ENDBLK
  5
3CA
100
AcDbEntity
  8
0
100
AcDbBlockEnd
  0
BLOCK
  5
3CD
100
AcDbEntity
  8
0
100
AcDbBlockBegin
  2
*B38
 70
     0
 10
0.0
 20
0.0
 30
0.0
  3
*B38
  1

  0
LINE
  5
3CE
100
AcDbEntity
  8
0
  6
Continuous
 62
     8
100
AcDbLine
 10
308.081448
 20
593.074968
 30
0.0
 11
308.081448
 21
597.075143
 31
0.0
  0
LINE
  5
3CF
100
AcDbEntity
  8
0
  6
Continuous
 62
     8
100
AcDbLine
 10
308.081448
 20
407.000663
 30
0.0
 11
308.081448
 21
418.010468
 31
0.0
  0
LINE
  5
3D0
100
AcDbEntity
  8
0
  6
Continuous
 62
     8
100
AcDbLine
 10
308.081448
 20
424.010128
 30
0.0
 11
308.081448
 21
426.010216
 31
0.0
  0
LINE
  5
3D1
100
AcDbEntity
  8
0
  6
Continuous
 62
     8
100
AcDbLine
 10
308.081448
 20
432.009877
 30
0.0
 11
308.081448
 21
443.019682
 31
0.0
  0
LINE
  5
3D2
100
AcDbEntity
  8
0
  6
Continuous
 62
     8
100
AcDbLine
 10
308.081448
 20
449.019343
 30
0.0
 11
308.081448
 21
451.01943
 31
0.0
  0
LINE
  5
3D3
100
AcDbEntity
  8
0
  6
Continuous
 62
     8
100
AcDbLine
 10
308.081448
 20
457.019091
 30
0.0
 11
308.081448
 21
468.028896
 31
0.0
  0
LINE
  5
3D4
100
AcDbEntity
  8
0
  6
Continuous
 62
     8
100
AcDbLine
 10
308.081448
 20
474.028557
 30
0.0
 11
308.081448
 21
476.028645
 31
0.0
  0
LINE
  5
3D5
100
AcDbEntity
  8
0
  6
Continuous
 62
     8
100
AcDbLine
 10
308.081448
 20
482.028306
 30
0.0
 11
308.081448
 21
493.038111
 31
0.0
  0
LINE
  5
3D6
100
AcDbEntity
  8
0
  6
Continuous
 62
     8
100
AcDbLine
 10
308.081448
 20
499.037772
 30
0.0
 11
308.081448
 21
501.037859
 31
0.0
  0
LINE
  5
3D7
100
AcDbEntity
  8
0
  6
Continuous
 62
     8
100
AcDbLine
 10
308.081448
 20
507.03752
 30
0.0
 11
308.081448
 21
518.047325
 31
0.0
  0
LINE
  5
3D8
100
AcDbEntity
  8
0
  6
Continuous
 62
     8
100
AcDbLine
 10
308.081448
 20
524.046986
 30
0.0
 11
308.081448
 21
526.047074
 31
0.0
  0
LINE
  5
3D9
100
AcDbEntity
  8
0
  6
Continuous
 62
     8
100
AcDbLine
 10
308.081448
 20
532.046735
 30
0.0
 11
308.081448
 21
543.05654
 31
0.0
  0
LINE
  5
3DA
100
AcDbEntity
  8
0
  6
Continuous
 62
     8
100
AcDbLine
 10
308.081448
 20
549.056201
 30
0.0
 11
308.081448
 21
551.056288
 31
0.0
  0
LINE
  5
3DB
100
AcDbEntity
  8
0
  6
Continuous
 62
     8
100
AcDbLine
 10
308.081448
 20
557.055949
 30
0.0
 11
308.081448
 21
568.065754
 31
0.0
  0
LINE
  5
3DC
100
AcDbEntity
  8
0
  6
Continuous
 62
     8
100
AcDbLine
 10
308.081448
 20
574.065415
 30
0.0
 11
308.081448
 21
576.065502
 31
0.0
  0
LINE
  5
3DD
100
AcDbEntity
  8
0
  6
Continuous
 62
     8
100
AcDbLine
 10
308.081448
 20
582.065163
 30
0.0
 11
308.081448
 21
593.074968
 31
0.0
  0
ENDBLK
  5
3DE
100
AcDbEntity
  8
0
100
AcDbBlockEnd
  0
BLOCK
  5
3E1
100
AcDbEntity
  8
0
100
AcDbBlockBegin
  2
*B39
 70
     0
 10
0.0
 20
0.0
 30
0.0
  3
*B39
  1

  0
LINE
  5
3E2
100
AcDbEntity
  8
0
  6
Continuous
 62
     8
100
AcDbLine
 10
134.092483
 20
18.101845
 30
0.0
 11
134.092483
 21
22.10202
 31
0.0
  0
LINE
  5
3E3
100
AcDbEntity
  8
0
  6
Continuous
 62
     8
100
AcDbLine
 10
134.092483
 20
22.10202
 30
0.0
 11
134.092483
 21
35.322448
 31
0.0
  0
LINE
  5
3E4
100
AcDbEntity
  8
0
  6
Continuous
 62
     8
100
AcDbLine
 10
134.092483
 20
41.322109
 30
0.0
 11
134.092483
 21
43.322196
 31
0.0
  0
LINE
  5
3E5
100
AcDbEntity
  8
0
  6
Continuous
 62
     8
100
AcDbLine
 10
134.092483
 20
49.321857
 30
0.0
 11
134.092483
 21
62.542886
 31
0.0
  0
LINE
  5
3E6
100
AcDbEntity
  8
0
  6
Continuous
 62
     8
100
AcDbLine
 10
134.092483
 20
68.542547
 30
0.0
 11
134.092483
 21
70.542635
 31
0.0
  0
LINE
  5
3E7
100
AcDbEntity
  8
0
  6
Continuous
 62
     8
100
AcDbLine
 10
134.092483
 20
76.542296
 30
0.0
 11
134.092483
 21
89.762724
 31
0.0
  0
LINE
  5
3E8
100
AcDbEntity
  8
0
  6
Continuous
 62
     8
100
AcDbLine
 10
134.092483
 20
95.762986
 30
0.0
 11
134.092483
 21
97.762472
 31
0.0
  0
LINE
  5
3E9
100
AcDbEntity
  8
0
  6
Continuous
 62
     8
100
AcDbLine
 10
134.092483
 20
103.762133
 30
0.0
 11
134.092483
 21
116.983163
 31
0.0
  0
LINE
  5
3EA
100
AcDbEntity
  8
0
  6
Continuous
 62
     8
100
AcDbLine
 10
134.092483
 20
122.982824
 30
0.0
 11
134.092483
 21
124.982911
 31
0.0
  0
LINE
  5
3EB
100
AcDbEntity
  8
0
  6
Continuous
 62
     8
100
AcDbLine
 10
134.092483
 20
130.982572
 30
0.0
 11
134.092483
 21
144.203602
 31
0.0
  0
LINE
  5
3EC
100
AcDbEntity
  8
0
  6
Continuous
 62
     8
100
AcDbLine
 10
134.092483
 20
158.20241
 30
0.0
 11
134.092483
 21
168.202246
 31
0.0
  0
ENDBLK
  5
3ED
100
AcDbEntity
  8
0
100
AcDbBlockEnd
  0
BLOCK
  5
3F0
100
AcDbEntity
  8
0
100
AcDbBlockBegin
  2
*B40
 70
     0
 10
0.0
 20
0.0
 30
0.0
  3
*B40
  1

  0
LINE
  5
3F1
100
AcDbEntity
  8
0
  6
Continuous
 62
     8
100
AcDbLine
 10
486.070588
 20
278.08976
 30
0.0
 11
486.070588
 21
282.089935
 31
0.0
  0
LINE
  5
3F2
100
AcDbEntity
  8
0
  6
Continuous
 62
     8
100
AcDbLine
 10
486.070588
 20
87.206221
 30
0.0
 11
486.070588
 21
100.205286
 31
0.0
  0
LINE
  5
3F3
100
AcDbEntity
  8
0
  6
Continuous
 62
     8
100
AcDbLine
 10
486.070588
 20
114.204695
 30
0.0
 11
486.070588
 21
129.537096
 31
0.0
  0
LINE
  5
3F4
100
AcDbEntity
  8
0
  6
Continuous
 62
     8
100
AcDbLine
 10
486.070588
 20
135.537358
 30
0.0
 11
486.070588
 21
137.536844
 31
0.0
  0
LINE
  5
3F5
100
AcDbEntity
  8
0
  6
Continuous
 62
     8
100
AcDbLine
 10
486.070588
 20
143.536505
 30
0.0
 11
486.070588
 21
158.869507
 31
0.0
  0
LINE
  5
3F6
100
AcDbEntity
  8
0
  6
Continuous
 62
     8
100
AcDbLine
 10
486.070588
 20
164.869168
 30
0.0
 11
486.070588
 21
166.869255
 31
0.0
  0
LINE
  5
3F7
100
AcDbEntity
  8
0
  6
Continuous
 62
     8
100
AcDbLine
 10
486.070588
 20
172.868916
 30
0.0
 11
486.070588
 21
188.201316
 31
0.0
  0
LINE
  5
3F8
100
AcDbEntity
  8
0
  6
Continuous
 62
     8
100
AcDbLine
 10
486.070588
 20
202.200726
 30
0.0
 11
486.070588
 21
218.164131
 31
0.0
  0
LINE
  5
3F9
100
AcDbEntity
  8
0
  6
Continuous
 62
     8
100
AcDbLine
 10
486.070588
 20
224.163792
 30
0.0
 11
486.070588
 21
226.163879
 31
0.0
  0
LINE
  5
3FA
100
AcDbEntity
  8
0
  6
Continuous
 62
     8
100
AcDbLine
 10
486.070588
 20
232.16354
 30
0.0
 11
486.070588
 21
248.126945
 31
0.0
  0
LINE
  5
3FB
100
AcDbEntity
  8
0
  6
Continuous
 62
     8
100
AcDbLine
 10
486.070588
 20
254.126606
 30
0.0
 11
486.070588
 21
256.126694
 31
0.0
  0
LINE
  5
3FC
100
AcDbEntity
  8
0
  6
Continuous
 62
     8
100
AcDbLine
 10
486.070588
 20
262.126355
 30
0.0
 11
486.070588
 21
278.08976
 31
0.0
  0
ENDBLK
  5
3FD
100
AcDbEntity
  8
0
100
AcDbBlockEnd
  0
BLOCK
  5
400
100
AcDbEntity
  8
0
100
AcDbBlockBegin
  2
*B41
 70
     0
 10
0.0
 20
0.0
 30
0.0
  3
*B41
  1

  0
LINE
  5
401
100
AcDbEntity
  8
0
  6
Continuous
 62
     8
100
AcDbLine
 10
419.975065
 20
219.199965
 30
0.0
 11
423.074749
 21
219.199965
 31
0.0
  0
LINE
  5
402
100
AcDbEntity
  8
0
  6
Continuous
 62
     8
100
AcDbLine
 10
437.073557
 20
219.199965
 30
0.0
 11
440.173843
 21
219.199965
 31
0.0
  0
ENDBLK
  5
403
100
AcDbEntity
  8
0
100
AcDbBlockEnd
  0
BLOCK
  5
406
100
AcDbEntity
  8
0
100
AcDbBlockBegin
  2
*B42
 70
     0
 10
0.0
 20
0.0
 30
0.0
  3
*B42
  1

  0
LINE
  5
407
100
AcDbEntity
  8
0
  6
Continuous
 62
     8
100
AcDbLine
 10
42.99737
 20
219.199965
 30
0.0
 11
46.997545
 21
219.199965
 31
0.0
  0
LINE
  5
408
100
AcDbEntity
  8
0
  6
Continuous
 62
     8
100
AcDbLine
 10
46.997545
 20
219.199965
 30
0.0
 11
59.50937
 21
219.199965
 31
0.0
  0
LINE
  5
409
100
AcDbEntity
  8
0
  6
Continuous
 62
     8
100
AcDbLine
 10
65.509031
 20
219.199965
 30
0.0
 11
67.508517
 21
219.199965
 31
0.0
  0
LINE
  5
40A
100
AcDbEntity
  8
0
  6
Continuous
 62
     8
100
AcDbLine
 10
73.508178
 20
219.199965
 30
0.0
 11
86.020004
 21
219.199965
 31
0.0
  0
LINE
  5
40B
100
AcDbEntity
  8
0
  6
Continuous
 62
     8
100
AcDbLine
 10
92.019665
 20
219.199965
 30
0.0
 11
94.019752
 21
219.199965
 31
0.0
  0
LINE
  5
40C
100
AcDbEntity
  8
0
  6
Continuous
 62
     8
100
AcDbLine
 10
100.019413
 20
219.199965
 30
0.0
 11
112.530637
 21
219.199965
 31
0.0
  0
LINE
  5
40D
100
AcDbEntity
  8
0
  6
Continuous
 62
     8
100
AcDbLine
 10
118.530298
 20
219.199965
 30
0.0
 11
120.530386
 21
219.199965
 31
0.0
  0
LINE
  5
40E
100
AcDbEntity
  8
0
  6
Continuous
 62
     8
100
AcDbLine
 10
126.530047
 20
219.199965
 30
0.0
 11
139.041872
 21
219.199965
 31
0.0
  0
LINE
  5
40F
100
AcDbEntity
  8
0
  6
Continuous
 62
     8
100
AcDbLine
 10
145.041533
 20
219.199965
 30
0.0
 11
147.041621
 21
219.199965
 31
0.0
  0
LINE
  5
410
100
AcDbEntity
  8
0
  6
Continuous
 62
     8
100
AcDbLine
 10
153.041282
 20
219.199965
 30
0.0
 11
165.553107
 21
219.199965
 31
0.0
  0
LINE
  5
411
100
AcDbEntity
  8
0
  6
Continuous
 62
     8
100
AcDbLine
 10
171.552167
 20
219.199965
 30
0.0
 11
173.552254
 21
219.199965
 31
0.0
  0
LINE
  5
412
100
AcDbEntity
  8
0
  6
Continuous
 62
     8
100
AcDbLine
 10
179.551915
 20
219.199965
 30
0.0
 11
192.063741
 21
219.199965
 31
0.0
  0
LINE
  5
413
100
AcDbEntity
  8
0
  6
Continuous
 62
     8
100
AcDbLine
 10
198.063402
 20
219.199965
 30
0.0
 11
200.063489
 21
219.199965
 31
0.0
  0
LINE
  5
414
100
AcDbEntity
  8
0
  6
Continuous
 62
     8
100
AcDbLine
 10
206.06315
 20
219.199965
 30
0.0
 11
218.574374
 21
219.199965
 31
0.0
  0
LINE
  5
415
100
AcDbEntity
  8
0
  6
Continuous
 62
     8
100
AcDbLine
 10
224.574035
 20
219.199965
 30
0.0
 11
226.574123
 21
219.199965
 31
0.0
  0
LINE
  5
416
100
AcDbEntity
  8
0
  6
Continuous
 62
     8
100
AcDbLine
 10
232.573784
 20
219.199965
 30
0.0
 11
245.085609
 21
219.199965
 31
0.0
  0
LINE
  5
417
100
AcDbEntity
  8
0
  6
Continuous
 62
     8
100
AcDbLine
 10
259.085019
 20
219.199965
 30
0.0
 11
262.184703
 21
219.199965
 31
0.0
  0
ENDBLK
  5
418
100
AcDbEntity
  8
0
100
AcDbBlockEnd
  0
BLOCK
  5
41B
100
AcDbEntity
  8
0
100
AcDbBlockBegin
  2
*B43
 70
     0
 10
0.0
 20
0.0
 30
0.0
  3
*B43
  1

  0
LINE
  5
41C
100
AcDbEntity
  8
0
  6
Continuous
 62
     8
100
AcDbLine
 10
42.99737
 20
83.206046
 30
0.0
 11
46.997545
 21
83.206046
 31
0.0
  0
LINE
  5
41D
100
AcDbEntity
  8
0
  6
Continuous
 62
     8
100
AcDbLine
 10
46.997545
 20
83.206046
 30
0.0
 11
57.34687
 21
83.206046
 31
0.0
  0
LINE
  5
41E
100
AcDbEntity
  8
0
  6
Continuous
 62
     8
100
AcDbLine
 10
63.346531
 20
83.206046
 30
0.0
 11
65.346017
 21
83.206046
 31
0.0
  0
LINE
  5
41F
100
AcDbEntity
  8
0
  6
Continuous
 62
     8
100
AcDbLine
 10
71.345678
 20
83.206046
 30
0.0
 11
81.695003
 21
83.206046
 31
0.0
  0
LINE
  5
420
100
AcDbEntity
  8
0
  6
Continuous
 62
     8
100
AcDbLine
 10
87.694664
 20
83.206046
 30
0.0
 11
89.694751
 21
83.206046
 31
0.0
  0
LINE
  5
421
100
AcDbEntity
  8
0
  6
Continuous
 62
     8
100
AcDbLine
 10
95.694412
 20
83.206046
 30
0.0
 11
106.043737
 21
83.206046
 31
0.0
  0
LINE
  5
422
100
AcDbEntity
  8
0
  6
Continuous
 62
     8
100
AcDbLine
 10
112.043398
 20
83.206046
 30
0.0
 11
114.043485
 21
83.206046
 31
0.0
  0
LINE
  5
423
100
AcDbEntity
  8
0
  6
Continuous
 62
     8
100
AcDbLine
 10
120.043146
 20
83.206046
 30
0.0
 11
130.392471
 21
83.206046
 31
0.0
  0
LINE
  5
424
100
AcDbEntity
  8
0
  6
Continuous
 62
     8
100
AcDbLine
 10
136.392132
 20
83.206046
 30
0.0
 11
138.39222
 21
83.206046
 31
0.0
  0
LINE
  5
425
100
AcDbEntity
  8
0
  6
Continuous
 62
     8
100
AcDbLine
 10
144.391881
 20
83.206046
 30
0.0
 11
154.741206
 21
83.206046
 31
0.0
  0
LINE
  5
426
100
AcDbEntity
  8
0
  6
Continuous
 62
     8
100
AcDbLine
 10
160.740867
 20
83.206046
 30
0.0
 11
162.740353
 21
83.206046
 31
0.0
  0
LINE
  5
427
100
AcDbEntity
  8
0
  6
Continuous
 62
     8
100
AcDbLine
 10
168.740014
 20
83.206046
 30
0.0
 11
179.08994
 21
83.206046
 31
0.0
  0
LINE
  5
428
100
AcDbEntity
  8
0
  6
Continuous
 62
     8
100
AcDbLine
 10
193.088748
 20
83.206046
 30
0.0
 11
196.188432
 21
83.206046
 31
0.0
  0
ENDBLK
  5
429
100
AcDbEntity
  8
0
100
AcDbBlockEnd
  0
BLOCK
  5
42C
100
AcDbEntity
  8
0
100
AcDbBlockBegin
  2
*B44
 70
     0
 10
0.0
 20
0.0
 30
0.0
  3
*B44
  1

  0
LINE
  5
42D
100
AcDbEntity
  8
0
  6
Continuous
 62
     8
100
AcDbLine
 10
330.980495
 20
219.199965
 30
0.0
 11
334.080179
 21
219.199965
 31
0.0
  0
LINE
  5
42E
100
AcDbEntity
  8
0
  6
Continuous
 62
     8
100
AcDbLine
 10
348.078987
 20
219.199965
 30
0.0
 11
351.179273
 21
219.199965
 31
0.0
  0
ENDBLK
  5
42F
100
AcDbEntity
  8
0
100
AcDbBlockEnd
  0
BLOCK
  5
432
100
AcDbEntity
  8
0
100
AcDbBlockBegin
  2
*B45
 70
     0
 10
0.0
 20
0.0
 30
0.0
  3
*B45
  1

  0
LINE
  5
433
100
AcDbEntity
  8
0
  6
Continuous
 62
     8
100
AcDbLine
 10
571.065584
 20
307.005311
 30
0.0
 11
571.065584
 21
318.205199
 31
0.0
  0
LINE
  5
434
100
AcDbEntity
  8
0
  6
Continuous
 62
     8
100
AcDbLine
 10
571.065584
 20
324.20486
 30
0.0
 11
571.065584
 21
326.204346
 31
0.0
  0
LINE
  5
435
100
AcDbEntity
  8
0
  6
Continuous
 62
     8
100
AcDbLine
 10
571.065584
 20
332.204608
 30
0.0
 11
571.065584
 21
343.403895
 31
0.0
  0
LINE
  5
436
100
AcDbEntity
  8
0
  6
Continuous
 62
     8
100
AcDbLine
 10
571.065584
 20
349.403556
 30
0.0
 11
571.065584
 21
351.403644
 31
0.0
  0
LINE
  5
437
100
AcDbEntity
  8
0
  6
Continuous
 62
     8
100
AcDbLine
 10
571.065584
 20
357.403305
 30
0.0
 11
571.065584
 21
368.602592
 31
0.0
  0
LINE
  5
438
100
AcDbEntity
  8
0
  6
Continuous
 62
     8
100
AcDbLine
 10
571.065584
 20
374.602253
 30
0.0
 11
571.065584
 21
376.60234
 31
0.0
  0
LINE
  5
439
100
AcDbEntity
  8
0
  6
Continuous
 62
     8
100
AcDbLine
 10
571.065584
 20
382.602001
 30
0.0
 11
571.065584
 21
393.801288
 31
0.0
  0
LINE
  5
43A
100
AcDbEntity
  8
0
  6
Continuous
 62
     8
100
AcDbLine
 10
571.065584
 20
399.800949
 30
0.0
 11
571.065584
 21
401.801037
 31
0.0
  0
LINE
  5
43B
100
AcDbEntity
  8
0
  6
Continuous
 62
     8
100
AcDbLine
 10
571.065584
 20
407.800698
 30
0.0
 11
571.065584
 21
418.999985
 31
0.0
  0
ENDBLK
  5
43C
100
AcDbEntity
  8
0
100
AcDbBlockEnd
  0
BLOCK
  5
43F
100
AcDbEntity
  8
0
100
AcDbBlockBegin
  2
*B46
 70
     0
 10
0.0
 20
0.0
 30
0.0
  3
*B46
  1

  0
LINE
  5
440
100
AcDbEntity
  8
0
  6
Continuous
 62
     8
100
AcDbLine
 10
560.066005
 20
418.999985
 30
0.0
 11
560.066005
 21
455.010582
 31
0.0
  0
ENDBLK
  5
441
100
AcDbEntity
  8
0
100
AcDbBlockEnd
  0
BLOCK
  5
444
100
AcDbEntity
  8
0
100
AcDbBlockBegin
  2
*B47
 70
     0
 10
0.0
 20
0.0
 30
0.0
  3
*B47
  1

  0
LINE
  5
445
100
AcDbEntity
  8
0
  6
Continuous
 62
     8
100
AcDbLine
 10
186.089344
 20
73.106958
 30
0.0
 11
186.089344
 21
76.206642
 31
0.0
  0
LINE
  5
446
100
AcDbEntity
  8
0
  6
Continuous
 62
     8
100
AcDbLine
 10
186.089344
 20
90.206052
 30
0.0
 11
186.089344
 21
93.305736
 31
0.0
  0
ENDBLK
  5
447
100
AcDbEntity
  8
0
100
AcDbBlockEnd
  0
BLOCK
  5
44A
100
AcDbEntity
  8
0
100
AcDbBlockBegin
  2
*B48
 70
     0
 10
0.0
 20
0.0
 30
0.0
  3
*B48
  1

  0
LINE
  5
44B
100
AcDbEntity
  8
0
  6
Continuous
 62
     8
100
AcDbLine
 10
397.076018
 20
593.074968
 30
0.0
 11
397.076018
 21
597.075143
 31
0.0
  0
LINE
  5
44C
100
AcDbEntity
  8
0
  6
Continuous
 62
     8
100
AcDbLine
 10
397.076018
 20
407.000663
 30
0.0
 11
397.076018
 21
418.010468
 31
0.0
  0
LINE
  5
44D
100
AcDbEntity
  8
0
  6
Continuous
 62
     8
100
AcDbLine
 10
397.076018
 20
424.010128
 30
0.0
 11
397.076018
 21
426.010216
 31
0.0
  0
LINE
  5
44E
100
AcDbEntity
  8
0
  6
Continuous
 62
     8
100
AcDbLine
 10
397.076018
 20
432.009877
 30
0.0
 11
397.076018
 21
443.019682
 31
0.0
  0
LINE
  5
44F
100
AcDbEntity
  8
0
  6
Continuous
 62
     8
100
AcDbLine
 10
397.076018
 20
449.019343
 30
0.0
 11
397.076018
 21
451.01943
 31
0.0
  0
LINE
  5
450
100
AcDbEntity
  8
0
  6
Continuous
 62
     8
100
AcDbLine
 10
397.076018
 20
457.019091
 30
0.0
 11
397.076018
 21
468.028896
 31
0.0
  0
LINE
  5
451
100
AcDbEntity
  8
0
  6
Continuous
 62
     8
100
AcDbLine
 10
397.076018
 20
474.028557
 30
0.0
 11
397.076018
 21
476.028645
 31
0.0
  0
LINE
  5
452
100
AcDbEntity
  8
0
  6
Continuous
 62
     8
100
AcDbLine
 10
397.076018
 20
482.028306
 30
0.0
 11
397.076018
 21
493.038111
 31
0.0
  0
LINE
  5
453
100
AcDbEntity
  8
0
  6
Continuous
 62
     8
100
AcDbLine
 10
397.076018
 20
499.037772
 30
0.0
 11
397.076018
 21
501.037859
 31
0.0
  0
LINE
  5
454
100
AcDbEntity
  8
0
  6
Continuous
 62
     8
100
AcDbLine
 10
397.076018
 20
507.03752
 30
0.0
 11
397.076018
 21
518.047325
 31
0.0
  0
LINE
  5
455
100
AcDbEntity
  8
0
  6
Continuous
 62
     8
100
AcDbLine
 10
397.076018
 20
524.046986
 30
0.0
 11
397.076018
 21
526.047074
 31
0.0
  0
LINE
  5
456
100
AcDbEntity
  8
0
  6
Continuous
 62
     8
100
AcDbLine
 10
397.076018
 20
532.046735
 30
0.0
 11
397.076018
 21
543.05654
 31
0.0
  0
LINE
  5
457
100
AcDbEntity
  8
0
  6
Continuous
 62
     8
100
AcDbLine
 10
397.076018
 20
549.056201
 30
0.0
 11
397.076018
 21
551.056288
 31
0.0
  0
LINE
  5
458
100
AcDbEntity
  8
0
  6
Continuous
 62
     8
100
AcDbLine
 10
397.076018
 20
557.055949
 30
0.0
 11
397.076018
 21
568.065754
 31
0.0
  0
LINE
  5
459
100
AcDbEntity
  8
0
  6
Continuous
 62
     8
100
AcDbLine
 10
397.076018
 20
574.065415
 30
0.0
 11
397.076018
 21
576.065502
 31
0.0
  0
LINE
  5
45A
100
AcDbEntity
  8
0
  6
Continuous
 62
     8
100
AcDbLine
 10
397.076018
 20
582.065163
 30
0.0
 11
397.076018
 21
593.074968
 31
0.0
  0
ENDBLK
  5
45B
100
AcDbEntity
  8
0
100
AcDbBlockEnd
  0
BLOCK
  5
45E
100
AcDbEntity
  8
0
100
AcDbBlockBegin
  2
*B49
 70
     0
 10
0.0
 20
0.0
 30
0.0
  3
*B49
  1

  0
LINE
  5
45F
100
AcDbEntity
  8
0
  6
Continuous
 62
     8
100
AcDbLine
 10
77.995593
 20
195.20072
 30
0.0
 11
81.995166
 21
195.20072
 31
0.0
  0
LINE
  5
460
100
AcDbEntity
  8
0
  6
Continuous
 62
     8
100
AcDbLine
 10
81.995166
 20
195.20072
 30
0.0
 11
96.814461
 21
195.20072
 31
0.0
  0
LINE
  5
461
100
AcDbEntity
  8
0
  6
Continuous
 62
     8
100
AcDbLine
 10
102.814122
 20
195.20072
 30
0.0
 11
104.813608
 21
195.20072
 31
0.0
  0
LINE
  5
462
100
AcDbEntity
  8
0
  6
Continuous
 62
     8
100
AcDbLine
 10
110.813269
 20
195.20072
 30
0.0
 11
125.632564
 21
195.20072
 31
0.0
  0
LINE
  5
463
100
AcDbEntity
  8
0
  6
Continuous
 62
     8
100
AcDbLine
 10
131.632225
 20
195.20072
 30
0.0
 11
133.632312
 21
195.20072
 31
0.0
  0
LINE
  5
464
100
AcDbEntity
  8
0
  6
Continuous
 62
     8
100
AcDbLine
 10
139.631973
 20
195.20072
 30
0.0
 11
154.451268
 21
195.20072
 31
0.0
  0
LINE
  5
465
100
AcDbEntity
  8
0
  6
Continuous
 62
     8
100
AcDbLine
 10
160.450328
 20
195.20072
 30
0.0
 11
162.450415
 21
195.20072
 31
0.0
  0
LINE
  5
466
100
AcDbEntity
  8
0
  6
Continuous
 62
     8
100
AcDbLine
 10
168.450076
 20
195.20072
 30
0.0
 11
183.269371
 21
195.20072
 31
0.0
  0
LINE
  5
467
100
AcDbEntity
  8
0
  6
Continuous
 62
     8
100
AcDbLine
 10
189.269032
 20
195.20072
 30
0.0
 11
191.268518
 21
195.20072
 31
0.0
  0
LINE
  5
468
100
AcDbEntity
  8
0
  6
Continuous
 62
     8
100
AcDbLine
 10
197.268179
 20
195.20072
 30
0.0
 11
212.087474
 21
195.20072
 31
0.0
  0
LINE
  5
469
100
AcDbEntity
  8
0
  6
Continuous
 62
     8
100
AcDbLine
 10
226.086883
 20
195.20072
 30
0.0
 11
241.752531
 21
195.20072
 31
0.0
  0
LINE
  5
46A
100
AcDbEntity
  8
0
  6
Continuous
 62
     8
100
AcDbLine
 10
247.752192
 20
195.20072
 30
0.0
 11
249.751678
 21
195.20072
 31
0.0
  0
LINE
  5
46B
100
AcDbEntity
  8
0
  6
Continuous
 62
     8
100
AcDbLine
 10
255.751339
 20
195.20072
 30
0.0
 11
271.417588
 21
195.20072
 31
0.0
  0
LINE
  5
46C
100
AcDbEntity
  8
0
  6
Continuous
 62
     8
100
AcDbLine
 10
277.416648
 20
195.20072
 30
0.0
 11
279.416735
 21
195.20072
 31
0.0
  0
LINE
  5
46D
100
AcDbEntity
  8
0
  6
Continuous
 62
     8
100
AcDbLine
 10
285.416396
 20
195.20072
 30
0.0
 11
301.082044
 21
195.20072
 31
0.0
  0
LINE
  5
46E
100
AcDbEntity
  8
0
  6
Continuous
 62
     8
100
AcDbLine
 10
315.081453
 20
195.20072
 30
0.0
 11
330.747101
 21
195.20072
 31
0.0
  0
LINE
  5
46F
100
AcDbEntity
  8
0
  6
Continuous
 62
     8
100
AcDbLine
 10
336.746762
 20
195.20072
 30
0.0
 11
338.746248
 21
195.20072
 31
0.0
  0
LINE
  5
470
100
AcDbEntity
  8
0
  6
Continuous
 62
     8
100
AcDbLine
 10
344.745909
 20
195.20072
 30
0.0
 11
360.411557
 21
195.20072
 31
0.0
  0
LINE
  5
471
100
AcDbEntity
  8
0
  6
Continuous
 62
     8
100
AcDbLine
 10
366.411218
 20
195.20072
 30
0.0
 11
368.411305
 21
195.20072
 31
0.0
  0
LINE
  5
472
100
AcDbEntity
  8
0
  6
Continuous
 62
     8
100
AcDbLine
 10
374.410966
 20
195.20072
 30
0.0
 11
390.076614
 21
195.20072
 31
0.0
  0
LINE
  5
473
100
AcDbEntity
  8
0
  6
Continuous
 62
     8
100
AcDbLine
 10
404.076023
 20
195.20072
 30
0.0
 11
419.741671
 21
195.20072
 31
0.0
  0
LINE
  5
474
100
AcDbEntity
  8
0
  6
Continuous
 62
     8
100
AcDbLine
 10
425.741332
 20
195.20072
 30
0.0
 11
427.740818
 21
195.20072
 31
0.0
  0
LINE
  5
475
100
AcDbEntity
  8
0
  6
Continuous
 62
     8
100
AcDbLine
 10
433.740479
 20
195.20072
 30
0.0
 11
449.406127
 21
195.20072
 31
0.0
  0
LINE
  5
476
100
AcDbEntity
  8
0
  6
Continuous
 62
     8
100
AcDbLine
 10
455.405788
 20
195.20072
 30
0.0
 11
457.405875
 21
195.20072
 31
0.0
  0
LINE
  5
477
100
AcDbEntity
  8
0
  6
Continuous
 62
     8
100
AcDbLine
 10
463.405536
 20
195.20072
 30
0.0
 11
479.071184
 21
195.20072
 31
0.0
  0
LINE
  5
478
100
AcDbEntity
  8
0
  6
Continuous
 62
     8
100
AcDbLine
 10
493.070593
 20
195.20072
 30
0.0
 11
506.069658
 21
195.20072
 31
0.0
  0
ENDBLK
  5
479
100
AcDbEntity
  8
0
100
AcDbBlockEnd
  0
BLOCK
  5
47C
100
AcDbEntity
  8
0
100
AcDbBlockBegin
  2
*B50
 70
     0
 10
0.0
 20
0.0
 30
0.0
  3
*B50
  1

  0
LINE
  5
47D
100
AcDbEntity
  8
0
  6
Continuous
 62
     8
100
AcDbLine
 10
275.083914
 20
18.101845
 30
0.0
 11
275.083914
 21
22.10202
 31
0.0
  0
LINE
  5
47E
100
AcDbEntity
  8
0
  6
Continuous
 62
     8
100
AcDbLine
 10
275.083914
 20
22.10202
 30
0.0
 11
275.083914
 21
42.154626
 31
0.0
  0
LINE
  5
47F
100
AcDbEntity
  8
0
  6
Continuous
 62
     8
100
AcDbLine
 10
275.083914
 20
48.154287
 30
0.0
 11
275.083914
 21
50.154375
 31
0.0
  0
LINE
  5
480
100
AcDbEntity
  8
0
  6
Continuous
 62
     8
100
AcDbLine
 10
275.083914
 20
56.154036
 30
0.0
 11
275.083914
 21
76.206642
 31
0.0
  0
LINE
  5
481
100
AcDbEntity
  8
0
  6
Continuous
 62
     8
100
AcDbLine
 10
275.083914
 20
90.206052
 30
0.0
 11
275.083914
 21
93.305736
 31
0.0
  0
ENDBLK
  5
482
100
AcDbEntity
  8
0
100
AcDbBlockEnd
  0
BLOCK
  5
485
100
AcDbEntity
  8
0
100
AcDbBlockBegin
  2
*B51
 70
     0
 10
0.0
 20
0.0
 30
0.0
  3
*B51
  1

  0
LINE
  5
486
100
AcDbEntity
  8
0
  6
Continuous
 62
     8
100
AcDbLine
 10
42.99737
 20
572.992887
 30
0.0
 11
169.090104
 21
572.992887
 31
0.0
  0
ENDBLK
  5
487
100
AcDbEntity
  8
0
100
AcDbBlockEnd
  0
BLOCK
  5
48A
100
AcDbEntity
  8
0
100
AcDbBlockBegin
  2
*B52
 70
     0
 10
0.0
 20
0.0
 30
0.0
  3
*B52
  1

  0
LINE
  5
48B
100
AcDbEntity
  8
0
  6
Continuous
 62
     8
100
AcDbLine
 10
519.068723
 20
209.100276
 30
0.0
 11
519.068723
 21
212.19996
 31
0.0
  0
LINE
  5
48C
100
AcDbEntity
  8
0
  6
Continuous
 62
     8
100
AcDbLine
 10
519.068723
 20
226.199369
 30
0.0
 11
519.068723
 21
229.299655
 31
0.0
  0
ENDBLK
  5
48D
100
AcDbEntity
  8
0
100
AcDbBlockEnd
  0
BLOCK
  5
490
100
AcDbEntity
  8
0
100
AcDbBlockBegin
  2
*B53
 70
     0
 10
0.0
 20
0.0
 30
0.0
  3
*B53
  1

  0
LINE
  5
491
100
AcDbEntity
  8
0
  6
Continuous
 62
     8
100
AcDbLine
 10
442.973364
 20
83.206046
 30
0.0
 11
446.073049
 21
83.206046
 31
0.0
  0
LINE
  5
492
100
AcDbEntity
  8
0
  6
Continuous
 62
     8
100
AcDbLine
 10
460.072458
 20
83.206046
 30
0.0
 11
463.172143
 21
83.206046
 31
0.0
  0
ENDBLK
  5
493
100
AcDbEntity
  8
0
100
AcDbBlockEnd
  0
BLOCK
  5
496
100
AcDbEntity
  8
0
100
AcDbBlockBegin
  2
*B54
 70
     0
 10
0.0
 20
0.0
 30
0.0
  3
*B54
  1

  0
LINE
  5
497
100
AcDbEntity
  8
0
  6
Continuous
 62
     8
100
AcDbLine
 10
632.961225
 20
203.200469
 30
0.0
 11
636.960798
 21
203.200469
 31
0.0
  0
LINE
  5
498
100
AcDbEntity
  8
0
  6
Continuous
 62
     8
100
AcDbLine
 10
104.094178
 20
203.200469
 30
0.0
 11
114.770735
 21
203.200469
 31
0.0
  0
LINE
  5
499
100
AcDbEntity
  8
0
  6
Continuous
 62
     8
100
AcDbLine
 10
120.770396
 20
203.200469
 30
0.0
 11
122.770484
 21
203.200469
 31
0.0
  0
LINE
  5
49A
100
AcDbEntity
  8
0
  6
Continuous
 62
     8
100
AcDbLine
 10
128.770145
 20
203.200469
 30
0.0
 11
139.446702
 21
203.200469
 31
0.0
  0
LINE
  5
49B
100
AcDbEntity
  8
0
  6
Continuous
 62
     8
100
AcDbLine
 10
145.446363
 20
203.200469
 30
0.0
 11
147.445849
 21
203.200469
 31
0.0
  0
LINE
  5
49C
100
AcDbEntity
  8
0
  6
Continuous
 62
     8
100
AcDbLine
 10
153.44551
 20
203.200469
 30
0.0
 11
164.122067
 21
203.200469
 31
0.0
  0
LINE
  5
49D
100
AcDbEntity
  8
0
  6
Continuous
 62
     8
100
AcDbLine
 10
170.121728
 20
203.200469
 30
0.0
 11
172.121816
 21
203.200469
 31
0.0
  0
LINE
  5
49E
100
AcDbEntity
  8
0
  6
Continuous
 62
     8
100
AcDbLine
 10
178.121477
 20
203.200469
 30
0.0
 11
188.798034
 21
203.200469
 31
0.0
  0
LINE
  5
49F
100
AcDbEntity
  8
0
  6
Continuous
 62
     8
100
AcDbLine
 10
194.797695
 20
203.200469
 30
0.0
 11
196.797782
 21
203.200469
 31
0.0
  0
LINE
  5
4A0
100
AcDbEntity
  8
0
  6
Continuous
 62
     8
100
AcDbLine
 10
202.797443
 20
203.200469
 30
0.0
 11
213.474001
 21
203.200469
 31
0.0
  0
LINE
  5
4A1
100
AcDbEntity
  8
0
  6
Continuous
 62
     8
100
AcDbLine
 10
219.473662
 20
203.200469
 30
0.0
 11
221.473148
 21
203.200469
 31
0.0
  0
LINE
  5
4A2
100
AcDbEntity
  8
0
  6
Continuous
 62
     8
100
AcDbLine
 10
227.472809
 20
203.200469
 30
0.0
 11
238.149366
 21
203.200469
 31
0.0
  0
LINE
  5
4A3
100
AcDbEntity
  8
0
  6
Continuous
 62
     8
100
AcDbLine
 10
244.149027
 20
203.200469
 30
0.0
 11
246.149114
 21
203.200469
 31
0.0
  0
LINE
  5
4A4
100
AcDbEntity
  8
0
  6
Continuous
 62
     8
100
AcDbLine
 10
252.148775
 20
203.200469
 30
0.0
 11
262.825333
 21
203.200469
 31
0.0
  0
LINE
  5
4A5
100
AcDbEntity
  8
0
  6
Continuous
 62
     8
100
AcDbLine
 10
268.824994
 20
203.200469
 30
0.0
 11
270.82448
 21
203.200469
 31
0.0
  0
LINE
  5
4A6
100
AcDbEntity
  8
0
  6
Continuous
 62
     8
100
AcDbLine
 10
276.824141
 20
203.200469
 30
0.0
 11
287.501299
 21
203.200469
 31
0.0
  0
LINE
  5
4A7
100
AcDbEntity
  8
0
  6
Continuous
 62
     8
100
AcDbLine
 10
293.500359
 20
203.200469
 30
0.0
 11
295.500446
 21
203.200469
 31
0.0
  0
LINE
  5
4A8
100
AcDbEntity
  8
0
  6
Continuous
 62
     8
100
AcDbLine
 10
301.500107
 20
203.200469
 30
0.0
 11
312.176665
 21
203.200469
 31
0.0
  0
LINE
  5
4A9
100
AcDbEntity
  8
0
  6
Continuous
 62
     8
100
AcDbLine
 10
318.176326
 20
203.200469
 30
0.0
 11
320.176413
 21
203.200469
 31
0.0
  0
LINE
  5
4AA
100
AcDbEntity
  8
0
  6
Continuous
 62
     8
100
AcDbLine
 10
326.176074
 20
203.200469
 30
0.0
 11
336.852631
 21
203.200469
 31
0.0
  0
LINE
  5
4AB
100
AcDbEntity
  8
0
  6
Continuous
 62
     8
100
AcDbLine
 10
342.852292
 20
203.200469
 30
0.0
 11
344.851778
 21
203.200469
 31
0.0
  0
LINE
  5
4AC
100
AcDbEntity
  8
0
  6
Continuous
 62
     8
100
AcDbLine
 10
350.851439
 20
203.200469
 30
0.0
 11
361.527997
 21
203.200469
 31
0.0
  0
LINE
  5
4AD
100
AcDbEntity
  8
0
  6
Continuous
 62
     8
100
AcDbLine
 10
367.527658
 20
203.200469
 30
0.0
 11
369.527745
 21
203.200469
 31
0.0
  0
LINE
  5
4AE
100
AcDbEntity
  8
0
  6
Continuous
 62
     8
100
AcDbLine
 10
375.527406
 20
203.200469
 30
0.0
 11
386.203963
 21
203.200469
 31
0.0
  0
LINE
  5
4AF
100
AcDbEntity
  8
0
  6
Continuous
 62
     8
100
AcDbLine
 10
392.203624
 20
203.200469
 30
0.0
 11
394.203712
 21
203.200469
 31
0.0
  0
LINE
  5
4B0
100
AcDbEntity
  8
0
  6
Continuous
 62
     8
100
AcDbLine
 10
400.202771
 20
203.200469
 30
0.0
 11
410.87993
 21
203.200469
 31
0.0
  0
LINE
  5
4B1
100
AcDbEntity
  8
0
  6
Continuous
 62
     8
100
AcDbLine
 10
416.878989
 20
203.200469
 30
0.0
 11
418.879077
 21
203.200469
 31
0.0
  0
LINE
  5
4B2
100
AcDbEntity
  8
0
  6
Continuous
 62
     8
100
AcDbLine
 10
424.878738
 20
203.200469
 30
0.0
 11
435.555295
 21
203.200469
 31
0.0
  0
LINE
  5
4B3
100
AcDbEntity
  8
0
  6
Continuous
 62
     8
100
AcDbLine
 10
441.554956
 20
203.200469
 30
0.0
 11
443.555044
 21
203.200469
 31
0.0
  0
LINE
  5
4B4
100
AcDbEntity
  8
0
  6
Continuous
 62
     8
100
AcDbLine
 10
449.554705
 20
203.200469
 30
0.0
 11
460.231262
 21
203.200469
 31
0.0
  0
LINE
  5
4B5
100
AcDbEntity
  8
0
  6
Continuous
 62
     8
100
AcDbLine
 10
466.230923
 20
203.200469
 30
0.0
 11
468.230409
 21
203.200469
 31
0.0
  0
LINE
  5
4B6
100
AcDbEntity
  8
0
  6
Continuous
 62
     8
100
AcDbLine
 10
474.23007
 20
203.200469
 30
0.0
 11
484.906627
 21
203.200469
 31
0.0
  0
LINE
  5
4B7
100
AcDbEntity
  8
0
  6
Continuous
 62
     8
100
AcDbLine
 10
490.906288
 20
203.200469
 30
0.0
 11
492.906376
 21
203.200469
 31
0.0
  0
LINE
  5
4B8
100
AcDbEntity
  8
0
  6
Continuous
 62
     8
100
AcDbLine
 10
498.906037
 20
203.200469
 30
0.0
 11
509.582594
 21
203.200469
 31
0.0
  0
LINE
  5
4B9
100
AcDbEntity
  8
0
  6
Continuous
 62
     8
100
AcDbLine
 10
515.582255
 20
203.200469
 30
0.0
 11
517.582342
 21
203.200469
 31
0.0
  0
LINE
  5
4BA
100
AcDbEntity
  8
0
  6
Continuous
 62
     8
100
AcDbLine
 10
523.582003
 20
203.200469
 30
0.0
 11
534.258561
 21
203.200469
 31
0.0
  0
LINE
  5
4BB
100
AcDbEntity
  8
0
  6
Continuous
 62
     8
100
AcDbLine
 10
540.258222
 20
203.200469
 30
0.0
 11
542.257708
 21
203.200469
 31
0.0
  0
LINE
  5
4BC
100
AcDbEntity
  8
0
  6
Continuous
 62
     8
100
AcDbLine
 10
548.257369
 20
203.200469
 30
0.0
 11
558.933926
 21
203.200469
 31
0.0
  0
LINE
  5
4BD
100
AcDbEntity
  8
0
  6
Continuous
 62
     8
100
AcDbLine
 10
564.933587
 20
203.200469
 30
0.0
 11
566.933674
 21
203.200469
 31
0.0
  0
LINE
  5
4BE
100
AcDbEntity
  8
0
  6
Continuous
 62
     8
100
AcDbLine
 10
572.933335
 20
203.200469
 30
0.0
 11
583.609893
 21
203.200469
 31
0.0
  0
LINE
  5
4BF
100
AcDbEntity
  8
0
  6
Continuous
 62
     8
100
AcDbLine
 10
589.609554
 20
203.200469
 30
0.0
 11
591.60904
 21
203.200469
 31
0.0
  0
LINE
  5
4C0
100
AcDbEntity
  8
0
  6
Continuous
 62
     8
100
AcDbLine
 10
597.608701
 20
203.200469
 30
0.0
 11
608.285258
 21
203.200469
 31
0.0
  0
LINE
  5
4C1
100
AcDbEntity
  8
0
  6
Continuous
 62
     8
100
AcDbLine
 10
614.284919
 20
203.200469
 30
0.0
 11
616.285006
 21
203.200469
 31
0.0
  0
LINE
  5
4C2
100
AcDbEntity
  8
0
  6
Continuous
 62
     8
100
AcDbLine
 10
622.284667
 20
203.200469
 30
0.0
 11
632.961225
 21
203.200469
 31
0.0
  0
ENDBLK
  5
4C3
100
AcDbEntity
  8
0
100
AcDbBlockEnd
  0
BLOCK
  5
4C6
100
AcDbEntity
  8
0
100
AcDbBlockBegin
  2
*B55
 70
     0
 10
0.0
 20
0.0
 30
0.0
  3
*B55
  1

  0
LINE
  5
4C7
100
AcDbEntity
  8
0
  6
Continuous
 62
     8
100
AcDbLine
 10
219.087479
 20
69.206637
 30
0.0
 11
219.087479
 21
100.205286
 31
0.0
  0
LINE
  5
4C8
100
AcDbEntity
  8
0
  6
Continuous
 62
     8
100
AcDbLine
 10
219.087479
 20
114.204695
 30
0.0
 11
219.087479
 21
145.203345
 31
0.0
  0
ENDBLK
  5
4C9
100
AcDbEntity
  8
0
100
AcDbBlockEnd
  0
BLOCK
  5
4CC
100
AcDbEntity
  8
0
100
AcDbBlockBegin
  2
*B56
 70
     0
 10
0.0
 20
0.0
 30
0.0
  3
*B56
  1

  0
LINE
  5
4CD
100
AcDbEntity
  8
0
  6
Continuous
 62
     8
100
AcDbLine
 10
582.065163
 20
418.999985
 30
0.0
 11
582.065163
 21
455.010582
 31
0.0
  0
ENDBLK
  5
4CE
100
AcDbEntity
  8
0
100
AcDbBlockEnd
  0
BLOCK
  5
4D1
100
AcDbEntity
  8
0
100
AcDbBlockBegin
  2
*B57
 70
     0
 10
0.0
 20
0.0
 30
0.0
  3
*B57
  1

  0
LINE
  5
4D2
100
AcDbEntity
  8
0
  6
Continuous
 62
     8
100
AcDbLine
 10
77.995593
 20
107.205292
 30
0.0
 11
81.995166
 21
107.205292
 31
0.0
  0
LINE
  5
4D3
100
AcDbEntity
  8
0
  6
Continuous
 62
     8
100
AcDbLine
 10
81.995166
 20
107.205292
 30
0.0
 11
96.814461
 21
107.205292
 31
0.0
  0
LINE
  5
4D4
100
AcDbEntity
  8
0
  6
Continuous
 62
     8
100
AcDbLine
 10
102.814122
 20
107.205292
 30
0.0
 11
104.813608
 21
107.205292
 31
0.0
  0
LINE
  5
4D5
100
AcDbEntity
  8
0
  6
Continuous
 62
     8
100
AcDbLine
 10
110.813269
 20
107.205292
 30
0.0
 11
125.632564
 21
107.205292
 31
0.0
  0
LINE
  5
4D6
100
AcDbEntity
  8
0
  6
Continuous
 62
     8
100
AcDbLine
 10
131.632225
 20
107.205292
 30
0.0
 11
133.632312
 21
107.205292
 31
0.0
  0
LINE
  5
4D7
100
AcDbEntity
  8
0
  6
Continuous
 62
     8
100
AcDbLine
 10
139.631973
 20
107.205292
 30
0.0
 11
154.451268
 21
107.205292
 31
0.0
  0
LINE
  5
4D8
100
AcDbEntity
  8
0
  6
Continuous
 62
     8
100
AcDbLine
 10
160.450328
 20
107.205292
 30
0.0
 11
162.450415
 21
107.205292
 31
0.0
  0
LINE
  5
4D9
100
AcDbEntity
  8
0
  6
Continuous
 62
     8
100
AcDbLine
 10
168.450076
 20
107.205292
 30
0.0
 11
183.269371
 21
107.205292
 31
0.0
  0
LINE
  5
4DA
100
AcDbEntity
  8
0
  6
Continuous
 62
     8
100
AcDbLine
 10
189.269032
 20
107.205292
 30
0.0
 11
191.268518
 21
107.205292
 31
0.0
  0
LINE
  5
4DB
100
AcDbEntity
  8
0
  6
Continuous
 62
     8
100
AcDbLine
 10
197.268179
 20
107.205292
 30
0.0
 11
212.087474
 21
107.205292
 31
0.0
  0
LINE
  5
4DC
100
AcDbEntity
  8
0
  6
Continuous
 62
     8
100
AcDbLine
 10
226.086883
 20
107.205292
 30
0.0
 11
241.752531
 21
107.205292
 31
0.0
  0
LINE
  5
4DD
100
AcDbEntity
  8
0
  6
Continuous
 62
     8
100
AcDbLine
 10
247.752192
 20
107.205292
 30
0.0
 11
249.751678
 21
107.205292
 31
0.0
  0
LINE
  5
4DE
100
AcDbEntity
  8
0
  6
Continuous
 62
     8
100
AcDbLine
 10
255.751339
 20
107.205292
 30
0.0
 11
271.417588
 21
107.205292
 31
0.0
  0
LINE
  5
4DF
100
AcDbEntity
  8
0
  6
Continuous
 62
     8
100
AcDbLine
 10
277.416648
 20
107.205292
 30
0.0
 11
279.416735
 21
107.205292
 31
0.0
  0
LINE
  5
4E0
100
AcDbEntity
  8
0
  6
Continuous
 62
     8
100
AcDbLine
 10
285.416396
 20
107.205292
 30
0.0
 11
301.082044
 21
107.205292
 31
0.0
  0
LINE
  5
4E1
100
AcDbEntity
  8
0
  6
Continuous
 62
     8
100
AcDbLine
 10
315.081453
 20
107.205292
 30
0.0
 11
330.747101
 21
107.205292
 31
0.0
  0
LINE
  5
4E2
100
AcDbEntity
  8
0
  6
Continuous
 62
     8
100
AcDbLine
 10
336.746762
 20
107.205292
 30
0.0
 11
338.746248
 21
107.205292
 31
0.0
  0
LINE
  5
4E3
100
AcDbEntity
  8
0
  6
Continuous
 62
     8
100
AcDbLine
 10
344.745909
 20
107.205292
 30
0.0
 11
360.411557
 21
107.205292
 31
0.0
  0
LINE
  5
4E4
100
AcDbEntity
  8
0
  6
Continuous
 62
     8
100
AcDbLine
 10
366.411218
 20
107.205292
 30
0.0
 11
368.411305
 21
107.205292
 31
0.0
  0
LINE
  5
4E5
100
AcDbEntity
  8
0
  6
Continuous
 62
     8
100
AcDbLine
 10
374.410966
 20
107.205292
 30
0.0
 11
390.076614
 21
107.205292
 31
0.0
  0
LINE
  5
4E6
100
AcDbEntity
  8
0
  6
Continuous
 62
     8
100
AcDbLine
 10
404.076023
 20
107.205292
 30
0.0
 11
419.741671
 21
107.205292
 31
0.0
  0
LINE
  5
4E7
100
AcDbEntity
  8
0
  6
Continuous
 62
     8
100
AcDbLine
 10
425.741332
 20
107.205292
 30
0.0
 11
427.740818
 21
107.205292
 31
0.0
  0
LINE
  5
4E8
100
AcDbEntity
  8
0
  6
Continuous
 62
     8
100
AcDbLine
 10
433.740479
 20
107.205292
 30
0.0
 11
449.406127
 21
107.205292
 31
0.0
  0
LINE
  5
4E9
100
AcDbEntity
  8
0
  6
Continuous
 62
     8
100
AcDbLine
 10
455.405788
 20
107.205292
 30
0.0
 11
457.405875
 21
107.205292
 31
0.0
  0
LINE
  5
4EA
100
AcDbEntity
  8
0
  6
Continuous
 62
     8
100
AcDbLine
 10
463.405536
 20
107.205292
 30
0.0
 11
479.071184
 21
107.205292
 31
0.0
  0
LINE
  5
4EB
100
AcDbEntity
  8
0
  6
Continuous
 62
     8
100
AcDbLine
 10
493.070593
 20
107.205292
 30
0.0
 11
506.069658
 21
107.205292
 31
0.0
  0
ENDBLK
  5
4EC
100
AcDbEntity
  8
0
100
AcDbBlockEnd
  0
BLOCK
  5
4EF
100
AcDbEntity
  8
0
100
AcDbBlockBegin
  2
*B58
 70
     0
 10
0.0
 20
0.0
 30
0.0
  3
*B58
  1

  0
LINE
  5
4F0
100
AcDbEntity
  8
0
  6
Continuous
 62
     8
100
AcDbLine
 10
571.065584
 20
18.101845
 30
0.0
 11
571.065584
 21
22.10202
 31
0.0
  0
LINE
  5
4F1
100
AcDbEntity
  8
0
  6
Continuous
 62
     8
100
AcDbLine
 10
571.065584
 20
22.10202
 30
0.0
 11
571.065584
 21
35.322448
 31
0.0
  0
LINE
  5
4F2
100
AcDbEntity
  8
0
  6
Continuous
 62
     8
100
AcDbLine
 10
571.065584
 20
41.322109
 30
0.0
 11
571.065584
 21
43.322196
 31
0.0
  0
LINE
  5
4F3
100
AcDbEntity
  8
0
  6
Continuous
 62
     8
100
AcDbLine
 10
571.065584
 20
49.321857
 30
0.0
 11
571.065584
 21
62.542886
 31
0.0
  0
LINE
  5
4F4
100
AcDbEntity
  8
0
  6
Continuous
 62
     8
100
AcDbLine
 10
571.065584
 20
68.542547
 30
0.0
 11
571.065584
 21
70.542635
 31
0.0
  0
LINE
  5
4F5
100
AcDbEntity
  8
0
  6
Continuous
 62
     8
100
AcDbLine
 10
571.065584
 20
76.542296
 30
0.0
 11
571.065584
 21
89.762724
 31
0.0
  0
LINE
  5
4F6
100
AcDbEntity
  8
0
  6
Continuous
 62
     8
100
AcDbLine
 10
571.065584
 20
95.762986
 30
0.0
 11
571.065584
 21
97.762472
 31
0.0
  0
LINE
  5
4F7
100
AcDbEntity
  8
0
  6
Continuous
 62
     8
100
AcDbLine
 10
571.065584
 20
103.762133
 30
0.0
 11
571.065584
 21
116.983163
 31
0.0
  0
LINE
  5
4F8
100
AcDbEntity
  8
0
  6
Continuous
 62
     8
100
AcDbLine
 10
571.065584
 20
122.982824
 30
0.0
 11
571.065584
 21
124.982911
 31
0.0
  0
LINE
  5
4F9
100
AcDbEntity
  8
0
  6
Continuous
 62
     8
100
AcDbLine
 10
571.065584
 20
130.982572
 30
0.0
 11
571.065584
 21
144.203602
 31
0.0
  0
LINE
  5
4FA
100
AcDbEntity
  8
0
  6
Continuous
 62
     8
100
AcDbLine
 10
571.065584
 20
158.20241
 30
0.0
 11
571.065584
 21
168.202246
 31
0.0
  0
ENDBLK
  5
4FB
100
AcDbEntity
  8
0
100
AcDbBlockEnd
  0
BLOCK
  5
4FE
100
AcDbEntity
  8
0
100
AcDbBlockBegin
  2
*B59
 70
     0
 10
0.0
 20
0.0
 30
0.0
  3
*B59
  1

  0
LINE
  5
4FF
100
AcDbEntity
  8
0
  6
Continuous
 62
     8
100
AcDbLine
 10
264.984224
 20
83.206046
 30
0.0
 11
268.083909
 21
83.206046
 31
0.0
  0
LINE
  5
500
100
AcDbEntity
  8
0
  6
Continuous
 62
     8
100
AcDbLine
 10
282.083318
 20
83.206046
 30
0.0
 11
285.183002
 21
83.206046
 31
0.0
  0
ENDBLK
  5
501
100
AcDbEntity
  8
0
100
AcDbBlockEnd
  0
BLOCK
  5
504
100
AcDbEntity
  8
0
100
AcDbBlockBegin
  2
*B60
 70
     0
 10
0.0
 20
0.0
 30
0.0
  3
*B60
  1

  0
LINE
  5
505
100
AcDbEntity
  8
0
  6
Continuous
 62
     8
100
AcDbLine
 10
397.076018
 20
278.08976
 30
0.0
 11
397.076018
 21
282.089935
 31
0.0
  0
LINE
  5
506
100
AcDbEntity
  8
0
  6
Continuous
 62
     8
100
AcDbLine
 10
397.076018
 20
87.206221
 30
0.0
 11
397.076018
 21
100.205286
 31
0.0
  0
LINE
  5
507
100
AcDbEntity
  8
0
  6
Continuous
 62
     8
100
AcDbLine
 10
397.076018
 20
114.204695
 30
0.0
 11
397.076018
 21
129.537096
 31
0.0
  0
LINE
  5
508
100
AcDbEntity
  8
0
  6
Continuous
 62
     8
100
AcDbLine
 10
397.076018
 20
135.537358
 30
0.0
 11
397.076018
 21
137.536844
 31
0.0
  0
LINE
  5
509
100
AcDbEntity
  8
0
  6
Continuous
 62
     8
100
AcDbLine
 10
397.076018
 20
143.536505
 30
0.0
 11
397.076018
 21
158.869507
 31
0.0
  0
LINE
  5
50A
100
AcDbEntity
  8
0
  6
Continuous
 62
     8
100
AcDbLine
 10
397.076018
 20
164.869168
 30
0.0
 11
397.076018
 21
166.869255
 31
0.0
  0
LINE
  5
50B
100
AcDbEntity
  8
0
  6
Continuous
 62
     8
100
AcDbLine
 10
397.076018
 20
172.868916
 30
0.0
 11
397.076018
 21
188.201316
 31
0.0
  0
LINE
  5
50C
100
AcDbEntity
  8
0
  6
Continuous
 62
     8
100
AcDbLine
 10
397.076018
 20
202.200726
 30
0.0
 11
397.076018
 21
218.164131
 31
0.0
  0
LINE
  5
50D
100
AcDbEntity
  8
0
  6
Continuous
 62
     8
100
AcDbLine
 10
397.076018
 20
224.163792
 30
0.0
 11
397.076018
 21
226.163879
 31
0.0
  0
LINE
  5
50E
100
AcDbEntity
  8
0
  6
Continuous
 62
     8
100
AcDbLine
 10
397.076018
 20
232.16354
 30
0.0
 11
397.076018
 21
248.126945
 31
0.0
  0
LINE
  5
50F
100
AcDbEntity
  8
0
  6
Continuous
 62
     8
100
AcDbLine
 10
397.076018
 20
254.126606
 30
0.0
 11
397.076018
 21
256.126694
 31
0.0
  0
LINE
  5
510
100
AcDbEntity
  8
0
  6
Continuous
 62
     8
100
AcDbLine
 10
397.076018
 20
262.126355
 30
0.0
 11
397.076018
 21
278.08976
 31
0.0
  0
ENDBLK
  5
511
100
AcDbEntity
  8
0
100
AcDbBlockEnd
  0
BLOCK
  5
514
100
AcDbEntity
  8
0
100
AcDbBlockBegin
  2
*B61
 70
     0
 10
0.0
 20
0.0
 30
0.0
  3
*B61
  1

  0
LINE
  5
515
100
AcDbEntity
  8
0
  6
Continuous
 62
     8
100
AcDbLine
 10
219.087479
 20
593.074968
 30
0.0
 11
219.087479
 21
597.075143
 31
0.0
  0
LINE
  5
516
100
AcDbEntity
  8
0
  6
Continuous
 62
     8
100
AcDbLine
 10
219.087479
 20
407.000663
 30
0.0
 11
219.087479
 21
418.010468
 31
0.0
  0
LINE
  5
517
100
AcDbEntity
  8
0
  6
Continuous
 62
     8
100
AcDbLine
 10
219.087479
 20
424.010128
 30
0.0
 11
219.087479
 21
426.010216
 31
0.0
  0
LINE
  5
518
100
AcDbEntity
  8
0
  6
Continuous
 62
     8
100
AcDbLine
 10
219.087479
 20
432.009877
 30
0.0
 11
219.087479
 21
443.019682
 31
0.0
  0
LINE
  5
519
100
AcDbEntity
  8
0
  6
Continuous
 62
     8
100
AcDbLine
 10
219.087479
 20
449.019343
 30
0.0
 11
219.087479
 21
451.01943
 31
0.0
  0
LINE
  5
51A
100
AcDbEntity
  8
0
  6
Continuous
 62
     8
100
AcDbLine
 10
219.087479
 20
457.019091
 30
0.0
 11
219.087479
 21
468.028896
 31
0.0
  0
LINE
  5
51B
100
AcDbEntity
  8
0
  6
Continuous
 62
     8
100
AcDbLine
 10
219.087479
 20
474.028557
 30
0.0
 11
219.087479
 21
476.028645
 31
0.0
  0
LINE
  5
51C
100
AcDbEntity
  8
0
  6
Continuous
 62
     8
100
AcDbLine
 10
219.087479
 20
482.028306
 30
0.0
 11
219.087479
 21
493.038111
 31
0.0
  0
LINE
  5
51D
100
AcDbEntity
  8
0
  6
Continuous
 62
     8
100
AcDbLine
 10
219.087479
 20
499.037772
 30
0.0
 11
219.087479
 21
501.037859
 31
0.0
  0
LINE
  5
51E
100
AcDbEntity
  8
0
  6
Continuous
 62
     8
100
AcDbLine
 10
219.087479
 20
507.03752
 30
0.0
 11
219.087479
 21
518.047325
 31
0.0
  0
LINE
  5
51F
100
AcDbEntity
  8
0
  6
Continuous
 62
     8
100
AcDbLine
 10
219.087479
 20
524.046986
 30
0.0
 11
219.087479
 21
526.047074
 31
0.0
  0
LINE
  5
520
100
AcDbEntity
  8
0
  6
Continuous
 62
     8
100
AcDbLine
 10
219.087479
 20
532.046735
 30
0.0
 11
219.087479
 21
543.05654
 31
0.0
  0
LINE
  5
521
100
AcDbEntity
  8
0
  6
Continuous
 62
     8
100
AcDbLine
 10
219.087479
 20
549.056201
 30
0.0
 11
219.087479
 21
551.056288
 31
0.0
  0
LINE
  5
522
100
AcDbEntity
  8
0
  6
Continuous
 62
     8
100
AcDbLine
 10
219.087479
 20
557.055949
 30
0.0
 11
219.087479
 21
568.065754
 31
0.0
  0
LINE
  5
523
100
AcDbEntity
  8
0
  6
Continuous
 62
     8
100
AcDbLine
 10
219.087479
 20
574.065415
 30
0.0
 11
219.087479
 21
576.065502
 31
0.0
  0
LINE
  5
524
100
AcDbEntity
  8
0
  6
Continuous
 62
     8
100
AcDbLine
 10
219.087479
 20
582.065163
 30
0.0
 11
219.087479
 21
593.074968
 31
0.0
  0
ENDBLK
  5
525
100
AcDbEntity
  8
0
100
AcDbBlockEnd
  0
BLOCK
  5
528
100
AcDbEntity
  8
0
100
AcDbBlockBegin
  2
*B62
 70
     0
 10
0.0
 20
0.0
 30
0.0
  3
*B62
  1

  0
LINE
  5
529
100
AcDbEntity
  8
0
  6
Continuous
 62
     8
100
AcDbLine
 10
134.092483
 20
307.005311
 30
0.0
 11
134.092483
 21
318.205199
 31
0.0
  0
LINE
  5
52A
100
AcDbEntity
  8
0
  6
Continuous
 62
     8
100
AcDbLine
 10
134.092483
 20
324.20486
 30
0.0
 11
134.092483
 21
326.204346
 31
0.0
  0
LINE
  5
52B
100
AcDbEntity
  8
0
  6
Continuous
 62
     8
100
AcDbLine
 10
134.092483
 20
332.204608
 30
0.0
 11
134.092483
 21
343.403895
 31
0.0
  0
LINE
  5
52C
100
AcDbEntity
  8
0
  6
Continuous
 62
     8
100
AcDbLine
 10
134.092483
 20
349.403556
 30
0.0
 11
134.092483
 21
351.403644
 31
0.0
  0
LINE
  5
52D
100
AcDbEntity
  8
0
  6
Continuous
 62
     8
100
AcDbLine
 10
134.092483
 20
357.403305
 30
0.0
 11
134.092483
 21
368.602592
 31
0.0
  0
LINE
  5
52E
100
AcDbEntity
  8
0
  6
Continuous
 62
     8
100
AcDbLine
 10
134.092483
 20
374.602253
 30
0.0
 11
134.092483
 21
376.60234
 31
0.0
  0
LINE
  5
52F
100
AcDbEntity
  8
0
  6
Continuous
 62
     8
100
AcDbLine
 10
134.092483
 20
382.602001
 30
0.0
 11
134.092483
 21
393.801288
 31
0.0
  0
LINE
  5
530
100
AcDbEntity
  8
0
  6
Continuous
 62
     8
100
AcDbLine
 10
134.092483
 20
399.800949
 30
0.0
 11
134.092483
 21
401.801037
 31
0.0
  0
LINE
  5
531
100
AcDbEntity
  8
0
  6
Continuous
 62
     8
100
AcDbLine
 10
134.092483
 20
407.800698
 30
0.0
 11
134.092483
 21
418.999985
 31
0.0
  0
ENDBLK
  5
532
100
AcDbEntity
  8
0
100
AcDbBlockEnd
  0
BLOCK
  5
535
100
AcDbEntity
  8
0
100
AcDbBlockBegin
  2
*B63
 70
     0
 10
0.0
 20
0.0
 30
0.0
  3
*B63
  1

  0
LINE
  5
536
100
AcDbEntity
  8
0
  6
Continuous
 62
     8
100
AcDbLine
 10
364.078484
 20
73.106958
 30
0.0
 11
364.078484
 21
76.206642
 31
0.0
  0
LINE
  5
537
100
AcDbEntity
  8
0
  6
Continuous
 62
     8
100
AcDbLine
 10
364.078484
 20
90.206052
 30
0.0
 11
364.078484
 21
93.305736
 31
0.0
  0
ENDBLK
  5
538
100
AcDbEntity
  8
0
100
AcDbBlockEnd
  0
BLOCK
  5
53B
100
AcDbEntity
  8
0
100
AcDbBlockBegin
  2
*B64
 70
     0
 10
0.0
 20
0.0
 30
0.0
  3
*B64
  1

  0
LINE
  5
53C
100
AcDbEntity
  8
0
  6
Continuous
 62
     8
100
AcDbLine
 10
42.99737
 20
413.000324
 30
0.0
 11
104.094178
 21
413.000324
 31
0.0
  0
ENDBLK
  5
53D
100
AcDbEntity
  8
0
100
AcDbBlockEnd
  0
BLOCK
  5
540
100
AcDbEntity
  8
0
100
AcDbBlockBegin
  2
*B65
 70
     0
 10
0.0
 20
0.0
 30
0.0
  3
*B65
  1

  0
LINE
  5
541
100
AcDbEntity
  8
0
  6
Continuous
 62
     8
100
AcDbLine
 10
219.087479
 20
278.08976
 30
0.0
 11
219.087479
 21
282.089935
 31
0.0
  0
LINE
  5
542
100
AcDbEntity
  8
0
  6
Continuous
 62
     8
100
AcDbLine
 10
219.087479
 20
157.202667
 30
0.0
 11
219.087479
 21
188.201316
 31
0.0
  0
LINE
  5
543
100
AcDbEntity
  8
0
  6
Continuous
 62
     8
100
AcDbLine
 10
219.087479
 20
202.200726
 30
0.0
 11
219.087479
 21
218.164131
 31
0.0
  0
LINE
  5
544
100
AcDbEntity
  8
0
  6
Continuous
 62
     8
100
AcDbLine
 10
219.087479
 20
224.163792
 30
0.0
 11
219.087479
 21
226.163879
 31
0.0
  0
LINE
  5
545
100
AcDbEntity
  8
0
  6
Continuous
 62
     8
100
AcDbLine
 10
219.087479
 20
232.16354
 30
0.0
 11
219.087479
 21
248.126945
 31
0.0
  0
LINE
  5
546
100
AcDbEntity
  8
0
  6
Continuous
 62
     8
100
AcDbLine
 10
219.087479
 20
254.126606
 30
0.0
 11
219.087479
 21
256.126694
 31
0.0
  0
LINE
  5
547
100
AcDbEntity
  8
0
  6
Continuous
 62
     8
100
AcDbLine
 10
219.087479
 20
262.126355
 30
0.0
 11
219.087479
 21
278.08976
 31
0.0
  0
ENDBLK
  5
548
100
AcDbEntity
  8
0
100
AcDbBlockEnd
  0
BLOCK
  5
54B
100
AcDbEntity
  8
0
100
AcDbBlockBegin
  2
*B66
 70
     0
 10
0.0
 20
0.0
 30
0.0
  3
*B66
  1

  0
LINE
  5
54C
100
AcDbEntity
  8
0
  6
Continuous
 62
     8
100
AcDbLine
 10
308.081448
 20
278.08976
 30
0.0
 11
308.081448
 21
282.089935
 31
0.0
  0
LINE
  5
54D
100
AcDbEntity
  8
0
  6
Continuous
 62
     8
100
AcDbLine
 10
308.081448
 20
87.206221
 30
0.0
 11
308.081448
 21
100.205286
 31
0.0
  0
LINE
  5
54E
100
AcDbEntity
  8
0
  6
Continuous
 62
     8
100
AcDbLine
 10
308.081448
 20
114.204695
 30
0.0
 11
308.081448
 21
129.537096
 31
0.0
  0
LINE
  5
54F
100
AcDbEntity
  8
0
  6
Continuous
 62
     8
100
AcDbLine
 10
308.081448
 20
135.537358
 30
0.0
 11
308.081448
 21
137.536844
 31
0.0
  0
LINE
  5
550
100
AcDbEntity
  8
0
  6
Continuous
 62
     8
100
AcDbLine
 10
308.081448
 20
143.536505
 30
0.0
 11
308.081448
 21
158.869507
 31
0.0
  0
LINE
  5
551
100
AcDbEntity
  8
0
  6
Continuous
 62
     8
100
AcDbLine
 10
308.081448
 20
164.869168
 30
0.0
 11
308.081448
 21
166.869255
 31
0.0
  0
LINE
  5
552
100
AcDbEntity
  8
0
  6
Continuous
 62
     8
100
AcDbLine
 10
308.081448
 20
172.868916
 30
0.0
 11
308.081448
 21
188.201316
 31
0.0
  0
LINE
  5
553
100
AcDbEntity
  8
0
  6
Continuous
 62
     8
100
AcDbLine
 10
308.081448
 20
202.200726
 30
0.0
 11
308.081448
 21
218.164131
 31
0.0
  0
LINE
  5
554
100
AcDbEntity
  8
0
  6
Continuous
 62
     8
100
AcDbLine
 10
308.081448
 20
224.163792
 30
0.0
 11
308.081448
 21
226.163879
 31
0.0
  0
LINE
  5
555
100
AcDbEntity
  8
0
  6
Continuous
 62
     8
100
AcDbLine
 10
308.081448
 20
232.16354
 30
0.0
 11
308.081448
 21
248.126945
 31
0.0
  0
LINE
  5
556
100
AcDbEntity
  8
0
  6
Continuous
 62
     8
100
AcDbLine
 10
308.081448
 20
254.126606
 30
0.0
 11
308.081448
 21
256.126694
 31
0.0
  0
LINE
  5
557
100
AcDbEntity
  8
0
  6
Continuous
 62
     8
100
AcDbLine
 10
308.081448
 20
262.126355
 30
0.0
 11
308.081448
 21
278.08976
 31
0.0
  0
ENDBLK
  5
558
100
AcDbEntity
  8
0
100
AcDbBlockEnd
  0
BLOCK
  5
55B
100
AcDbEntity
  8
0
100
AcDbBlockBegin
  2
*B67
 70
     0
 10
0.0
 20
0.0
 30
0.0
  3
*B67
  1

  0
LINE
  5
55C
100
AcDbEntity
  8
0
  6
Continuous
 62
     8
100
AcDbLine
 10
353.978794
 20
83.206046
 30
0.0
 11
357.078479
 21
83.206046
 31
0.0
  0
LINE
  5
55D
100
AcDbEntity
  8
0
  6
Continuous
 62
     8
100
AcDbLine
 10
371.077888
 20
83.206046
 30
0.0
 11
374.177572
 21
83.206046
 31
0.0
  0
ENDBLK
  5
55E
100
AcDbEntity
  8
0
100
AcDbBlockEnd
  0
BLOCK
  5
561
100
AcDbEntity
  8
0
100
AcDbBlockBegin
  2
*B68
 70
     0
 10
0.0
 20
0.0
 30
0.0
  3
*B68
  1

  0
LINE
  5
562
100
AcDbEntity
  8
0
  6
Continuous
 62
     8
100
AcDbLine
 10
486.070588
 20
593.074968
 30
0.0
 11
486.070588
 21
597.075143
 31
0.0
  0
LINE
  5
563
100
AcDbEntity
  8
0
  6
Continuous
 62
     8
100
AcDbLine
 10
486.070588
 20
407.000663
 30
0.0
 11
486.070588
 21
418.010468
 31
0.0
  0
LINE
  5
564
100
AcDbEntity
  8
0
  6
Continuous
 62
     8
100
AcDbLine
 10
486.070588
 20
424.010128
 30
0.0
 11
486.070588
 21
426.010216
 31
0.0
  0
LINE
  5
565
100
AcDbEntity
  8
0
  6
Continuous
 62
     8
100
AcDbLine
 10
486.070588
 20
432.009877
 30
0.0
 11
486.070588
 21
443.019682
 31
0.0
  0
LINE
  5
566
100
AcDbEntity
  8
0
  6
Continuous
 62
     8
100
AcDbLine
 10
486.070588
 20
449.019343
 30
0.0
 11
486.070588
 21
451.01943
 31
0.0
  0
LINE
  5
567
100
AcDbEntity
  8
0
  6
Continuous
 62
     8
100
AcDbLine
 10
486.070588
 20
457.019091
 30
0.0
 11
486.070588
 21
468.028896
 31
0.0
  0
LINE
  5
568
100
AcDbEntity
  8
0
  6
Continuous
 62
     8
100
AcDbLine
 10
486.070588
 20
474.028557
 30
0.0
 11
486.070588
 21
476.028645
 31
0.0
  0
LINE
  5
569
100
AcDbEntity
  8
0
  6
Continuous
 62
     8
100
AcDbLine
 10
486.070588
 20
482.028306
 30
0.0
 11
486.070588
 21
493.038111
 31
0.0
  0
LINE
  5
56A
100
AcDbEntity
  8
0
  6
Continuous
 62
     8
100
AcDbLine
 10
486.070588
 20
499.037772
 30
0.0
 11
486.070588
 21
501.037859
 31
0.0
  0
LINE
  5
56B
100
AcDbEntity
  8
0
  6
Continuous
 62
     8
100
AcDbLine
 10
486.070588
 20
507.03752
 30
0.0
 11
486.070588
 21
518.047325
 31
0.0
  0
LINE
  5
56C
100
AcDbEntity
  8
0
  6
Continuous
 62
     8
100
AcDbLine
 10
486.070588
 20
524.046986
 30
0.0
 11
486.070588
 21
526.047074
 31
0.0
  0
LINE
  5
56D
100
AcDbEntity
  8
0
  6
Continuous
 62
     8
100
AcDbLine
 10
486.070588
 20
532.046735
 30
0.0
 11
486.070588
 21
543.05654
 31
0.0
  0
LINE
  5
56E
100
AcDbEntity
  8
0
  6
Continuous
 62
     8
100
AcDbLine
 10
486.070588
 20
549.056201
 30
0.0
 11
486.070588
 21
551.056288
 31
0.0
  0
LINE
  5
56F
100
AcDbEntity
  8
0
  6
Continuous
 62
     8
100
AcDbLine
 10
486.070588
 20
557.055949
 30
0.0
 11
486.070588
 21
568.065754
 31
0.0
  0
LINE
  5
570
100
AcDbEntity
  8
0
  6
Continuous
 62
     8
100
AcDbLine
 10
486.070588
 20
574.065415
 30
0.0
 11
486.070588
 21
576.065502
 31
0.0
  0
LINE
  5
571
100
AcDbEntity
  8
0
  6
Continuous
 62
     8
100
AcDbLine
 10
486.070588
 20
582.065163
 30
0.0
 11
486.070588
 21
593.074968
 31
0.0
  0
ENDBLK
  5
572
100
AcDbEntity
  8
0
100
AcDbBlockEnd
  0
BLOCK
  5
575
100
AcDbEntity
  8
0
100
AcDbBlockBegin
  2
*B69
 70
     0
 10
0.0
 20
0.0
 30
0.0
  3
*B69
  1

  0
LINE
  5
576
100
AcDbEntity
  8
0
  6
Continuous
 62
     6
100
AcDbLine
 10
397.076018
 20
194.200977
 30
0.0
 11
397.076018
 21
196.201065
 31
0.0
  0
LINE
  5
577
100
AcDbEntity
  8
0
  6
Continuous
 62
     6
100
AcDbLine
 10
396.076275
 20
195.20072
 30
0.0
 11
398.076362
 21
195.20072
 31
0.0
  0
ENDBLK
  5
578
100
AcDbEntity
  8
0
100
AcDbBlockEnd
  0
BLOCK
  5
57B
100
AcDbEntity
  8
0
100
AcDbBlockBegin
  2
*B70
 70
     0
 10
0.0
 20
0.0
 30
0.0
  3
*B70
  1

  0
LINE
  5
57C
100
AcDbEntity
  8
0
  6
Continuous
 62
     6
100
AcDbLine
 10
252.085013
 20
218.199621
 30
0.0
 11
252.085013
 21
220.199708
 31
0.0
  0
LINE
  5
57D
100
AcDbEntity
  8
0
  6
Continuous
 62
     6
100
AcDbLine
 10
251.08527
 20
219.199965
 30
0.0
 11
253.085358
 21
219.199965
 31
0.0
  0
ENDBLK
  5
57E
100
AcDbEntity
  8
0
100
AcDbBlockEnd
  0
BLOCK
  5
581
100
AcDbEntity
  8
0
100
AcDbBlockBegin
  2
*B71
 70
     0
 10
0.0
 20
0.0
 30
0.0
  3
*B71
  1

  0
LINE
  5
582
100
AcDbEntity
  8
0
  6
Continuous
 62
     6
100
AcDbLine
 10
518.06898
 20
219.199965
 30
0.0
 11
520.068466
 21
219.199965
 31
0.0
  0
LINE
  5
583
100
AcDbEntity
  8
0
  6
Continuous
 62
     6
100
AcDbLine
 10
519.068723
 20
218.199621
 30
0.0
 11
519.068723
 21
220.199708
 31
0.0
  0
ENDBLK
  5
584
100
AcDbEntity
  8
0
100
AcDbBlockEnd
  0
BLOCK
  5
587
100
AcDbEntity
  8
0
100
AcDbBlockBegin
  2
*B72
 70
     0
 10
0.0
 20
0.0
 30
0.0
  3
*B72
  1

  0
LINE
  5
588
100
AcDbEntity
  8
0
  6
Continuous
 62
     6
100
AcDbLine
 10
397.076018
 20
106.204947
 30
0.0
 11
397.076018
 21
108.205034
 31
0.0
  0
LINE
  5
589
100
AcDbEntity
  8
0
  6
Continuous
 62
     6
100
AcDbLine
 10
396.076275
 20
107.205292
 30
0.0
 11
398.076362
 21
107.205292
 31
0.0
  0
ENDBLK
  5
58A
100
AcDbEntity
  8
0
100
AcDbBlockEnd
  0
BLOCK
  5
58D
100
AcDbEntity
  8
0
100
AcDbBlockBegin
  2
*B73
 70
     0
 10
0.0
 20
0.0
 30
0.0
  3
*B73
  1

  0
LINE
  5
58E
100
AcDbEntity
  8
0
  6
Continuous
 62
     6
100
AcDbLine
 10
341.079583
 20
218.199621
 30
0.0
 11
341.079583
 21
220.199708
 31
0.0
  0
LINE
  5
58F
100
AcDbEntity
  8
0
  6
Continuous
 62
     6
100
AcDbLine
 10
340.07984
 20
219.199965
 30
0.0
 11
342.079928
 21
219.199965
 31
0.0
  0
ENDBLK
  5
590
100
AcDbEntity
  8
0
100
AcDbBlockEnd
  0
BLOCK
  5
593
100
AcDbEntity
  8
0
100
AcDbBlockBegin
  2
*B74
 70
     0
 10
0.0
 20
0.0
 30
0.0
  3
*B74
  1

  0
LINE
  5
594
100
AcDbEntity
  8
0
  6
Continuous
 62
     6
100
AcDbLine
 10
275.083914
 20
82.206303
 30
0.0
 11
275.083914
 21
84.206391
 31
0.0
  0
LINE
  5
595
100
AcDbEntity
  8
0
  6
Continuous
 62
     6
100
AcDbLine
 10
274.08357
 20
83.206046
 30
0.0
 11
276.083657
 21
83.206046
 31
0.0
  0
ENDBLK
  5
596
100
AcDbEntity
  8
0
100
AcDbBlockEnd
  0
BLOCK
  5
599
100
AcDbEntity
  8
0
100
AcDbBlockBegin
  2
*B75
 70
     0
 10
0.0
 20
0.0
 30
0.0
  3
*B75
  1

  0
LINE
  5
59A
100
AcDbEntity
  8
0
  6
Continuous
 62
     6
100
AcDbLine
 10
570.065841
 20
151.203006
 30
0.0
 11
572.065327
 21
151.203006
 31
0.0
  0
LINE
  5
59B
100
AcDbEntity
  8
0
  6
Continuous
 62
     6
100
AcDbLine
 10
571.065584
 20
150.203263
 30
0.0
 11
571.065584
 21
152.202749
 31
0.0
  0
ENDBLK
  5
59C
100
AcDbEntity
  8
0
100
AcDbBlockEnd
  0
BLOCK
  5
59F
100
AcDbEntity
  8
0
100
AcDbBlockBegin
  2
*B76
 70
     0
 10
0.0
 20
0.0
 30
0.0
  3
*B76
  1

  0
LINE
  5
5A0
100
AcDbEntity
  8
0
  6
Continuous
 62
     6
100
AcDbLine
 10
429.07441
 20
219.199965
 30
0.0
 11
431.073896
 21
219.199965
 31
0.0
  0
LINE
  5
5A1
100
AcDbEntity
  8
0
  6
Continuous
 62
     6
100
AcDbLine
 10
430.074153
 20
218.199621
 30
0.0
 11
430.074153
 21
220.199708
 31
0.0
  0
ENDBLK
  5
5A2
100
AcDbEntity
  8
0
100
AcDbBlockEnd
  0
BLOCK
  5
5A5
100
AcDbEntity
  8
0
100
AcDbBlockBegin
  2
*B77
 70
     0
 10
0.0
 20
0.0
 30
0.0
  3
*B77
  1

  0
LINE
  5
5A6
100
AcDbEntity
  8
0
  6
Continuous
 62
     6
100
AcDbLine
 10
307.081705
 20
107.205292
 30
0.0
 11
309.081792
 21
107.205292
 31
0.0
  0
LINE
  5
5A7
100
AcDbEntity
  8
0
  6
Continuous
 62
     6
100
AcDbLine
 10
308.081448
 20
106.204947
 30
0.0
 11
308.081448
 21
108.205034
 31
0.0
  0
ENDBLK
  5
5A8
100
AcDbEntity
  8
0
100
AcDbBlockEnd
  0
BLOCK
  5
5AB
100
AcDbEntity
  8
0
100
AcDbBlockBegin
  2
*B78
 70
     0
 10
0.0
 20
0.0
 30
0.0
  3
*B78
  1

  0
LINE
  5
5AC
100
AcDbEntity
  8
0
  6
Continuous
 62
     6
100
AcDbLine
 10
219.087479
 20
194.200977
 30
0.0
 11
219.087479
 21
196.201065
 31
0.0
  0
LINE
  5
5AD
100
AcDbEntity
  8
0
  6
Continuous
 62
     6
100
AcDbLine
 10
218.087135
 20
195.20072
 30
0.0
 11
220.087222
 21
195.20072
 31
0.0
  0
ENDBLK
  5
5AE
100
AcDbEntity
  8
0
100
AcDbBlockEnd
  0
BLOCK
  5
5B1
100
AcDbEntity
  8
0
100
AcDbBlockBegin
  2
*B79
 70
     0
 10
0.0
 20
0.0
 30
0.0
  3
*B79
  1

  0
LINE
  5
5B2
100
AcDbEntity
  8
0
  6
Continuous
 62
     6
100
AcDbLine
 10
219.087479
 20
106.204947
 30
0.0
 11
219.087479
 21
108.205034
 31
0.0
  0
LINE
  5
5B3
100
AcDbEntity
  8
0
  6
Continuous
 62
     6
100
AcDbLine
 10
218.087135
 20
107.205292
 30
0.0
 11
220.087222
 21
107.205292
 31
0.0
  0
ENDBLK
  5
5B4
100
AcDbEntity
  8
0
100
AcDbBlockEnd
  0
BLOCK
  5
5B7
100
AcDbEntity
  8
0
100
AcDbBlockBegin
  2
*B80
 70
     0
 10
0.0
 20
0.0
 30
0.0
  3
*B80
  1

  0
LINE
  5
5B8
100
AcDbEntity
  8
0
  6
Continuous
 62
     6
100
AcDbLine
 10
363.07814
 20
83.206046
 30
0.0
 11
365.078227
 21
83.206046
 31
0.0
  0
LINE
  5
5B9
100
AcDbEntity
  8
0
  6
Continuous
 62
     6
100
AcDbLine
 10
364.078484
 20
82.206303
 30
0.0
 11
364.078484
 21
84.206391
 31
0.0
  0
ENDBLK
  5
5BA
100
AcDbEntity
  8
0
100
AcDbBlockEnd
  0
BLOCK
  5
5BD
100
AcDbEntity
  8
0
100
AcDbBlockBegin
  2
*B81
 70
     0
 10
0.0
 20
0.0
 30
0.0
  3
*B81
  1

  0
LINE
  5
5BE
100
AcDbEntity
  8
0
  6
Continuous
 62
     6
100
AcDbLine
 10
186.089344
 20
82.206303
 30
0.0
 11
186.089344
 21
84.206391
 31
0.0
  0
LINE
  5
5BF
100
AcDbEntity
  8
0
  6
Continuous
 62
     6
100
AcDbLine
 10
185.089
 20
83.206046
 30
0.0
 11
187.089087
 21
83.206046
 31
0.0
  0
ENDBLK
  5
5C0
100
AcDbEntity
  8
0
100
AcDbBlockEnd
  0
BLOCK
  5
5C3
100
AcDbEntity
  8
0
100
AcDbBlockBegin
  2
*B82
 70
     0
 10
0.0
 20
0.0
 30
0.0
  3
*B82
  1

  0
LINE
  5
5C4
100
AcDbEntity
  8
0
  6
Continuous
 62
     6
100
AcDbLine
 10
133.09274
 20
151.203006
 30
0.0
 11
135.092226
 21
151.203006
 31
0.0
  0
LINE
  5
5C5
100
AcDbEntity
  8
0
  6
Continuous
 62
     6
100
AcDbLine
 10
134.092483
 20
150.203263
 30
0.0
 11
134.092483
 21
152.202749
 31
0.0
  0
ENDBLK
  5
5C6
100
AcDbEntity
  8
0
100
AcDbBlockEnd
  0
BLOCK
  5
5C9
100
AcDbEntity
  8
0
100
AcDbBlockBegin
  2
*B83
 70
     0
 10
0.0
 20
0.0
 30
0.0
  3
*B83
  1

  0
LINE
  5
5CA
100
AcDbEntity
  8
0
  6
Continuous
 62
     6
100
AcDbLine
 10
453.073054
 20
82.206303
 30
0.0
 11
453.073054
 21
84.206391
 31
0.0
  0
LINE
  5
5CB
100
AcDbEntity
  8
0
  6
Continuous
 62
     6
100
AcDbLine
 10
452.07271
 20
83.206046
 30
0.0
 11
454.072797
 21
83.206046
 31
0.0
  0
ENDBLK
  5
5CC
100
AcDbEntity
  8
0
100
AcDbBlockEnd
  0
BLOCK
  5
5CF
100
AcDbEntity
  8
0
100
AcDbBlockBegin
  2
*B84
 70
     0
 10
0.0
 20
0.0
 30
0.0
  3
*B84
  1

  0
LINE
  5
5D0
100
AcDbEntity
  8
0
  6
Continuous
 62
     6
100
AcDbLine
 10
308.081448
 20
194.200977
 30
0.0
 11
308.081448
 21
196.201065
 31
0.0
  0
LINE
  5
5D1
100
AcDbEntity
  8
0
  6
Continuous
 62
     6
100
AcDbLine
 10
307.081705
 20
195.20072
 30
0.0
 11
309.081792
 21
195.20072
 31
0.0
  0
ENDBLK
  5
5D2
100
AcDbEntity
  8
0
100
AcDbBlockEnd
  0
BLOCK
  5
5D5
100
AcDbEntity
  8
0
100
AcDbBlockBegin
  2
*B85
 70
     0
 10
0.0
 20
0.0
 30
0.0
  3
*B85
  1

  0
LINE
  5
5D6
100
AcDbEntity
  8
0
  6
Continuous
 62
     6
100
AcDbLine
 10
486.070588
 20
194.200977
 30
0.0
 11
486.070588
 21
196.201065
 31
0.0
  0
LINE
  5
5D7
100
AcDbEntity
  8
0
  6
Continuous
 62
     6
100
AcDbLine
 10
485.070845
 20
195.20072
 30
0.0
 11
487.070932
 21
195.20072
 31
0.0
  0
ENDBLK
  5
5D8
100
AcDbEntity
  8
0
100
AcDbBlockEnd
  0
BLOCK
  5
5DB
100
AcDbEntity
  8
0
100
AcDbBlockBegin
  2
*B86
 70
     0
 10
0.0
 20
0.0
 30
0.0
  3
*B86
  1

  0
LINE
  5
5DC
100
AcDbEntity
  8
0
  6
Continuous
 62
     6
100
AcDbLine
 10
486.070588
 20
106.204947
 30
0.0
 11
486.070588
 21
108.205034
 31
0.0
  0
LINE
  5
5DD
100
AcDbEntity
  8
0
  6
Continuous
 62
     6
100
AcDbLine
 10
485.070845
 20
107.205292
 30
0.0
 11
487.070932
 21
107.205292
 31
0.0
  0
ENDBLK
  5
5DE
100
AcDbEntity
  8
0
100
AcDbBlockEnd
  0
BLOCK
  5
5E1
100
AcDbEntity
  8
0
100
AcDbBlockBegin
  2
*B87
 70
     0
 10
0.0
 20
0.0
 30
0.0
  3
*B87
  1

  0
LINE
  5
5E2
100
AcDbEntity
  8
0
  6
Continuous
 62
     0
100
AcDbLine
 10
442.949303
 20
18.475996
 30
0.0
 11
464.766799
 21
18.475996
 31
0.0
  0
LINE
  5
5E3
100
AcDbEntity
  8
0
  6
Continuous
 62
     0
100
AcDbLine
 10
464.766799
 20
18.475996
 30
0.0
 11
482.802475
 21
93.592666
 31
0.0
  0
SOLID
  5
5E4
100
AcDbEntity
  8
0
  6
Continuous
 62
     0
100
AcDbTrace
 10
482.431932
 20
81.341303
 30
0.0
 11
482.802475
 21
93.592666
 31
0.0
 12
477.570366
 22
82.508271
 32
0.0
 13
477.570366
 23
82.508271
 33
0.0
  0
ENDBLK
  5
5E5
100
AcDbEntity
  8
0
100
AcDbBlockEnd
  0
BLOCK
  5
5E8
100
AcDbEntity
  8
0
100
AcDbBlockBegin
  2
*B88
 70
     0
 10
0.0
 20
0.0
 30
0.0
  3
*B88
  1

  0
LINE
  5
5E9
100
AcDbEntity
  8
0
  6
Continuous
 62
     0
100
AcDbLine
 10
396.594794
 20
18.475996
 30
0.0
 11
416.355658
 21
18.475996
 31
0.0
  0
LINE
  5
5EA
100
AcDbEntity
  8
0
  6
Continuous
 62
     0
100
AcDbLine
 10
416.355658
 20
18.475996
 30
0.0
 11
451.050108
 21
79.640176
 31
0.0
  0
SOLID
  5
5EB
100
AcDbEntity
  8
0
  6
Continuous
 62
     0
100
AcDbTrace
 10
447.303779
 20
67.969289
 30
0.0
 11
451.050108
 21
79.640176
 31
0.0
 12
442.955318
 22
70.436164
 32
0.0
 13
442.955318
 23
70.436164
 33
0.0
  0
ENDBLK
  5
5EC
100
AcDbEntity
  8
0
100
AcDbBlockEnd
  0
BLOCK
  5
5EF
100
AcDbEntity
  8
0
100
AcDbBlockBegin
  2
*B89
 70
     0
 10
0.0
 20
0.0
 30
0.0
  3
*B89
  1

  0
LINE
  5
5F0
100
AcDbEntity
  8
0
  6
Continuous
 62
     0
100
AcDbLine
 10
543.59551
 20
20.101932
 30
0.0
 11
514.159035
 21
20.101932
 31
0.0
  0
LINE
  5
5F1
100
AcDbEntity
  8
0
  6
Continuous
 62
     0
100
AcDbLine
 10
514.159035
 20
20.101932
 30
0.0
 11
495.891168
 21
76.751027
 31
0.0
  0
SOLID
  5
5F2
100
AcDbEntity
  8
0
  6
Continuous
 62
     0
100
AcDbTrace
 10
501.953388
 20
66.097929
 30
0.0
 11
495.891168
 21
76.751027
 31
0.0
 12
497.194684
 22
64.563426
 32
0.0
 13
497.194684
 23
64.563426
 33
0.0
  0
ENDBLK
  5
5F3
100
AcDbEntity
  8
0
100
AcDbBlockEnd
  0
BLOCK
  5
5F6
100
AcDbEntity
  8
0
100
AcDbBlockBegin
  2
*B90
 70
     0
 10
0.0
 20
0.0
 30
0.0
  3
*B90
  1

  0
TEXT
  5
5F7
100
AcDbEntity
  8
TEXT
  6
Continuous
 62
     0
100
AcDbText
 10
396.619048
 20
24.374172
 30
0.0
 40
8.0
  1
M3
100
AcDbText
  0
ENDBLK
  5
5F8
100
AcDbEntity
  8
0
100
AcDbBlockEnd
  0
BLOCK
  5
5FB
100
AcDbEntity
  8
0
100
AcDbBlockBegin
  2
*B91
 70
     0
 10
0.0
 20
0.0
 30
0.0
  3
*B91
  1

  0
TEXT
  5
5FC
100
AcDbEntity
  8
TEXT
  6
Continuous
 62
     0
100
AcDbText
 10
442.97619
 20
24.374172
 30
0.0
 40
8.0
  1
%%c7
100
AcDbText
  0
ENDBLK
  5
5FD
100
AcDbEntity
  8
0
100
AcDbBlockEnd
  0
BLOCK
  5
600
100
AcDbEntity
  8
0
100
AcDbBlockBegin
  2
*B92
 70
     0
 10
0.0
 20
0.0
 30
0.0
  3
*B92
  1

  0
TEXT
  5
601
100
AcDbEntity
  8
TEXT
  6
Continuous
 62
     0
100
AcDbText
 10
517.190476
 20
26.0
 30
0.0
 40
8.0
  1
%%c16
100
AcDbText
  0
ENDBLK
  5
602
100
AcDbEntity
  8
0
100
AcDbBlockEnd
  0
BLOCK
  5
605
100
AcDbEntity
  8
0
100
AcDbBlockBegin
  2
*B93
 70
     0
 10
0.0
 20
0.0
 30
0.0
  3
*B93
  1

  0
TEXT
  5
606
100
AcDbEntity
  8
TEXT
  6
Continuous
 62
     0
100
AcDbText
 10
631.0
 20
143.488189
 30
0.0
 40
8.0
  1
26
 50
90.0
100
AcDbText
  0
ENDBLK
  5
607
100
AcDbEntity
  8
0
100
AcDbBlockEnd
  0
BLOCK
  5
60A
100
AcDbEntity
  8
0
100
AcDbBlockBegin
  2
*B94
 70
     0
 10
0.0
 20
0.0
 30
0.0
  3
*B94
  1

  0
TEXT
  5
60B
100
AcDbEntity
  8
TEXT
  6
Continuous
 62
     0
100
AcDbText
 10
666.0
 20
143.488189
 30
0.0
 40
8.0
  1
50
 50
90.0
100
AcDbText
  0
ENDBLK
  5
60C
100
AcDbEntity
  8
0
100
AcDbBlockEnd
  0
BLOCK
  5
60F
100
AcDbEntity
  8
0
100
AcDbBlockBegin
  2
*B95
 70
     0
 10
0.0
 20
0.0
 30
0.0
  3
*B95
  1

  0
TEXT
  5
610
100
AcDbEntity
  8
TEXT
  6
Continuous
 62
     0
100
AcDbText
 10
76.0
 20
143.488189
 30
0.0
 40
8.0
  1
22
 50
90.0
100
AcDbText
  0
ENDBLK
  5
611
100
AcDbEntity
  8
0
100
AcDbBlockEnd
  0
BLOCK
  5
614
100
AcDbEntity
  8
0
100
AcDbBlockBegin
  2
*B96
 70
     0
 10
0.0
 20
0.0
 30
0.0
  3
*B96
  1

  0
TEXT
  5
615
100
AcDbEntity
  8
TEXT
  6
Continuous
 62
     0
100
AcDbText
 10
118.290963
 20
24.0
 30
0.0
 40
8.0
  1
6
100
AcDbText
  0
ENDBLK
  5
616
100
AcDbEntity
  8
0
100
AcDbBlockEnd
  0
BLOCK
  5
619
100
AcDbEntity
  8
0
100
AcDbBlockBegin
  2
*B97
 70
     0
 10
0.0
 20
0.0
 30
0.0
  3
*B97
  1

  0
TEXT
  5
61A
100
AcDbEntity
  8
TEXT
  6
Continuous
 62
     0
100
AcDbText
 10
579.290963
 20
24.0
 30
0.0
 40
8.0
  1
6
100
AcDbText
  0
ENDBLK
  5
61B
100
AcDbEntity
  8
0
100
AcDbBlockEnd
  0
BLOCK
  5
61E
100
AcDbEntity
  8
0
100
AcDbBlockBegin
  2
*B98
 70
     0
 10
0.0
 20
0.0
 30
0.0
  3
*B98
  1

  0
TEXT
  5
61F
100
AcDbEntity
  8
TEXT
  6
Continuous
 62
     0
100
AcDbText
 10
601.37619
 20
456.928809
 30
0.0
 40
8.0
  1
%%c5,5
100
AcDbText
  0
ENDBLK
  5
620
100
AcDbEntity
  8
0
100
AcDbBlockEnd
  0
BLOCK
  5
623
100
AcDbEntity
  8
0
100
AcDbBlockBegin
  2
*B99
 70
     0
 10
0.0
 20
0.0
 30
0.0
  3
*B99
  1

  0
TEXT
  5
624
100
AcDbEntity
  8
TEXT
  6
Continuous
 62
     0
100
AcDbText
 10
335.457629
 20
284.0
 30
0.0
 40
8.0
  1
22,25
100
AcDbText
  0
ENDBLK
  5
625
100
AcDbEntity
  8
0
100
AcDbBlockEnd
  0
BLOCK
  5
628
100
AcDbEntity
  8
0
100
AcDbBlockBegin
  2
*B100
 70
     0
 10
0.0
 20
0.0
 30
0.0
  3
*B100
  1

  0
TEXT
  5
629
100
AcDbEntity
  8
TEXT
  6
Continuous
 62
     0
100
AcDbText
 10
424.457629
 20
284.0
 30
0.0
 40
8.0
  1
22,25
100
AcDbText
  0
ENDBLK
  5
62A
100
AcDbEntity
  8
0
100
AcDbBlockEnd
  0
BLOCK
  5
62D
100
AcDbEntity
  8
0
100
AcDbBlockBegin
  2
*B101
 70
     0
 10
0.0
 20
0.0
 30
0.0
  3
*B101
  1

  0
TEXT
  5
62E
100
AcDbEntity
  8
TEXT
  6
Continuous
 62
     0
100
AcDbText
 10
523.457629
 20
284.0
 30
0.0
 40
8.0
  1
27,25
100
AcDbText
  0
ENDBLK
  5
62F
100
AcDbEntity
  8
0
100
AcDbBlockEnd
  0
BLOCK
  5
632
100
AcDbEntity
  8
0
100
AcDbBlockBegin
  2
*B102
 70
     0
 10
0.0
 20
0.0
 30
0.0
  3
*B102
  1

  0
TEXT
  5
633
100
AcDbEntity
  8
TEXT
  6
Continuous
 62
     0
100
AcDbText
 10
76.0
 20
341.012191
 30
0.0
 40
8.0
  1
G 3/8"
 50
90.0
100
AcDbText
  0
ENDBLK
  5
634
100
AcDbEntity
  8
0
100
AcDbBlockEnd
  0
BLOCK
  5
637
100
AcDbEntity
  8
0
100
AcDbBlockBegin
  2
*B103
 70
     0
 10
0.0
 20
0.0
 30
0.0
  3
*B103
  1

  0
TEXT
  5
638
100
AcDbEntity
  8
TEXT
  6
Continuous
 62
     0
100
AcDbText
 10
41.0
 20
143.488189
 30
0.0
 40
8.0
  1
34
 50
90.0
100
AcDbText
  0
ENDBLK
  5
639
100
AcDbEntity
  8
0
100
AcDbBlockEnd
  0
BLOCK
  5
63C
100
AcDbEntity
  8
0
100
AcDbBlockBegin
  2
*B104
 70
     0
 10
0.0
 20
0.0
 30
0.0
  3
*B104
  1

  0
TEXT
  5
63D
100
AcDbEntity
  8
TEXT
  6
Continuous
 62
     0
100
AcDbText
 10
294.767153
 20
24.0
 30
0.0
 40
8.0
  1
16,5
100
AcDbText
  0
ENDBLK
  5
63E
100
AcDbEntity
  8
0
100
AcDbBlockEnd
  0
BLOCK
  5
641
100
AcDbEntity
  8
0
100
AcDbBlockBegin
  2
*B105
 70
     0
 10
0.0
 20
0.0
 30
0.0
  3
*B105
  1

  0
TEXT
  5
642
100
AcDbEntity
  8
TEXT
  6
Continuous
 62
     0
100
AcDbText
 10
246.457629
 20
284.0
 30
0.0
 40
8.0
  1
22,25
100
AcDbText
  0
ENDBLK
  5
643
100
AcDbEntity
  8
0
100
AcDbBlockEnd
  0
BLOCK
  5
646
100
AcDbEntity
  8
0
100
AcDbBlockBegin
  2
*B106
 70
     0
 10
0.0
 20
0.0
 30
0.0
  3
*B106
  1

  0
TEXT
  5
647
100
AcDbEntity
  8
TEXT
  6
Continuous
 62
     0
100
AcDbText
 10
246.457629
 20
599.0
 30
0.0
 40
8.0
  1
22,25
100
AcDbText
  0
ENDBLK
  5
648
100
AcDbEntity
  8
0
100
AcDbBlockEnd
  0
BLOCK
  5
64B
100
AcDbEntity
  8
0
100
AcDbBlockBegin
  2
*B107
 70
     0
 10
0.0
 20
0.0
 30
0.0
  3
*B107
  1

  0
TEXT
  5
64C
100
AcDbEntity
  8
TEXT
  6
Continuous
 62
     0
100
AcDbText
 10
335.457629
 20
599.0
 30
0.0
 40
8.0
  1
22,25
100
AcDbText
  0
ENDBLK
  5
64D
100
AcDbEntity
  8
0
100
AcDbBlockEnd
  0
BLOCK
  5
650
100
AcDbEntity
  8
0
100
AcDbBlockBegin
  2
*B108
 70
     0
 10
0.0
 20
0.0
 30
0.0
  3
*B108
  1

  0
TEXT
  5
651
100
AcDbEntity
  8
TEXT
  6
Continuous
 62
     0
100
AcDbText
 10
41.0
 20
355.297905
 30
0.0
 40
8.0
  1
25
 50
90.0
100
AcDbText
  0
ENDBLK
  5
652
100
AcDbEntity
  8
0
100
AcDbBlockEnd
  0
BLOCK
  5
655
100
AcDbEntity
  8
0
100
AcDbBlockBegin
  2
*B109
 70
     0
 10
0.0
 20
0.0
 30
0.0
  3
*B109
  1

  0
TEXT
  5
656
100
AcDbEntity
  8
TEXT
  6
Continuous
 62
     0
100
AcDbText
 10
424.457629
 20
599.0
 30
0.0
 40
8.0
  1
22,25
100
AcDbText
  0
ENDBLK
  5
657
100
AcDbEntity
  8
0
100
AcDbBlockEnd
  0
BLOCK
  5
65A
100
AcDbEntity
  8
0
100
AcDbBlockBegin
  2
*B110
 70
     0
 10
0.0
 20
0.0
 30
0.0
  3
*B110
  1

  0
TEXT
  5
65B
100
AcDbEntity
  8
TEXT
  6
Continuous
 62
     0
100
AcDbText
 10
41.0
 20
485.297905
 30
0.0
 40
8.0
  1
40
 50
90.0
100
AcDbText
  0
ENDBLK
  5
65C
100
AcDbEntity
  8
0
100
AcDbBlockEnd
  0
BLOCK
  5
65F
100
AcDbEntity
  8
0
100
AcDbBlockBegin
  2
*B111
 70
     0
 10
0.0
 20
0.0
 30
0.0
  3
*B111
  1

  0
TEXT
  5
660
100
AcDbEntity
  8
TEXT
  6
Continuous
 62
     0
100
AcDbText
 10
147.457629
 20
284.0
 30
0.0
 40
8.0
  1
27,25
100
AcDbText
  0
ENDBLK
  5
661
100
AcDbEntity
  8
0
100
AcDbBlockEnd
  0
ENDSEC
  0
SECTION
  2
ENTITIES
  0
INSERT
  5
18B
100
AcDbEntity
  8
0
  6
HIDDEN
 62
   174
100
AcDbBlockReference
  2
*B1
 10
0.0
 20
0.0
 30
0.0
  0
INSERT
  5
19F
100
AcDbEntity
  8
0
  6
HIDDEN
 62
   172
100
AcDbBlockReference
  2
*B2
 10
0.0
 20
0.0
 30
0.0
  0
INSERT
  5
26E
100
AcDbEntity
  8
0
  6
Continuous
 62
   174
100
AcDbBlockReference
  2
*B3
 10
0.0
 20
0.0
 30
0.0
  0
INSERT
  5
275
100
AcDbEntity
  8
0
  6
Continuous
 62
     0
100
AcDbBlockReference
  2
*B4
 10
0.0
 20
0.0
 30
0.0
  0
INSERT
  5
27C
100
AcDbEntity
  8
0
  6
Continuous
 62
     0
100
AcDbBlockReference
  2
*B5
 10
0.0
 20
0.0
 30
0.0
  0
INSERT
  5
283
100
AcDbEntity
  8
0
  6
Continuous
 62
     0
100
AcDbBlockReference
  2
*B6
 10
0.0
 20
0.0
 30
0.0
  0
INSERT
  5
28A
100
AcDbEntity
  8
0
  6
Continuous
 62
     0
100
AcDbBlockReference
  2
*B7
 10
0.0
 20
0.0
 30
0.0
  0
INSERT
  5
291
100
AcDbEntity
  8
0
  6
Continuous
 62
     0
100
AcDbBlockReference
  2
*B8
 10
0.0
 20
0.0
 30
0.0
  0
INSERT
  5
298
100
AcDbEntity
  8
0
  6
Continuous
 62
     0
100
AcDbBlockReference
  2
*B9
 10
0.0
 20
0.0
 30
0.0
  0
INSERT
  5
29F
100
AcDbEntity
  8
0
  6
Continuous
 62
     0
100
AcDbBlockReference
  2
*B10
 10
0.0
 20
0.0
 30
0.0
  0
INSERT
  5
2A6
100
AcDbEntity
  8
0
  6
Continuous
 62
     0
100
AcDbBlockReference
  2
*B11
 10
0.0
 20
0.0
 30
0.0
  0
INSERT
  5
2AD
100
AcDbEntity
  8
0
  6
Continuous
 62
     0
100
AcDbBlockReference
  2
*B12
 10
0.0
 20
0.0
 30
0.0
  0
INSERT
  5
2B4
100
AcDbEntity
  8
0
  6
Continuous
 62
     0
100
AcDbBlockReference
  2
*B13
 10
0.0
 20
0.0
 30
0.0
  0
INSERT
  5
2BB
100
AcDbEntity
  8
0
  6
Continuous
 62
     0
100
AcDbBlockReference
  2
*B14
 10
0.0
 20
0.0
 30
0.0
  0
INSERT
  5
2C2
100
AcDbEntity
  8
0
  6
Continuous
 62
     0
100
AcDbBlockReference
  2
*B15
 10
0.0
 20
0.0
 30
0.0
  0
INSERT
  5
2C9
100
AcDbEntity
  8
0
  6
Continuous
 62
     0
100
AcDbBlockReference
  2
*B16
 10
0.0
 20
0.0
 30
0.0
  0
INSERT
  5
2D0
100
AcDbEntity
  8
0
  6
Continuous
 62
     0
100
AcDbBlockReference
  2
*B17
 10
0.0
 20
0.0
 30
0.0
  0
INSERT
  5
2D7
100
AcDbEntity
  8
0
  6
Continuous
 62
     0
100
AcDbBlockReference
  2
*B18
 10
0.0
 20
0.0
 30
0.0
  0
INSERT
  5
2DE
100
AcDbEntity
  8
0
  6
Continuous
 62
     0
100
AcDbBlockReference
  2
*B19
 10
0.0
 20
0.0
 30
0.0
  0
INSERT
  5
2E5
100
AcDbEntity
  8
0
  6
Continuous
 62
     0
100
AcDbBlockReference
  2
*B20
 10
0.0
 20
0.0
 30
0.0
  0
INSERT
  5
2EC
100
AcDbEntity
  8
0
  6
Continuous
 62
     0
100
AcDbBlockReference
  2
*B21
 10
0.0
 20
0.0
 30
0.0
  0
INSERT
  5
2F3
100
AcDbEntity
  8
0
  6
Continuous
 62
     0
100
AcDbBlockReference
  2
*B22
 10
0.0
 20
0.0
 30
0.0
  0
INSERT
  5
2F8
100
AcDbEntity
  8
0
  6
Continuous
 62
     8
100
AcDbBlockReference
  2
*B23
 10
0.0
 20
0.0
 30
0.0
  0
INSERT
  5
2FE
100
AcDbEntity
  8
0
  6
Continuous
 62
     8
100
AcDbBlockReference
  2
*B24
 10
0.0
 20
0.0
 30
0.0
  0
INSERT
  5
304
100
AcDbEntity
  8
0
  6
Continuous
 62
     8
100
AcDbBlockReference
  2
*B25
 10
0.0
 20
0.0
 30
0.0
  0
INSERT
  5
30A
100
AcDbEntity
  8
0
  6
Continuous
 62
     8
100
AcDbBlockReference
  2
*B26
 10
0.0
 20
0.0
 30
0.0
  0
INSERT
  5
333
100
AcDbEntity
  8
0
  6
Continuous
 62
     8
100
AcDbBlockReference
  2
*B27
 10
0.0
 20
0.0
 30
0.0
  0
INSERT
  5
339
100
AcDbEntity
  8
0
  6
Continuous
 62
     8
100
AcDbBlockReference
  2
*B28
 10
0.0
 20
0.0
 30
0.0
  0
INSERT
  5
33E
100
AcDbEntity
  8
0
  6
Continuous
 62
     8
100
AcDbBlockReference
  2
*B29
 10
0.0
 20
0.0
 30
0.0
  0
INSERT
  5
343
100
AcDbEntity
  8
0
  6
Continuous
 62
     8
100
AcDbBlockReference
  2
*B30
 10
0.0
 20
0.0
 30
0.0
  0
INSERT
  5
348
100
AcDbEntity
  8
0
  6
Continuous
 62
     8
100
AcDbBlockReference
  2
*B31
 10
0.0
 20
0.0
 30
0.0
  0
INSERT
  5
35D
100
AcDbEntity
  8
0
  6
Continuous
 62
     8
100
AcDbBlockReference
  2
*B32
 10
0.0
 20
0.0
 30
0.0
  0
INSERT
  5
38A
100
AcDbEntity
  8
0
  6
Continuous
 62
     8
100
AcDbBlockReference
  2
*B33
 10
0.0
 20
0.0
 30
0.0
  0
INSERT
  5
3BA
100
AcDbEntity
  8
0
  6
Continuous
 62
     8
100
AcDbBlockReference
  2
*B34
 10
0.0
 20
0.0
 30
0.0
  0
INSERT
  5
3BF
100
AcDbEntity
  8
0
  6
Continuous
 62
     8
100
AcDbBlockReference
  2
*B35
 10
0.0
 20
0.0
 30
0.0
  0
INSERT
  5
3C5
100
AcDbEntity
  8
0
  6
Continuous
 62
     8
100
AcDbBlockReference
  2
*B36
 10
0.0
 20
0.0
 30
0.0
  0
INSERT
  5
3CB
100
AcDbEntity
  8
0
  6
Continuous
 62
     8
100
AcDbBlockReference
  2
*B37
 10
0.0
 20
0.0
 30
0.0
  0
INSERT
  5
3DF
100
AcDbEntity
  8
0
  6
Continuous
 62
     8
100
AcDbBlockReference
  2
*B38
 10
0.0
 20
0.0
 30
0.0
  0
INSERT
  5
3EE
100
AcDbEntity
  8
0
  6
Continuous
 62
     8
100
AcDbBlockReference
  2
*B39
 10
0.0
 20
0.0
 30
0.0
  0
INSERT
  5
3FE
100
AcDbEntity
  8
0
  6
Continuous
 62
     8
100
AcDbBlockReference
  2
*B40
 10
0.0
 20
0.0
 30
0.0
  0
INSERT
  5
404
100
AcDbEntity
  8
0
  6
Continuous
 62
     8
100
AcDbBlockReference
  2
*B41
 10
0.0
 20
0.0
 30
0.0
  0
INSERT
  5
419
100
AcDbEntity
  8
0
  6
Continuous
 62
     8
100
AcDbBlockReference
  2
*B42
 10
0.0
 20
0.0
 30
0.0
  0
INSERT
  5
42A
100
AcDbEntity
  8
0
  6
Continuous
 62
     8
100
AcDbBlockReference
  2
*B43
 10
0.0
 20
0.0
 30
0.0
  0
INSERT
  5
430
100
AcDbEntity
  8
0
  6
Continuous
 62
     8
100
AcDbBlockReference
  2
*B44
 10
0.0
 20
0.0
 30
0.0
  0
INSERT
  5
43D
100
AcDbEntity
  8
0
  6
Continuous
 62
     8
100
AcDbBlockReference
  2
*B45
 10
0.0
 20
0.0
 30
0.0
  0
INSERT
  5
442
100
AcDbEntity
  8
0
  6
Continuous
 62
     8
100
AcDbBlockReference
  2
*B46
 10
0.0
 20
0.0
 30
0.0
  0
INSERT
  5
448
100
AcDbEntity
  8
0
  6
Continuous
 62
     8
100
AcDbBlockReference
  2
*B47
 10
0.0
 20
0.0
 30
0.0
  0
INSERT
  5
45C
100
AcDbEntity
  8
0
  6
Continuous
 62
     8
100
AcDbBlockReference
  2
*B48
 10
0.0
 20
0.0
 30
0.0
  0
INSERT
  5
47A
100
AcDbEntity
  8
0
  6
Continuous
 62
     8
100
AcDbBlockReference
  2
*B49
 10
0.0
 20
0.0
 30
0.0
  0
INSERT
  5
483
100
AcDbEntity
  8
0
  6
Continuous
 62
     8
100
AcDbBlockReference
  2
*B50
 10
0.0
 20
0.0
 30
0.0
  0
INSERT
  5
488
100
AcDbEntity
  8
0
  6
Continuous
 62
     8
100
AcDbBlockReference
  2
*B51
 10
0.0
 20
0.0
 30
0.0
  0
INSERT
  5
48E
100
AcDbEntity
  8
0
  6
Continuous
 62
     8
100
AcDbBlockReference
  2
*B52
 10
0.0
 20
0.0
 30
0.0
  0
INSERT
  5
494
100
AcDbEntity
  8
0
  6
Continuous
 62
     8
100
AcDbBlockReference
  2
*B53
 10
0.0
 20
0.0
 30
0.0
  0
INSERT
  5
4C4
100
AcDbEntity
  8
0
  6
Continuous
 62
     8
100
AcDbBlockReference
  2
*B54
 10
0.0
 20
0.0
 30
0.0
  0
INSERT
  5
4CA
100
AcDbEntity
  8
0
  6
Continuous
 62
     8
100
AcDbBlockReference
  2
*B55
 10
0.0
 20
0.0
 30
0.0
  0
INSERT
  5
4CF
100
AcDbEntity
  8
0
  6
Continuous
 62
     8
100
AcDbBlockReference
  2
*B56
 10
0.0
 20
0.0
 30
0.0
  0
INSERT
  5
4ED
100
AcDbEntity
  8
0
  6
Continuous
 62
     8
100
AcDbBlockReference
  2
*B57
 10
0.0
 20
0.0
 30
0.0
  0
INSERT
  5
4FC
100
AcDbEntity
  8
0
  6
Continuous
 62
     8
100
AcDbBlockReference
  2
*B58
 10
0.0
 20
0.0
 30
0.0
  0
INSERT
  5
502
100
AcDbEntity
  8
0
  6
Continuous
 62
     8
100
AcDbBlockReference
  2
*B59
 10
0.0
 20
0.0
 30
0.0
  0
INSERT
  5
512
100
AcDbEntity
  8
0
  6
Continuous
 62
     8
100
AcDbBlockReference
  2
*B60
 10
0.0
 20
0.0
 30
0.0
  0
INSERT
  5
526
100
AcDbEntity
  8
0
  6
Continuous
 62
     8
100
AcDbBlockReference
  2
*B61
 10
0.0
 20
0.0
 30
0.0
  0
INSERT
  5
533
100
AcDbEntity
  8
0
  6
Continuous
 62
     8
100
AcDbBlockReference
  2
*B62
 10
0.0
 20
0.0
 30
0.0
  0
INSERT
  5
539
100
AcDbEntity
  8
0
  6
Continuous
 62
     8
100
AcDbBlockReference
  2
*B63
 10
0.0
 20
0.0
 30
0.0
  0
INSERT
  5
53E
100
AcDbEntity
  8
0
  6
Continuous
 62
     8
100
AcDbBlockReference
  2
*B64
 10
0.0
 20
0.0
 30
0.0
  0
INSERT
  5
549
100
AcDbEntity
  8
0
  6
Continuous
 62
     8
100
AcDbBlockReference
  2
*B65
 10
0.0
 20
0.0
 30
0.0
  0
INSERT
  5
559
100
AcDbEntity
  8
0
  6
Continuous
 62
     8
100
AcDbBlockReference
  2
*B66
 10
0.0
 20
0.0
 30
0.0
  0
INSERT
  5
55F
100
AcDbEntity
  8
0
  6
Continuous
 62
     8
100
AcDbBlockReference
  2
*B67
 10
0.0
 20
0.0
 30
0.0
  0
INSERT
  5
573
100
AcDbEntity
  8
0
  6
Continuous
 62
     8
100
AcDbBlockReference
  2
*B68
 10
0.0
 20
0.0
 30
0.0
  0
INSERT
  5
579
100
AcDbEntity
  8
0
  6
Continuous
 62
     6
100
AcDbBlockReference
  2
*B69
 10
0.0
 20
0.0
 30
0.0
  0
INSERT
  5
57F
100
AcDbEntity
  8
0
  6
Continuous
 62
     6
100
AcDbBlockReference
  2
*B70
 10
0.0
 20
0.0
 30
0.0
  0
INSERT
  5
585
100
AcDbEntity
  8
0
  6
Continuous
 62
     6
100
AcDbBlockReference
  2
*B71
 10
0.0
 20
0.0
 30
0.0
  0
INSERT
  5
58B
100
AcDbEntity
  8
0
  6
Continuous
 62
     6
100
AcDbBlockReference
  2
*B72
 10
0.0
 20
0.0
 30
0.0
  0
INSERT
  5
591
100
AcDbEntity
  8
0
  6
Continuous
 62
     6
100
AcDbBlockReference
  2
*B73
 10
0.0
 20
0.0
 30
0.0
  0
INSERT
  5
597
100
AcDbEntity
  8
0
  6
Continuous
 62
     6
100
AcDbBlockReference
  2
*B74
 10
0.0
 20
0.0
 30
0.0
  0
INSERT
  5
59D
100
AcDbEntity
  8
0
  6
Continuous
 62
     6
100
AcDbBlockReference
  2
*B75
 10
0.0
 20
0.0
 30
0.0
  0
INSERT
  5
5A3
100
AcDbEntity
  8
0
  6
Continuous
 62
     6
100
AcDbBlockReference
  2
*B76
 10
0.0
 20
0.0
 30
0.0
  0
INSERT
  5
5A9
100
AcDbEntity
  8
0
  6
Continuous
 62
     6
100
AcDbBlockReference
  2
*B77
 10
0.0
 20
0.0
 30
0.0
  0
INSERT
  5
5AF
100
AcDbEntity
  8
0
  6
Continuous
 62
     6
100
AcDbBlockReference
  2
*B78
 10
0.0
 20
0.0
 30
0.0
  0
INSERT
  5
5B5
100
AcDbEntity
  8
0
  6
Continuous
 62
     6
100
AcDbBlockReference
  2
*B79
 10
0.0
 20
0.0
 30
0.0
  0
INSERT
  5
5BB
100
AcDbEntity
  8
0
  6
Continuous
 62
     6
100
AcDbBlockReference
  2
*B80
 10
0.0
 20
0.0
 30
0.0
  0
INSERT
  5
5C1
100
AcDbEntity
  8
0
  6
Continuous
 62
     6
100
AcDbBlockReference
  2
*B81
 10
0.0
 20
0.0
 30
0.0
  0
INSERT
  5
5C7
100
AcDbEntity
  8
0
  6
Continuous
 62
     6
100
AcDbBlockReference
  2
*B82
 10
0.0
 20
0.0
 30
0.0
  0
INSERT
  5
5CD
100
AcDbEntity
  8
0
  6
Continuous
 62
     6
100
AcDbBlockReference
  2
*B83
 10
0.0
 20
0.0
 30
0.0
  0
INSERT
  5
5D3
100
AcDbEntity
  8
0
  6
Continuous
 62
     6
100
AcDbBlockReference
  2
*B84
 10
0.0
 20
0.0
 30
0.0
  0
INSERT
  5
5D9
100
AcDbEntity
  8
0
  6
Continuous
 62
     6
100
AcDbBlockReference
  2
*B85
 10
0.0
 20
0.0
 30
0.0
  0
INSERT
  5
5DF
100
AcDbEntity
  8
0
  6
Continuous
 62
     6
100
AcDbBlockReference
  2
*B86
 10
0.0
 20
0.0
 30
0.0
  0
INSERT
  5
5E6
100
AcDbEntity
  8
0
  6
Continuous
 62
     0
100
AcDbBlockReference
  2
*B87
 10
0.0
 20
0.0
 30
0.0
  0
INSERT
  5
5ED
100
AcDbEntity
  8
0
  6
Continuous
 62
     0
100
AcDbBlockReference
  2
*B88
 10
0.0
 20
0.0
 30
0.0
  0
INSERT
  5
5F4
100
AcDbEntity
  8
0
  6
Continuous
 62
     0
100
AcDbBlockReference
  2
*B89
 10
0.0
 20
0.0
 30
0.0
  0
INSERT
  5
5F9
100
AcDbEntity
  8
TEXT
  6
Continuous
 62
     0
100
AcDbBlockReference
  2
*B90
 10
0.0
 20
0.0
 30
0.0
  0
INSERT
  5
5FE
100
AcDbEntity
  8
TEXT
  6
Continuous
 62
     0
100
AcDbBlockReference
  2
*B91
 10
0.0
 20
0.0
 30
0.0
  0
INSERT
  5
603
100
AcDbEntity
  8
TEXT
  6
Continuous
 62
     0
100
AcDbBlockReference
  2
*B92
 10
0.0
 20
0.0
 30
0.0
  0
INSERT
  5
608
100
AcDbEntity
  8
TEXT
  6
Continuous
 62
     0
100
AcDbBlockReference
  2
*B93
 10
0.0
 20
0.0
 30
0.0
  0
INSERT
  5
60D
100
AcDbEntity
  8
TEXT
  6
Continuous
 62
     0
100
AcDbBlockReference
  2
*B94
 10
0.0
 20
0.0
 30
0.0
  0
INSERT
  5
612
100
AcDbEntity
  8
TEXT
  6
Continuous
 62
     0
100
AcDbBlockReference
  2
*B95
 10
0.0
 20
0.0
 30
0.0
  0
INSERT
  5
617
100
AcDbEntity
  8
TEXT
  6
Continuous
 62
     0
100
AcDbBlockReference
  2
*B96
 10
0.0
 20
0.0
 30
0.0
  0
INSERT
  5
61C
100
AcDbEntity
  8
TEXT
  6
Continuous
 62
     0
100
AcDbBlockReference
  2
*B97
 10
0.0
 20
0.0
 30
0.0
  0
INSERT
  5
621
100
AcDbEntity
  8
TEXT
  6
Continuous
 62
     0
100
AcDbBlockReference
  2
*B98
 10
0.0
 20
0.0
 30
0.0
  0
INSERT
  5
626
100
AcDbEntity
  8
TEXT
  6
Continuous
 62
     0
100
AcDbBlockReference
  2
*B99
 10
0.0
 20
0.0
 30
0.0
  0
INSERT
  5
62B
100
AcDbEntity
  8
TEXT
  6
Continuous
 62
     0
100
AcDbBlockReference
  2
*B100
 10
0.0
 20
0.0
 30
0.0
  0
INSERT
  5
630
100
AcDbEntity
  8
TEXT
  6
Continuous
 62
     0
100
AcDbBlockReference
  2
*B101
 10
0.0
 20
0.0
 30
0.0
  0
INSERT
  5
635
100
AcDbEntity
  8
TEXT
  6
Continuous
 62
     0
100
AcDbBlockReference
  2
*B102
 10
0.0
 20
0.0
 30
0.0
  0
INSERT
  5
63A
100
AcDbEntity
  8
TEXT
  6
Continuous
 62
     0
100
AcDbBlockReference
  2
*B103
 10
0.0
 20
0.0
 30
0.0
  0
INSERT
  5
63F
100
AcDbEntity
  8
TEXT
  6
Continuous
 62
     0
100
AcDbBlockReference
  2
*B104
 10
0.0
 20
0.0
 30
0.0
  0
INSERT
  5
644
100
AcDbEntity
  8
TEXT
  6
Continuous
 62
     0
100
AcDbBlockReference
  2
*B105
 10
0.0
 20
0.0
 30
0.0
  0
INSERT
  5
649
100
AcDbEntity
  8
TEXT
  6
Continuous
 62
     0
100
AcDbBlockReference
  2
*B106
 10
0.0
 20
0.0
 30
0.0
  0
INSERT
  5
64E
100
AcDbEntity
  8
TEXT
  6
Continuous
 62
     0
100
AcDbBlockReference
  2
*B107
 10
0.0
 20
0.0
 30
0.0
  0
INSERT
  5
653
100
AcDbEntity
  8
TEXT
  6
Continuous
 62
     0
100
AcDbBlockReference
  2
*B108
 10
0.0
 20
0.0
 30
0.0
  0
INSERT
  5
658
100
AcDbEntity
  8
TEXT
  6
Continuous
 62
     0
100
AcDbBlockReference
  2
*B109
 10
0.0
 20
0.0
 30
0.0
  0
INSERT
  5
65D
100
AcDbEntity
  8
TEXT
  6
Continuous
 62
     0
100
AcDbBlockReference
  2
*B110
 10
0.0
 20
0.0
 30
0.0
  0
INSERT
  5
662
100
AcDbEntity
  8
TEXT
  6
Continuous
 62
     0
100
AcDbBlockReference
  2
*B111
 10
0.0
 20
0.0
 30
0.0
  0
ENDSEC
  0
SECTION
  2
OBJECTS
  0
DICTIONARY
  5
19
100
AcDbDictionary
280
     0
281
     1
  3
ACAD_GROUP
350
1A
  3
ACAD_MLINESTYLE
350
1B
  3
ACAD_LAYOUT
350
1E
  3
ACAD_PLOTSETTINGS
350
22
  3
ACAD_PLOTSTYLENAME
350
1F
  3
ACAD_WIPEOUT_VARS
350
23
  0
DICTIONARY
  5
1A
102
{ACAD_REACTORS
330
19
102
}
100
AcDbDictionary
280
     0
281
     1
  0
DICTIONARY
  5
1B
102
{ACAD_REACTORS
330
19
102
}
100
AcDbDictionary
280
     0
281
     1
  3
Standard
350
1C
  0
MLINESTYLE
  5
1C
102
{ACAD_REACTORS
330
1B
102
}
100
AcDbMlineStyle
  2
Standard
 70
     0
  3

 62
     0
 51
90.0
 52
90.0
 71
     2
 49
0.5
 62
   256
  6
BYLAYER
 49
-0.5
 62
   256
  6
BYLAYER
  0
ACDBDICTIONARYWDFLT
  5
1F
102
{ACAD_REACTORS
330
19
102
}
100
AcDbDictionary
281
     1
  3
Normal
350
1D
100
AcDbDictionaryWithDefault
340
1D
  0
ACDBPLACEHOLDER
  5
1D
102
{ACAD_REACTORS
330
1F
102
}
  0
LAYOUT
  5
20
102
{ACAD_REACTORS
330
1E
102
}
100
AcDbPlotSettings
  1

  2

  4

  6

 40
0.0
 41
0.0
 42
0.0
 43
0.0
 44
0.0
 45
0.0
 46
0.0
 47
0.0
 48
0.0
 49
0.0
140
0.0
141
0.0
142
1.0
143
1.0
 70
     0
 72
     0
 73
     0
 74
     0
  7

 75
     0
147
1.0
148
0.0
149
0.0
100
AcDbLayout
  1
Model
 70
     0
 71
     0
 10
0.0
 20
0.0
 11
0.0
 21
0.0
 12
0.0
 22
0.0
 32
0.0
 14
0.0
 24
0.0
 34
0.0
 15
0.0
 25
0.0
 35
0.0
146
0.0
 13
0.0
 23
0.0
 33
0.0
 16
0.0
 26
0.0
 36
0.0
 17
0.0
 27
0.0
 37
0.0
 76
     0
330
A
331
0
345
0
346
0
  0
LAYOUT
  5
21
102
{ACAD_REACTORS
330
1E
102
}
100
AcDbPlotSettings
  1

  2

  4

  6

 40
0.0
 41
0.0
 42
0.0
 43
0.0
 44
0.0
 45
0.0
 46
0.0
 47
0.0
 48
0.0
 49
0.0
140
0.0
141
0.0
142
1.0
143
1.0
 70
     0
 72
     0
 73
     0
 74
     0
  7

 75
     0
147
1.0
148
0.0
149
0.0
100
AcDbLayout
  1
Layout1
 70
     0
 71
     0
 10
0.0
 20
0.0
 11
0.0
 21
0.0
 12
0.0
 22
0.0
 32
0.0
 14
0.0
 24
0.0
 34
0.0
 15
0.0
 25
0.0
 35
0.0
146
0.0
 13
0.0
 23
0.0
 33
0.0
 16
0.0
 26
0.0
 36
0.0
 17
0.0
 27
0.0
 37
0.0
 76
     0
330
B
331
0
345
0
346
0
  0
DICTIONARY
  5
1E
102
{ACAD_REACTORS
330
19
102
}
100
AcDbDictionary
280
     0
281
     1
  3
Layout1
350
21
  3
Model
350
20
  0
DICTIONARY
  5
22
102
{ACAD_REACTORS
330
19
102
}
100
AcDbDictionary
280
     0
281
     1
  0
WIPEOUTVARIABLES
  5
23
100
AcDbWipeoutVariables
 70
     1
  0
ENDSEC
  0
EOF
