  0
SECTION
  2
HEADER
  9
$ACADVER
  1
AC1015
  9
$ACADMAINTVER
 70
     6
  9
$DWGCODEPAGE
  3
DOS850
  9
$INSBASE
 10
0.0
 20
0.0
 30
0.0
  9
$EXTMIN
 10
0.0
 20
0.0
 30
0.0
  9
$EXTMAX
 10
841.0
 20
595.0
 30
0.0
  9
$LIMMIN
 10
0.0
 20
0.0
  9
$LIMMAX
 10
841.0
 20
595.0
  9
$ORTHOMODE
 70
     0
  9
$REGENMODE
 70
     1
  9
$FILLMODE
 70
     1
  9
$QTEXTMODE
 70
     0
  9
$MIRRTEXT
 70
     1
  9
$LTSCALE
 40
25.4
  9
$ATTMODE
 70
     1
  9
$TEXTSIZE
 40
3.5
  9
$TRACEWID
 40
0.05
  9
$TEXTSTYLE
  7
Standard
  9
$CLAYER
  8
0
  9
$CELTYPE
  6
Continuous
  9
$CECOLOR
 62
   256
  9
$CELTSCALE
 40
1.0
  9
$DISPSILH
 70
     0
  9
$DIMSCALE
 40
1.0
  9
$DIMASZ
 40
5.0
  9
$DIMEXO
 40
3.0
  9
$DIMDLI
 40
0.38
  9
$DIMRND
 40
0.0
  9
$DIMDLE
 40
0.0
  9
$DIMEXE
 40
2.0
  9
$DIMTP
 40
0.0
  9
$DIMTM
 40
0.0
  9
$DIMTXT
 40
3.5
  9
$DIMCEN
 40
4.0
  9
$DIMTSZ
 40
0.0
  9
$DIMTOL
 70
     0
  9
$DIMLIM
 70
     0
  9
$DIMTIH
 70
     1
  9
$DIMTOH
 70
     1
  9
$DIMSE1
 70
     0
  9
$DIMSE2
 70
     0
  9
$DIMTAD
 70
     0
  9
$DIMZIN
 70
     0
  9
$DIMBLK
  1

  9
$DIMASO
 70
     1
  9
$DIMSHO
 70
     1
  9
$DIMPOST
  1

  9
$DIMAPOST
  1

  9
$DIMALT
 70
     0
  9
$DIMALTD
 70
     2
  9
$DIMALTF
 40
25.4
  9
$DIMLFAC
 40
1.0
  9
$DIMTOFL
 70
     0
  9
$DIMTVP
 40
0.0
  9
$DIMTIX
 70
     0
  9
$DIMSOXD
 70
     0
  9
$DIMSAH
 70
     0
  9
$DIMBLK1
  1

  9
$DIMBLK2
  1

  9
$DIMSTYLE
  2
Standard
  9
$DIMCLRD
 70
     0
  9
$DIMCLRE
 70
     0
  9
$DIMCLRT
 70
     0
  9
$DIMTFAC
 40
1.0
  9
$DIMGAP
 40
1.0
  9
$DIMJUST
 70
     0
  9
$DIMSD1
 70
     0
  9
$DIMSD2
 70
     0
  9
$DIMTOLJ
 70
     1
  9
$DIMTZIN
 70
     0
  9
$DIMALTZ
 70
     0
  9
$DIMALTTZ
 70
     0
  9
$DIMUPT
 70
     0
  9
$DIMDEC
 70
     4
  9
$DIMTDEC
 70
     4
  9
$DIMALTU
 70
     2
  9
$DIMALTTD
 70
     2
  9
$DIMTXSTY
  7
Standard
  9
$DIMAUNIT
 70
     0
  9
$DIMADEC
 70
     0
  9
$DIMALTRND
 40
0.0
  9
$DIMAZIN
 70
     0
  9
$DIMDSEP
 70
     0
  9
$DIMATFIT
 70
     3
  9
$DIMFRAC
 70
     0
  9
$DIMLDRBLK
  1

  9
$DIMLUNIT
 70
     2
  9
$DIMLWD
 70
     0
  9
$DIMLWE
 70
     0
  9
$DIMTMOVE
 70
     0
  9
$LUNITS
 70
     2
  9
$LUPREC
 70
     4
  9
$SKETCHINC
 40
0.1
  9
$FILLETRAD
 40
0.0
  9
$AUNITS
 70
     0
  9
$AUPREC
 70
     0
  9
$MENU
  1
acad
  9
$ELEVATION
 40
0.0
  9
$PELEVATION
 40
0.0
  9
$THICKNESS
 40
0.0
  9
$LIMCHECK
 70
     0
  9
$CHAMFERA
 40
0.0
  9
$CHAMFERB
 40
0.0
  9
$CHAMFERC
 40
0.0
  9
$CHAMFERD
 40
0.0
  9
$SKPOLY
 70
     0
  9
$TDCREATE
 40
0.000000000
  9
$TDUCREATE
 40
0.000000000
  9
$TDUPDATE
 40
0.000000000
  9
$TDUUPDATE
 40
0.000000000
  9
$TDINDWG
 40
0.0000000000
  9
$TDUSRTIMER
 40
0.0000000000
  9
$USRTIMER
 70
     1
  9
$ANGBASE
 50
0.0
  9
$ANGDIR
 70
     0
  9
$PDMODE
 70
     0
  9
$PDSIZE
 40
0.0
  9
$PLINEWID
 40
0.0
  9
$SPLFRAME
 70
     0
  9
$SPLINETYPE
 70
     6
  9
$SPLINESEGS
 70
     8
  9
$HANDSEED
  5
6A5
  9
$SURFTAB1
 70
     6
  9
$SURFTAB2
 70
     6
  9
$SURFTYPE
 70
     6
  9
$SURFU
 70
     6
  9
$SURFV
 70
     6
  9
$UCSBASE
  2

  9
$UCSNAME
  2

  9
$UCSORG
 10
0.0
 20
0.0
 30
0.0
  9
$UCSXDIR
 10
1.0
 20
0.0
 30
0.0
  9
$UCSYDIR
 10
0.0
 20
1.0
 30
0.0
  9
$UCSORTHOREF
  2

  9
$UCSORTHOVIEW
 70
     0
  9
$UCSORGTOP
 10
0.0
 20
0.0
 30
0.0
  9
$UCSORGBOTTOM
 10
0.0
 20
0.0
 30
0.0
  9
$UCSORGLEFT
 10
0.0
 20
0.0
 30
0.0
  9
$UCSORGRIGHT
 10
0.0
 20
0.0
 30
0.0
  9
$UCSORGFRONT
 10
0.0
 20
0.0
 30
0.0
  9
$UCSORGBACK
 10
0.0
 20
0.0
 30
0.0
  9
$PUCSBASE
  2

  9
$PUCSNAME
  2

  9
$PUCSORG
 10
0.0
 20
0.0
 30
0.0
  9
$PUCSXDIR
 10
1.0
 20
0.0
 30
0.0
  9
$PUCSYDIR
 10
0.0
 20
1.0
 30
0.0
  9
$PUCSORTHOREF
  2

  9
$PUCSORTHOVIEW
 70
     0
  9
$PUCSORGTOP
 10
0.0
 20
0.0
 30
0.0
  9
$PUCSORGBOTTOM
 10
0.0
 20
0.0
 30
0.0
  9
$PUCSORGLEFT
 10
0.0
 20
0.0
 30
0.0
  9
$PUCSORGRIGHT
 10
0.0
 20
0.0
 30
0.0
  9
$PUCSORGFRONT
 10
0.0
 20
0.0
 30
0.0
  9
$PUCSORGBACK
 10
0.0
 20
0.0
 30
0.0
  9
$USERI1
 70
     0
  9
$USERI2
 70
     0
  9
$USERI3
 70
     0
  9
$USERI4
 70
     0
  9
$USERI5
 70
     0
  9
$USERR1
 40
0.0
  9
$USERR2
 40
0.0
  9
$USERR3
 40
0.0
  9
$USERR4
 40
0.0
  9
$USERR5
 40
0.0
  9
$WORLDVIEW
 70
     1
  9
$SHADEDGE
 70
     3
  9
$SHADEDIF
 70
    70
  9
$TILEMODE
 70
     1
  9
$MAXACTVP
 70
    16
  9
$PINSBASE
 10
0.0
 20
0.0
 30
0.0
  9
$PLIMCHECK
 70
     0
  9
$PEXTMIN
 10
1.000000E+20
 20
1.000000E+20
 30
1.000000E+20
  9
$PEXTMAX
 10
-1.000000E+20
 20
-1.000000E+20
 30
-1.000000E+20
  9
$PLIMMIN
 10
0.0
 20
0.0
  9
$PLIMMAX
 10
841.0
 20
595.0
  9
$UNITMODE
 70
     0
  9
$VISRETAIN
 70
     0
  9
$PLINEGEN
 70
     1
  9
$PSLTSCALE
 70
     0
  9
$TREEDEPTH
 70
  3020
  9
$CMLSTYLE
  2
Standard
  9
$CMLJUST
 70
     0
  9
$CMLSCALE
 40
1.0
  9
$PROXYGRAPHICS
 70
     0
  9
$MEASUREMENT
 70
     0
  9
$CELWEIGHT
370
     0
  9
$ENDCAPS
280
     0
  9
$JOINSTYLE
280
     0
  9
$LWDISPLAY
290
     0
  9
$INSUNITS
 70
     0
  9
$HYPERLINKBASE
  1

  9
$XEDIT
290
     1
  9
$CEPSNTYPE
380
     0
  9
$PSTYLEMODE
290
     0
  9
$FINGERPRINTGUID
  2

  9
$VERSIONGUID
  2

  9
$EXTNAMES
290
     1
  9
$PSVPSCALE
 40
0.0
  0
ENDSEC
  0
SECTION
  2
CLASSES
  0
CLASS
  1
LWPOLYLINE
  2
AcDbPolyline
  3
"AutoCAD"
 90
        0
280
     0
281
     1
  0
CLASS
  1
IMAGE
  2
AcDbRasterImage
  3
ISM
 90
      127
280
     0
281
     1
  0
CLASS
  1
OLE2FRAME
  2
AcDbOle2Frame
  3
""
 90
        0
280
     0
281
     1
  0
CLASS
  1
HATCH
  2
AcDbHatch
  3
"ACAD_SEDONA"
 90
        0
280
     0
281
     1
  0
CLASS
  1
DICTIONARYVAR
  2
AcDbDictionaryVar
  3
"AutoCAD"
 90
        0
280
     0
281
     0
  0
CLASS
  1
RASTERVARIABLES
  2
AcDbRasterVariables
  3
ISM
 90
        0
280
     0
281
     0
  0
CLASS
  1
IMAGEDEF
  2
AcDbRasterImageDef
  3
ISM
 90
        0
280
     0
281
     0
  0
CLASS
  1
IMAGEDEF_REACTOR
  2
AcDbRasterImageDefReactor
  3
ISM
 90
        1
280
     0
281
     0
  0
CLASS
  1
IDBUFFER
  2
AcDbIdBuffer
  3
"Acad"
 90
        0
280
     0
281
     0
  0
CLASS
  1
SPATIAL_FILTER
  2
AcDbSpatialFilter
  3
"Acad"
 90
        0
280
     0
281
     0
  0
CLASS
  1
XRECORD
  2
AcDbXrecord
  3
"<Built In>"
 90
        0
280
     0
281
     0
  0
CLASS
  1
SORTENTSTABLE
  2
AcDbSortentsTable
  3
"AutoCAD"
 90
        0
280
     0
281
     0
  0
CLASS
  1
LAYER_INDEX
  2
AcDbLayerIndex
  3
"Acad"
 90
        0
280
     0
281
     0
  0
CLASS
  1
SPATIAL_INDEX
  2
AcDbSpatialIndex
  3
"Acad"
 90
        0
280
     0
281
     0
  0
CLASS
  1
OBJECT_PTR
  2
CAseDLPNTableRecord
  3
"ASE-LPNTableRecord"
 90
        1
280
     0
281
     0
  0
CLASS
  1
LAYOUT
  2
AcDbLayout
  3
"AutoCAD 2000"
 90
        1
280
     0
281
     0
  0
CLASS
  1
PLOTSETTINGS
  2
AcDbPlotSettings
  3
"AutoCAD 2000"
 90
        1
280
     0
281
     0
  0
CLASS
  1
ACDBDICTIONARYWDFLT
  2
AcDbDictionaryWithDefault
  3
"AutoCAD 2000"
 90
        1
280
     0
281
     0
  0
CLASS
  1
ACDBPLACEHOLDER
  2
AcDbPlaceHolder
  3
"AutoCAD 2000"
 90
        1
280
     0
281
     0
  0
CLASS
  1
VBA_PROJECT
  2
AcDbVbaProject
  3
"acadvba"
 90
        1
280
     0
281
     0
  0
CLASS
  1
WIPEOUT
  2
AcDbWipeout
  3
WipeOut|AutoCAD Express Tool|expresstools@autodesk.com
 90
      127
280
     0
281
     1
  0
CLASS
  1
WIPEOUTVARIABLES
  2
AcDbWipeoutVariables
  3
WipeOut|AutoCAD Express Tool|expresstools@autodesk.com
 90
        0
280
     0
281
     0
  0
CLASS
  1
RTEXT
  2
RText
  3
RText|AutoCAD Express Tool|expresstools@autodesk.com
 90
        0
280
     0
281
     1
  0
CLASS
  1
ARCALIGNEDTEXT
  2
AcDbArcAlignedText
  3
ATEXT|AutoCAD Express Tool|expresstools@autodesk.com
 90
        0
280
     0
281
     1
  0
ENDSEC
  0
SECTION
  2
TABLES
  0
TABLE
  2
VPORT
  5
7
100
AcDbSymbolTable
 70
     1
  0
VPORT
  5
15
100
AcDbSymbolTableRecord
100
AcDbViewportTableRecord
  2
*ACTIVE
 70
     0
 10
0.0
 20
0.0
 11
1.0
 21
1.0
 12
6.591288
 22
4.579184
 13
0.0
 23
0.0
 14
1.0
 24
1.0
 15
0.0
 25
0.0
 16
0.0
 26
0.0
 36
1.0
 17
0.0
 27
0.0
 37
0.0
 40
9.158369
 41
0.688564
 42
50.0
 43
0.0
 44
0.0
 50
0.0
 51
0.0
 71
     0
 72
   100
 73
     1
 74
     1
 75
     0
 76
     0
 77
     0
 78
     0
281
     0
 65
     0
110
0.0
120
0.0
130
0.0
111
1.0
121
0.0
131
0.0
112
0.0
122
1.0
132
0.0
345
0
346
0
 79
     0
146
0.0
  0
ENDTAB
  0
TABLE
  2
LTYPE
  5
4
100
AcDbSymbolTable
 70
     7
  0
LTYPE
  5
11
100
AcDbSymbolTableRecord
100
AcDbLinetypeTableRecord
  2
ByBlock
 70
    64
  3

 72
    65
 73
     0
 40
0.0
  0
LTYPE
  5
12
100
AcDbSymbolTableRecord
100
AcDbLinetypeTableRecord
  2
ByLayer
 70
    64
  3

 72
    65
 73
     0
 40
0.0
  0
LTYPE
  5
13
100
AcDbSymbolTableRecord
100
AcDbLinetypeTableRecord
  2
Continuous
 70
    64
  3
Solid line
 72
    65
 73
     0
 40
0.0
  0
LTYPE
  5
24
100
AcDbSymbolTableRecord
100
AcDbLinetypeTableRecord
  2
HIDDEN
 70
    64
  3
_ _ _ _ _ _ _ _ _ _ _ _ _ _ _ _ _ _ _ _ _ _ _ _
 72
    65
 73
     2
 40
0.1875
 49
0.125
 74
     0
 49
-0.0625
 74
     0
  0
LTYPE
  5
25
100
AcDbSymbolTableRecord
100
AcDbLinetypeTableRecord
  2
DOTTED
 70
    64
  3
...............................................
 72
    65
 73
     2
 40
0.125
 49
0.0
 74
     0
 49
-0.125
 74
     0
  0
LTYPE
  5
26
100
AcDbSymbolTableRecord
100
AcDbLinetypeTableRecord
  2
CENTER
 70
    64
  3
____ _ ____ _ ____ _ ____ _ ____ _ ____ _ ____ 
 72
    65
 73
     4
 40
1.125
 49
0.75
 74
     0
 49
-0.125
 74
     0
 49
0.125
 74
     0
 49
-0.125
 74
     0
  0
LTYPE
  5
27
100
AcDbSymbolTableRecord
100
AcDbLinetypeTableRecord
  2
PHANTOM
 70
    64
  3
______  __  __  ______  __  __  ______  __  __ 
 72
    65
 73
     6
 40
1.25
 49
0.625
 74
     0
 49
-0.125
 74
     0
 49
0.125
 74
     0
 49
-0.125
 74
     0
 49
0.125
 74
     0
 49
-0.125
 74
     0
  0
ENDTAB
  0
TABLE
  2
LAYER
  5
2
100
AcDbSymbolTable
 70
     2
  0
LAYER
  5
14
100
AcDbSymbolTableRecord
100
AcDbLayerTableRecord
  2
0
 70
     0
 62
     7
  6
Continuous
290
     1
370
    -3
390
1D
  0
LAYER
  5
28
100
AcDbSymbolTableRecord
100
AcDbLayerTableRecord
  2
TEXT
 70
     0
 62
     8
  6
Continuous
290
     1
370
    -3
390
1F
  0
ENDTAB
  0
TABLE
  2
STYLE
  5
3
100
AcDbSymbolTable
 70
     1
  0
STYLE
  5
17
100
AcDbSymbolTableRecord
100
AcDbTextStyleTableRecord
  2
Standard
 70
     0
 40
0.0
 41
1.0
 50
0.0
 71
     0
 42
0.0
  3
txt
  4

  0
ENDTAB
  0
TABLE
  2
VIEW
  5
5
100
AcDbSymbolTable
 70
     0
  0
ENDTAB
  0
TABLE
  2
UCS
  5
6
100
AcDbSymbolTable
 70
     0
  0
ENDTAB
  0
TABLE
  2
APPID
  5
8
100
AcDbSymbolTable
 70
     1
  0
APPID
  5
16
100
AcDbSymbolTableRecord
100
AcDbRegAppTableRecord
  2
ACAD
 70
     0
  0
ENDTAB
  0
TABLE
  2
DIMSTYLE
  5
9
100
AcDbSymbolTable
 70
     1
100
AcDbDimStyleTable
 71
     0
  0
DIMSTYLE
105
18
100
AcDbSymbolTableRecord
100
AcDbDimStyleTableRecord
  2
Standard
 70
     0
  3

  4

 40
1.0
 41
0.18
 42
0.0625
 43
0.38
 44
0.18
 45
0.0
 46
0.0
 47
0.0
 48
0.0
 71
     0
 72
     0
 73
     1
 74
     1
 75
     0
 76
     0
 77
     0
 78
     0
 79
     0
140
0.18
141
0.09
142
0.0
143
25.4
144
1.0
145
0.0
146
1.0
147
0.09
148
0.0
170
     0
171
     2
172
     0
173
     0
174
     0
175
     0
176
     0
177
     0
178
     0
179
     0
271
     4
272
     4
273
     2
274
     2
275
     0
276
     0
277
     2
278
    46
279
     0
280
     0
281
     0
282
     0
283
     1
284
     0
285
     0
286
     0
288
     0
340
17
341
0
342
0
343
0
344
0
371
    -2
372
    -2
  0
ENDTAB
  0
TABLE
  2
BLOCK_RECORD
  5
1
100
AcDbSymbolTable
 70
   132
  0
BLOCK_RECORD
  5
A
100
AcDbSymbolTableRecord
100
AcDbBlockTableRecord
  2
*MODEL_SPACE
340
20
  0
BLOCK_RECORD
  5
B
100
AcDbSymbolTableRecord
100
AcDbBlockTableRecord
  2
*PAPER_SPACE
340
21
  0
BLOCK_RECORD
  5
29
100
AcDbSymbolTableRecord
100
AcDbBlockTableRecord
  2
*B0
340
0
  0
BLOCK_RECORD
  5
2C
100
AcDbSymbolTableRecord
100
AcDbBlockTableRecord
  2
*B1
340
0
  0
BLOCK_RECORD
  5
2F
100
AcDbSymbolTableRecord
100
AcDbBlockTableRecord
  2
*B2
340
0
  0
BLOCK_RECORD
  5
1C7
100
AcDbSymbolTableRecord
100
AcDbBlockTableRecord
  2
*B3
340
0
  0
BLOCK_RECORD
  5
1DB
100
AcDbSymbolTableRecord
100
AcDbBlockTableRecord
  2
*B4
340
0
  0
BLOCK_RECORD
  5
2BF
100
AcDbSymbolTableRecord
100
AcDbBlockTableRecord
  2
*B5
340
0
  0
BLOCK_RECORD
  5
2C6
100
AcDbSymbolTableRecord
100
AcDbBlockTableRecord
  2
*B6
340
0
  0
BLOCK_RECORD
  5
2CD
100
AcDbSymbolTableRecord
100
AcDbBlockTableRecord
  2
*B7
340
0
  0
BLOCK_RECORD
  5
2D4
100
AcDbSymbolTableRecord
100
AcDbBlockTableRecord
  2
*B8
340
0
  0
BLOCK_RECORD
  5
2DB
100
AcDbSymbolTableRecord
100
AcDbBlockTableRecord
  2
*B9
340
0
  0
BLOCK_RECORD
  5
2E2
100
AcDbSymbolTableRecord
100
AcDbBlockTableRecord
  2
*B10
340
0
  0
BLOCK_RECORD
  5
2E9
100
AcDbSymbolTableRecord
100
AcDbBlockTableRecord
  2
*B11
340
0
  0
BLOCK_RECORD
  5
2F0
100
AcDbSymbolTableRecord
100
AcDbBlockTableRecord
  2
*B12
340
0
  0
BLOCK_RECORD
  5
2F7
100
AcDbSymbolTableRecord
100
AcDbBlockTableRecord
  2
*B13
340
0
  0
BLOCK_RECORD
  5
2FE
100
AcDbSymbolTableRecord
100
AcDbBlockTableRecord
  2
*B14
340
0
  0
BLOCK_RECORD
  5
305
100
AcDbSymbolTableRecord
100
AcDbBlockTableRecord
  2
*B15
340
0
  0
BLOCK_RECORD
  5
30C
100
AcDbSymbolTableRecord
100
AcDbBlockTableRecord
  2
*B16
340
0
  0
BLOCK_RECORD
  5
313
100
AcDbSymbolTableRecord
100
AcDbBlockTableRecord
  2
*B17
340
0
  0
BLOCK_RECORD
  5
31A
100
AcDbSymbolTableRecord
100
AcDbBlockTableRecord
  2
*B18
340
0
  0
BLOCK_RECORD
  5
321
100
AcDbSymbolTableRecord
100
AcDbBlockTableRecord
  2
*B19
340
0
  0
BLOCK_RECORD
  5
328
100
AcDbSymbolTableRecord
100
AcDbBlockTableRecord
  2
*B20
340
0
  0
BLOCK_RECORD
  5
32F
100
AcDbSymbolTableRecord
100
AcDbBlockTableRecord
  2
*B21
340
0
  0
BLOCK_RECORD
  5
336
100
AcDbSymbolTableRecord
100
AcDbBlockTableRecord
  2
*B22
340
0
  0
BLOCK_RECORD
  5
33D
100
AcDbSymbolTableRecord
100
AcDbBlockTableRecord
  2
*B23
340
0
  0
BLOCK_RECORD
  5
344
100
AcDbSymbolTableRecord
100
AcDbBlockTableRecord
  2
*B24
340
0
  0
BLOCK_RECORD
  5
34B
100
AcDbSymbolTableRecord
100
AcDbBlockTableRecord
  2
*B25
340
0
  0
BLOCK_RECORD
  5
350
100
AcDbSymbolTableRecord
100
AcDbBlockTableRecord
  2
*B26
340
0
  0
BLOCK_RECORD
  5
355
100
AcDbSymbolTableRecord
100
AcDbBlockTableRecord
  2
*B27
340
0
  0
BLOCK_RECORD
  5
35A
100
AcDbSymbolTableRecord
100
AcDbBlockTableRecord
  2
*B28
340
0
  0
BLOCK_RECORD
  5
360
100
AcDbSymbolTableRecord
100
AcDbBlockTableRecord
  2
*B29
340
0
  0
BLOCK_RECORD
  5
372
100
AcDbSymbolTableRecord
100
AcDbBlockTableRecord
  2
*B30
340
0
  0
BLOCK_RECORD
  5
378
100
AcDbSymbolTableRecord
100
AcDbBlockTableRecord
  2
*B31
340
0
  0
BLOCK_RECORD
  5
37E
100
AcDbSymbolTableRecord
100
AcDbBlockTableRecord
  2
*B32
340
0
  0
BLOCK_RECORD
  5
384
100
AcDbSymbolTableRecord
100
AcDbBlockTableRecord
  2
*B33
340
0
  0
BLOCK_RECORD
  5
38F
100
AcDbSymbolTableRecord
100
AcDbBlockTableRecord
  2
*B34
340
0
  0
BLOCK_RECORD
  5
395
100
AcDbSymbolTableRecord
100
AcDbBlockTableRecord
  2
*B35
340
0
  0
BLOCK_RECORD
  5
3A2
100
AcDbSymbolTableRecord
100
AcDbBlockTableRecord
  2
*B36
340
0
  0
BLOCK_RECORD
  5
3AB
100
AcDbSymbolTableRecord
100
AcDbBlockTableRecord
  2
*B37
340
0
  0
BLOCK_RECORD
  5
3CE
100
AcDbSymbolTableRecord
100
AcDbBlockTableRecord
  2
*B38
340
0
  0
BLOCK_RECORD
  5
3D4
100
AcDbSymbolTableRecord
100
AcDbBlockTableRecord
  2
*B39
340
0
  0
BLOCK_RECORD
  5
3DA
100
AcDbSymbolTableRecord
100
AcDbBlockTableRecord
  2
*B40
340
0
  0
BLOCK_RECORD
  5
3FC
100
AcDbSymbolTableRecord
100
AcDbBlockTableRecord
  2
*B41
340
0
  0
BLOCK_RECORD
  5
405
100
AcDbSymbolTableRecord
100
AcDbBlockTableRecord
  2
*B42
340
0
  0
BLOCK_RECORD
  5
427
100
AcDbSymbolTableRecord
100
AcDbBlockTableRecord
  2
*B43
340
0
  0
BLOCK_RECORD
  5
434
100
AcDbSymbolTableRecord
100
AcDbBlockTableRecord
  2
*B44
340
0
  0
BLOCK_RECORD
  5
43D
100
AcDbSymbolTableRecord
100
AcDbBlockTableRecord
  2
*B45
340
0
  0
BLOCK_RECORD
  5
444
100
AcDbSymbolTableRecord
100
AcDbBlockTableRecord
  2
*B46
340
0
  0
BLOCK_RECORD
  5
44A
100
AcDbSymbolTableRecord
100
AcDbBlockTableRecord
  2
*B47
340
0
  0
BLOCK_RECORD
  5
44F
100
AcDbSymbolTableRecord
100
AcDbBlockTableRecord
  2
*B48
340
0
  0
BLOCK_RECORD
  5
455
100
AcDbSymbolTableRecord
100
AcDbBlockTableRecord
  2
*B49
340
0
  0
BLOCK_RECORD
  5
460
100
AcDbSymbolTableRecord
100
AcDbBlockTableRecord
  2
*B50
340
0
  0
BLOCK_RECORD
  5
466
100
AcDbSymbolTableRecord
100
AcDbBlockTableRecord
  2
*B51
340
0
  0
BLOCK_RECORD
  5
471
100
AcDbSymbolTableRecord
100
AcDbBlockTableRecord
  2
*B52
340
0
  0
BLOCK_RECORD
  5
477
100
AcDbSymbolTableRecord
100
AcDbBlockTableRecord
  2
*B53
340
0
  0
BLOCK_RECORD
  5
47C
100
AcDbSymbolTableRecord
100
AcDbBlockTableRecord
  2
*B54
340
0
  0
BLOCK_RECORD
  5
48D
100
AcDbSymbolTableRecord
100
AcDbBlockTableRecord
  2
*B55
340
0
  0
BLOCK_RECORD
  5
498
100
AcDbSymbolTableRecord
100
AcDbBlockTableRecord
  2
*B56
340
0
  0
BLOCK_RECORD
  5
49E
100
AcDbSymbolTableRecord
100
AcDbBlockTableRecord
  2
*B57
340
0
  0
BLOCK_RECORD
  5
4A4
100
AcDbSymbolTableRecord
100
AcDbBlockTableRecord
  2
*B58
340
0
  0
BLOCK_RECORD
  5
4AA
100
AcDbSymbolTableRecord
100
AcDbBlockTableRecord
  2
*B59
340
0
  0
BLOCK_RECORD
  5
4B7
100
AcDbSymbolTableRecord
100
AcDbBlockTableRecord
  2
*B60
340
0
  0
BLOCK_RECORD
  5
4C9
100
AcDbSymbolTableRecord
100
AcDbBlockTableRecord
  2
*B61
340
0
  0
BLOCK_RECORD
  5
4CE
100
AcDbSymbolTableRecord
100
AcDbBlockTableRecord
  2
*B62
340
0
  0
BLOCK_RECORD
  5
4D4
100
AcDbSymbolTableRecord
100
AcDbBlockTableRecord
  2
*B63
340
0
  0
BLOCK_RECORD
  5
4DA
100
AcDbSymbolTableRecord
100
AcDbBlockTableRecord
  2
*B64
340
0
  0
BLOCK_RECORD
  5
4E0
100
AcDbSymbolTableRecord
100
AcDbBlockTableRecord
  2
*B65
340
0
  0
BLOCK_RECORD
  5
4E5
100
AcDbSymbolTableRecord
100
AcDbBlockTableRecord
  2
*B66
340
0
  0
BLOCK_RECORD
  5
4EB
100
AcDbSymbolTableRecord
100
AcDbBlockTableRecord
  2
*B67
340
0
  0
BLOCK_RECORD
  5
4F1
100
AcDbSymbolTableRecord
100
AcDbBlockTableRecord
  2
*B68
340
0
  0
BLOCK_RECORD
  5
4F6
100
AcDbSymbolTableRecord
100
AcDbBlockTableRecord
  2
*B69
340
0
  0
BLOCK_RECORD
  5
4FB
100
AcDbSymbolTableRecord
100
AcDbBlockTableRecord
  2
*B70
340
0
  0
BLOCK_RECORD
  5
516
100
AcDbSymbolTableRecord
100
AcDbBlockTableRecord
  2
*B71
340
0
  0
BLOCK_RECORD
  5
538
100
AcDbSymbolTableRecord
100
AcDbBlockTableRecord
  2
*B72
340
0
  0
BLOCK_RECORD
  5
53E
100
AcDbSymbolTableRecord
100
AcDbBlockTableRecord
  2
*B73
340
0
  0
BLOCK_RECORD
  5
550
100
AcDbSymbolTableRecord
100
AcDbBlockTableRecord
  2
*B74
340
0
  0
BLOCK_RECORD
  5
556
100
AcDbSymbolTableRecord
100
AcDbBlockTableRecord
  2
*B75
340
0
  0
BLOCK_RECORD
  5
55B
100
AcDbSymbolTableRecord
100
AcDbBlockTableRecord
  2
*B76
340
0
  0
BLOCK_RECORD
  5
561
100
AcDbSymbolTableRecord
100
AcDbBlockTableRecord
  2
*B77
340
0
  0
BLOCK_RECORD
  5
567
100
AcDbSymbolTableRecord
100
AcDbBlockTableRecord
  2
*B78
340
0
  0
BLOCK_RECORD
  5
579
100
AcDbSymbolTableRecord
100
AcDbBlockTableRecord
  2
*B79
340
0
  0
BLOCK_RECORD
  5
582
100
AcDbSymbolTableRecord
100
AcDbBlockTableRecord
  2
*B80
340
0
  0
BLOCK_RECORD
  5
588
100
AcDbSymbolTableRecord
100
AcDbBlockTableRecord
  2
*B81
340
0
  0
BLOCK_RECORD
  5
58D
100
AcDbSymbolTableRecord
100
AcDbBlockTableRecord
  2
*B82
340
0
  0
BLOCK_RECORD
  5
593
100
AcDbSymbolTableRecord
100
AcDbBlockTableRecord
  2
*B83
340
0
  0
BLOCK_RECORD
  5
599
100
AcDbSymbolTableRecord
100
AcDbBlockTableRecord
  2
*B84
340
0
  0
BLOCK_RECORD
  5
59F
100
AcDbSymbolTableRecord
100
AcDbBlockTableRecord
  2
*B85
340
0
  0
BLOCK_RECORD
  5
5A5
100
AcDbSymbolTableRecord
100
AcDbBlockTableRecord
  2
*B86
340
0
  0
BLOCK_RECORD
  5
5AB
100
AcDbSymbolTableRecord
100
AcDbBlockTableRecord
  2
*B87
340
0
  0
BLOCK_RECORD
  5
5B1
100
AcDbSymbolTableRecord
100
AcDbBlockTableRecord
  2
*B88
340
0
  0
BLOCK_RECORD
  5
5B7
100
AcDbSymbolTableRecord
100
AcDbBlockTableRecord
  2
*B89
340
0
  0
BLOCK_RECORD
  5
5BD
100
AcDbSymbolTableRecord
100
AcDbBlockTableRecord
  2
*B90
340
0
  0
BLOCK_RECORD
  5
5C3
100
AcDbSymbolTableRecord
100
AcDbBlockTableRecord
  2
*B91
340
0
  0
BLOCK_RECORD
  5
5C9
100
AcDbSymbolTableRecord
100
AcDbBlockTableRecord
  2
*B92
340
0
  0
BLOCK_RECORD
  5
5CF
100
AcDbSymbolTableRecord
100
AcDbBlockTableRecord
  2
*B93
340
0
  0
BLOCK_RECORD
  5
5D5
100
AcDbSymbolTableRecord
100
AcDbBlockTableRecord
  2
*B94
340
0
  0
BLOCK_RECORD
  5
5DB
100
AcDbSymbolTableRecord
100
AcDbBlockTableRecord
  2
*B95
340
0
  0
BLOCK_RECORD
  5
5E1
100
AcDbSymbolTableRecord
100
AcDbBlockTableRecord
  2
*B96
340
0
  0
BLOCK_RECORD
  5
5E7
100
AcDbSymbolTableRecord
100
AcDbBlockTableRecord
  2
*B97
340
0
  0
BLOCK_RECORD
  5
5ED
100
AcDbSymbolTableRecord
100
AcDbBlockTableRecord
  2
*B98
340
0
  0
BLOCK_RECORD
  5
5F3
100
AcDbSymbolTableRecord
100
AcDbBlockTableRecord
  2
*B99
340
0
  0
BLOCK_RECORD
  5
5F9
100
AcDbSymbolTableRecord
100
AcDbBlockTableRecord
  2
*B100
340
0
  0
BLOCK_RECORD
  5
5FF
100
AcDbSymbolTableRecord
100
AcDbBlockTableRecord
  2
*B101
340
0
  0
BLOCK_RECORD
  5
605
100
AcDbSymbolTableRecord
100
AcDbBlockTableRecord
  2
*B102
340
0
  0
BLOCK_RECORD
  5
60B
100
AcDbSymbolTableRecord
100
AcDbBlockTableRecord
  2
*B103
340
0
  0
BLOCK_RECORD
  5
611
100
AcDbSymbolTableRecord
100
AcDbBlockTableRecord
  2
*B104
340
0
  0
BLOCK_RECORD
  5
617
100
AcDbSymbolTableRecord
100
AcDbBlockTableRecord
  2
*B105
340
0
  0
BLOCK_RECORD
  5
61D
100
AcDbSymbolTableRecord
100
AcDbBlockTableRecord
  2
*B106
340
0
  0
BLOCK_RECORD
  5
624
100
AcDbSymbolTableRecord
100
AcDbBlockTableRecord
  2
*B107
340
0
  0
BLOCK_RECORD
  5
62B
100
AcDbSymbolTableRecord
100
AcDbBlockTableRecord
  2
*B108
340
0
  0
BLOCK_RECORD
  5
632
100
AcDbSymbolTableRecord
100
AcDbBlockTableRecord
  2
*B109
340
0
  0
BLOCK_RECORD
  5
637
100
AcDbSymbolTableRecord
100
AcDbBlockTableRecord
  2
*B110
340
0
  0
BLOCK_RECORD
  5
63C
100
AcDbSymbolTableRecord
100
AcDbBlockTableRecord
  2
*B111
340
0
  0
BLOCK_RECORD
  5
641
100
AcDbSymbolTableRecord
100
AcDbBlockTableRecord
  2
*B112
340
0
  0
BLOCK_RECORD
  5
646
100
AcDbSymbolTableRecord
100
AcDbBlockTableRecord
  2
*B113
340
0
  0
BLOCK_RECORD
  5
64B
100
AcDbSymbolTableRecord
100
AcDbBlockTableRecord
  2
*B114
340
0
  0
BLOCK_RECORD
  5
650
100
AcDbSymbolTableRecord
100
AcDbBlockTableRecord
  2
*B115
340
0
  0
BLOCK_RECORD
  5
655
100
AcDbSymbolTableRecord
100
AcDbBlockTableRecord
  2
*B116
340
0
  0
BLOCK_RECORD
  5
65A
100
AcDbSymbolTableRecord
100
AcDbBlockTableRecord
  2
*B117
340
0
  0
BLOCK_RECORD
  5
65F
100
AcDbSymbolTableRecord
100
AcDbBlockTableRecord
  2
*B118
340
0
  0
BLOCK_RECORD
  5
664
100
AcDbSymbolTableRecord
100
AcDbBlockTableRecord
  2
*B119
340
0
  0
BLOCK_RECORD
  5
669
100
AcDbSymbolTableRecord
100
AcDbBlockTableRecord
  2
*B120
340
0
  0
BLOCK_RECORD
  5
66E
100
AcDbSymbolTableRecord
100
AcDbBlockTableRecord
  2
*B121
340
0
  0
BLOCK_RECORD
  5
673
100
AcDbSymbolTableRecord
100
AcDbBlockTableRecord
  2
*B122
340
0
  0
BLOCK_RECORD
  5
678
100
AcDbSymbolTableRecord
100
AcDbBlockTableRecord
  2
*B123
340
0
  0
BLOCK_RECORD
  5
67D
100
AcDbSymbolTableRecord
100
AcDbBlockTableRecord
  2
*B124
340
0
  0
BLOCK_RECORD
  5
682
100
AcDbSymbolTableRecord
100
AcDbBlockTableRecord
  2
*B125
340
0
  0
BLOCK_RECORD
  5
687
100
AcDbSymbolTableRecord
100
AcDbBlockTableRecord
  2
*B126
340
0
  0
BLOCK_RECORD
  5
68C
100
AcDbSymbolTableRecord
100
AcDbBlockTableRecord
  2
*B127
340
0
  0
BLOCK_RECORD
  5
691
100
AcDbSymbolTableRecord
100
AcDbBlockTableRecord
  2
*B128
340
0
  0
BLOCK_RECORD
  5
696
100
AcDbSymbolTableRecord
100
AcDbBlockTableRecord
  2
*B129
340
0
  0
BLOCK_RECORD
  5
69B
100
AcDbSymbolTableRecord
100
AcDbBlockTableRecord
  2
*B130
340
0
  0
BLOCK_RECORD
  5
6A0
100
AcDbSymbolTableRecord
100
AcDbBlockTableRecord
  2
*B131
340
0
  0
ENDTAB
  0
ENDSEC
  0
SECTION
  2
BLOCKS
  0
BLOCK
  5
D
100
AcDbEntity
  8
0
100
AcDbBlockBegin
  2
*MODEL_SPACE
 70
     0
 10
0.0
 20
0.0
 30
0.0
  3
*MODEL_SPACE
  1

  0
ENDBLK
  5
E
100
AcDbEntity
  8
0
100
AcDbBlockEnd
  0
BLOCK
  5
F
100
AcDbEntity
 67
     1
  8
0
100
AcDbBlockBegin
  2
*PAPER_SPACE
 70
     0
 10
0.0
 20
0.0
 30
0.0
  3
*PAPER_SPACE
  1

  0
ENDBLK
  5
10
100
AcDbEntity
 67
     1
  8
0
100
AcDbBlockEnd
  0
BLOCK
  5
2A
100
AcDbEntity
  8
0
100
AcDbBlockBegin
  2
*B0
 70
     0
 10
0.0
 20
0.0
 30
0.0
  3
*B0
  1

  0
ENDBLK
  5
2B
100
AcDbEntity
  8
0
100
AcDbBlockEnd
  0
BLOCK
  5
2D
100
AcDbEntity
  8
0
100
AcDbBlockBegin
  2
*B1
 70
     0
 10
0.0
 20
0.0
 30
0.0
  3
*B1
  1

  0
ENDBLK
  5
2E
100
AcDbEntity
  8
0
100
AcDbBlockEnd
  0
BLOCK
  5
30
100
AcDbEntity
  8
0
100
AcDbBlockBegin
  2
*B2
 70
     0
 10
0.0
 20
0.0
 30
0.0
  3
*B2
  1

  0
LINE
  5
31
100
AcDbEntity
  8
0
  6
HIDDEN
 62
   174
100
AcDbLine
 10
548.962091
 20
369.335857
 30
0.0
 11
548.962091
 21
390.584907
 31
0.0
  0
LINE
  5
32
100
AcDbEntity
  8
0
  6
HIDDEN
 62
   174
100
AcDbLine
 10
548.962091
 20
390.584907
 30
0.0
 11
548.962091
 21
411.833957
 31
0.0
  0
LINE
  5
33
100
AcDbEntity
  8
0
  6
HIDDEN
 62
   174
100
AcDbLine
 10
548.962091
 20
390.584907
 30
0.0
 11
548.962091
 21
411.833957
 31
0.0
  0
LINE
  5
34
100
AcDbEntity
  8
0
  6
HIDDEN
 62
   174
100
AcDbLine
 10
548.962091
 20
369.335857
 30
0.0
 11
548.962091
 21
390.584907
 31
0.0
  0
LINE
  5
35
100
AcDbEntity
  8
0
  6
Continuous
 62
   174
100
AcDbLine
 10
592.76113
 20
359.250045
 30
0.0
 11
592.76113
 21
421.750045
 31
0.0
  0
LINE
  5
36
100
AcDbEntity
  8
0
  6
HIDDEN
 62
   174
100
AcDbLine
 10
380.862978
 20
421.125045
 30
0.0
 11
365.863825
 21
421.125045
 31
0.0
  0
LINE
  5
37
100
AcDbEntity
  8
0
  6
HIDDEN
 62
   174
100
AcDbLine
 10
365.863825
 20
421.125045
 30
0.0
 11
350.864673
 21
421.125045
 31
0.0
  0
LINE
  5
38
100
AcDbEntity
  8
0
  6
Continuous
 62
   174
100
AcDbLine
 10
214.63613
 20
359.250045
 30
0.0
 11
592.76113
 21
359.250045
 31
0.0
  0
LINE
  5
39
100
AcDbEntity
  8
0
  6
HIDDEN
 62
   174
100
AcDbLine
 10
380.862978
 20
420.500045
 30
0.0
 11
365.863825
 21
420.500045
 31
0.0
  0
LINE
  5
3A
100
AcDbEntity
  8
0
  6
HIDDEN
 62
   174
100
AcDbLine
 10
350.864673
 20
420.500045
 30
0.0
 11
365.863825
 21
420.500045
 31
0.0
  0
LINE
  5
3B
100
AcDbEntity
  8
0
  6
Continuous
 62
   174
100
AcDbLine
 10
214.63613
 20
421.750045
 30
0.0
 11
214.63613
 21
359.250045
 31
0.0
  0
LINE
  5
3C
100
AcDbEntity
  8
0
  6
HIDDEN
 62
   174
100
AcDbLine
 10
397.11211
 20
421.125045
 30
0.0
 11
365.863825
 21
421.125045
 31
0.0
  0
LINE
  5
3D
100
AcDbEntity
  8
0
  6
HIDDEN
 62
   174
100
AcDbLine
 10
334.615541
 20
421.125045
 30
0.0
 11
365.863825
 21
421.125045
 31
0.0
  0
LINE
  5
3E
100
AcDbEntity
  8
0
  6
Continuous
 62
   174
100
AcDbLine
 10
592.76113
 20
421.750045
 30
0.0
 11
214.63613
 21
421.750045
 31
0.0
  0
LINE
  5
3F
100
AcDbEntity
  8
0
  6
HIDDEN
 62
   174
100
AcDbLine
 10
257.13613
 20
411.750045
 30
0.0
 11
548.962091
 21
411.750045
 31
0.0
  0
LINE
  5
40
100
AcDbEntity
  8
0
  6
HIDDEN
 62
   174
100
AcDbLine
 10
441.483976
 20
421.125045
 30
0.0
 11
426.484823
 21
421.125045
 31
0.0
  0
LINE
  5
41
100
AcDbEntity
  8
0
  6
HIDDEN
 62
   174
100
AcDbLine
 10
472.73226
 20
421.125045
 30
0.0
 11
441.483976
 21
421.125045
 31
0.0
  0
LINE
  5
42
100
AcDbEntity
  8
0
  6
HIDDEN
 62
   174
100
AcDbLine
 10
257.13613
 20
369.250045
 30
0.0
 11
548.962091
 21
369.250045
 31
0.0
  0
LINE
  5
43
100
AcDbEntity
  8
0
  6
HIDDEN
 62
   174
100
AcDbLine
 10
456.483128
 20
420.500045
 30
0.0
 11
441.483976
 21
420.500045
 31
0.0
  0
LINE
  5
44
100
AcDbEntity
  8
0
  6
HIDDEN
 62
   174
100
AcDbLine
 10
426.484823
 20
420.500045
 30
0.0
 11
441.483976
 21
420.500045
 31
0.0
  0
LINE
  5
45
100
AcDbEntity
  8
0
  6
HIDDEN
 62
   174
100
AcDbLine
 10
517.104728
 20
421.125045
 30
0.0
 11
502.105575
 21
421.125045
 31
0.0
  0
LINE
  5
46
100
AcDbEntity
  8
0
  6
HIDDEN
 62
   174
100
AcDbLine
 10
557.76113
 20
364.385866
 30
0.0
 11
557.76113
 21
390.584907
 31
0.0
  0
LINE
  5
47
100
AcDbEntity
  8
0
  6
HIDDEN
 62
   174
100
AcDbLine
 10
592.76113
 20
364.385866
 30
0.0
 11
592.76113
 21
390.584907
 31
0.0
  0
LINE
  5
48
100
AcDbEntity
  8
0
  6
HIDDEN
 62
   174
100
AcDbLine
 10
592.76113
 20
364.385866
 30
0.0
 11
592.76113
 21
390.584907
 31
0.0
  0
LINE
  5
49
100
AcDbEntity
  8
0
  6
HIDDEN
 62
   174
100
AcDbLine
 10
557.76113
 20
416.700045
 30
0.0
 11
592.76113
 21
416.700045
 31
0.0
  0
LINE
  5
4A
100
AcDbEntity
  8
0
  6
HIDDEN
 62
   174
100
AcDbLine
 10
532.10388
 20
420.500045
 30
0.0
 11
517.104728
 21
420.500045
 31
0.0
  0
LINE
  5
4B
100
AcDbEntity
  8
0
  6
HIDDEN
 62
   174
100
AcDbLine
 10
456.51113
 20
421.125045
 30
0.0
 11
456.51113
 21
420.500045
 31
0.0
  0
LINE
  5
4C
100
AcDbEntity
  8
0
  6
HIDDEN
 62
   174
100
AcDbLine
 10
257.13613
 20
369.335857
 30
0.0
 11
257.13613
 21
390.584907
 31
0.0
  0
LINE
  5
4D
100
AcDbEntity
  8
0
  6
HIDDEN
 62
   174
100
AcDbLine
 10
472.73226
 20
421.125045
 30
0.0
 11
441.483976
 21
421.125045
 31
0.0
  0
LINE
  5
4E
100
AcDbEntity
  8
0
  6
HIDDEN
 62
   174
100
AcDbLine
 10
257.13613
 20
411.750045
 30
0.0
 11
548.962091
 21
411.750045
 31
0.0
  0
LINE
  5
4F
100
AcDbEntity
  8
0
  6
HIDDEN
 62
   174
100
AcDbLine
 10
557.76113
 20
414.000045
 30
0.0
 11
592.76113
 21
414.000045
 31
0.0
  0
LINE
  5
50
100
AcDbEntity
  8
0
  6
HIDDEN
 62
   174
100
AcDbLine
 10
592.76113
 20
414.000045
 30
0.0
 11
550.26113
 21
414.000045
 31
0.0
  0
LINE
  5
51
100
AcDbEntity
  8
0
  6
HIDDEN
 62
   174
100
AcDbLine
 10
557.76113
 20
416.700045
 30
0.0
 11
592.76113
 21
416.700045
 31
0.0
  0
LINE
  5
52
100
AcDbEntity
  8
0
  6
HIDDEN
 62
   174
100
AcDbLine
 10
557.76113
 20
414.000045
 30
0.0
 11
592.76113
 21
414.000045
 31
0.0
  0
LINE
  5
53
100
AcDbEntity
  8
0
  6
HIDDEN
 62
   174
100
AcDbLine
 10
592.76113
 20
414.000045
 30
0.0
 11
550.26113
 21
414.000045
 31
0.0
  0
LINE
  5
54
100
AcDbEntity
  8
0
  6
HIDDEN
 62
   174
100
AcDbLine
 10
557.76113
 20
364.300045
 30
0.0
 11
592.76113
 21
364.300045
 31
0.0
  0
LINE
  5
55
100
AcDbEntity
  8
0
  6
HIDDEN
 62
   174
100
AcDbLine
 10
502.13613
 20
421.125045
 30
0.0
 11
502.13613
 21
420.500045
 31
0.0
  0
LINE
  5
56
100
AcDbEntity
  8
0
  6
HIDDEN
 62
   174
100
AcDbLine
 10
502.13613
 20
421.125045
 30
0.0
 11
502.13613
 21
420.500045
 31
0.0
  0
LINE
  5
57
100
AcDbEntity
  8
0
  6
HIDDEN
 62
   174
100
AcDbLine
 10
548.962091
 20
369.335857
 30
0.0
 11
548.962091
 21
390.584907
 31
0.0
  0
LINE
  5
58
100
AcDbEntity
  8
0
  6
HIDDEN
 62
   174
100
AcDbLine
 10
257.13613
 20
369.250045
 30
0.0
 11
548.962091
 21
369.250045
 31
0.0
  0
LINE
  5
59
100
AcDbEntity
  8
0
  6
HIDDEN
 62
   174
100
AcDbLine
 10
257.13613
 20
390.584907
 30
0.0
 11
257.13613
 21
411.833957
 31
0.0
  0
LINE
  5
5A
100
AcDbEntity
  8
0
  6
HIDDEN
 62
   174
100
AcDbLine
 10
410.236293
 20
421.125045
 30
0.0
 11
441.483976
 21
421.125045
 31
0.0
  0
LINE
  5
5B
100
AcDbEntity
  8
0
  6
HIDDEN
 62
   174
100
AcDbLine
 10
257.13613
 20
414.083679
 30
0.0
 11
257.13613
 21
390.584907
 31
0.0
  0
LINE
  5
5C
100
AcDbEntity
  8
0
  6
HIDDEN
 62
   174
100
AcDbLine
 10
557.76113
 20
364.300045
 30
0.0
 11
592.76113
 21
364.300045
 31
0.0
  0
LINE
  5
5D
100
AcDbEntity
  8
0
  6
HIDDEN
 62
   174
100
AcDbLine
 10
532.10388
 20
421.125045
 30
0.0
 11
517.104728
 21
421.125045
 31
0.0
  0
LINE
  5
5E
100
AcDbEntity
  8
0
  6
HIDDEN
 62
   174
100
AcDbLine
 10
502.105575
 20
420.500045
 30
0.0
 11
517.104728
 21
420.500045
 31
0.0
  0
LINE
  5
5F
100
AcDbEntity
  8
0
  6
HIDDEN
 62
   174
100
AcDbLine
 10
426.51113
 20
421.125045
 30
0.0
 11
426.51113
 21
420.500045
 31
0.0
  0
LINE
  5
60
100
AcDbEntity
  8
0
  6
HIDDEN
 62
   174
100
AcDbLine
 10
214.63613
 20
390.584907
 30
0.0
 11
214.63613
 21
414.083679
 31
0.0
  0
LINE
  5
61
100
AcDbEntity
  8
0
  6
HIDDEN
 62
   174
100
AcDbLine
 10
410.236293
 20
421.125045
 30
0.0
 11
441.483976
 21
421.125045
 31
0.0
  0
LINE
  5
62
100
AcDbEntity
  8
0
  6
HIDDEN
 62
   174
100
AcDbLine
 10
456.483128
 20
420.500045
 30
0.0
 11
441.483976
 21
420.500045
 31
0.0
  0
LINE
  5
63
100
AcDbEntity
  8
0
  6
HIDDEN
 62
   174
100
AcDbLine
 10
257.13613
 20
369.250045
 30
0.0
 11
548.962091
 21
369.250045
 31
0.0
  0
LINE
  5
64
100
AcDbEntity
  8
0
  6
HIDDEN
 62
   174
100
AcDbLine
 10
257.13613
 20
367.085533
 30
0.0
 11
257.13613
 21
390.584907
 31
0.0
  0
LINE
  5
65
100
AcDbEntity
  8
0
  6
HIDDEN
 62
   174
100
AcDbLine
 10
548.35241
 20
421.125045
 30
0.0
 11
517.104728
 21
421.125045
 31
0.0
  0
LINE
  5
66
100
AcDbEntity
  8
0
  6
HIDDEN
 62
   174
100
AcDbLine
 10
548.962091
 20
369.335857
 30
0.0
 11
548.962091
 21
390.584907
 31
0.0
  0
LINE
  5
67
100
AcDbEntity
  8
0
  6
HIDDEN
 62
   174
100
AcDbLine
 10
214.63613
 20
390.584907
 30
0.0
 11
214.63613
 21
414.083679
 31
0.0
  0
LINE
  5
68
100
AcDbEntity
  8
0
  6
HIDDEN
 62
   174
100
AcDbLine
 10
257.13613
 20
390.584907
 30
0.0
 11
257.13613
 21
411.833957
 31
0.0
  0
LINE
  5
69
100
AcDbEntity
  8
0
  6
HIDDEN
 62
   174
100
AcDbLine
 10
456.483128
 20
420.500045
 30
0.0
 11
441.483976
 21
420.500045
 31
0.0
  0
LINE
  5
6A
100
AcDbEntity
  8
0
  6
HIDDEN
 62
   174
100
AcDbLine
 10
426.484823
 20
420.500045
 30
0.0
 11
441.483976
 21
420.500045
 31
0.0
  0
LINE
  5
6B
100
AcDbEntity
  8
0
  6
HIDDEN
 62
   174
100
AcDbLine
 10
456.51113
 20
421.125045
 30
0.0
 11
456.51113
 21
420.500045
 31
0.0
  0
LINE
  5
6C
100
AcDbEntity
  8
0
  6
HIDDEN
 62
   174
100
AcDbLine
 10
550.26113
 20
414.000045
 30
0.0
 11
548.962091
 21
411.750045
 31
0.0
  0
LINE
  5
6D
100
AcDbEntity
  8
0
  6
HIDDEN
 62
   174
100
AcDbLine
 10
456.483128
 20
421.125045
 30
0.0
 11
441.483976
 21
421.125045
 31
0.0
  0
LINE
  5
6E
100
AcDbEntity
  8
0
  6
HIDDEN
 62
   174
100
AcDbLine
 10
532.10388
 20
420.500045
 30
0.0
 11
517.104728
 21
420.500045
 31
0.0
  0
LINE
  5
6F
100
AcDbEntity
  8
0
  6
HIDDEN
 62
   174
100
AcDbLine
 10
548.962091
 20
390.584907
 30
0.0
 11
548.962091
 21
411.833957
 31
0.0
  0
LINE
  5
70
100
AcDbEntity
  8
0
  6
HIDDEN
 62
   174
100
AcDbLine
 10
517.104728
 20
421.125045
 30
0.0
 11
502.105575
 21
421.125045
 31
0.0
  0
LINE
  5
71
100
AcDbEntity
  8
0
  6
HIDDEN
 62
   174
100
AcDbLine
 10
214.63613
 20
367.085533
 30
0.0
 11
214.63613
 21
390.584907
 31
0.0
  0
LINE
  5
72
100
AcDbEntity
  8
0
  6
HIDDEN
 62
   174
100
AcDbLine
 10
426.484823
 20
420.500045
 30
0.0
 11
441.483976
 21
420.500045
 31
0.0
  0
LINE
  5
73
100
AcDbEntity
  8
0
  6
HIDDEN
 62
   174
100
AcDbLine
 10
456.51113
 20
421.125045
 30
0.0
 11
456.51113
 21
420.500045
 31
0.0
  0
LINE
  5
74
100
AcDbEntity
  8
0
  6
HIDDEN
 62
   174
100
AcDbLine
 10
456.483128
 20
421.125045
 30
0.0
 11
441.483976
 21
421.125045
 31
0.0
  0
LINE
  5
75
100
AcDbEntity
  8
0
  6
HIDDEN
 62
   174
100
AcDbLine
 10
550.26113
 20
414.000045
 30
0.0
 11
548.962091
 21
411.750045
 31
0.0
  0
LINE
  5
76
100
AcDbEntity
  8
0
  6
HIDDEN
 62
   174
100
AcDbLine
 10
532.13613
 20
421.125045
 30
0.0
 11
532.13613
 21
420.500045
 31
0.0
  0
LINE
  5
77
100
AcDbEntity
  8
0
  6
HIDDEN
 62
   174
100
AcDbLine
 10
557.76113
 20
367.000045
 30
0.0
 11
592.76113
 21
367.000045
 31
0.0
  0
LINE
  5
78
100
AcDbEntity
  8
0
  6
HIDDEN
 62
   174
100
AcDbLine
 10
502.105575
 20
420.500045
 30
0.0
 11
517.104728
 21
420.500045
 31
0.0
  0
LINE
  5
79
100
AcDbEntity
  8
0
  6
HIDDEN
 62
   174
100
AcDbLine
 10
557.76113
 20
367.000045
 30
0.0
 11
592.76113
 21
367.000045
 31
0.0
  0
LINE
  5
7A
100
AcDbEntity
  8
0
  6
HIDDEN
 62
   174
100
AcDbLine
 10
485.856443
 20
421.125045
 30
0.0
 11
517.104728
 21
421.125045
 31
0.0
  0
LINE
  5
7B
100
AcDbEntity
  8
0
  6
HIDDEN
 62
   174
100
AcDbLine
 10
214.63613
 20
390.584907
 30
0.0
 11
214.63613
 21
414.083679
 31
0.0
  0
LINE
  5
7C
100
AcDbEntity
  8
0
  6
HIDDEN
 62
   174
100
AcDbLine
 10
214.63613
 20
367.085533
 30
0.0
 11
214.63613
 21
390.584907
 31
0.0
  0
LINE
  5
7D
100
AcDbEntity
  8
0
  6
HIDDEN
 62
   174
100
AcDbLine
 10
257.13613
 20
369.335857
 30
0.0
 11
257.13613
 21
390.584907
 31
0.0
  0
LINE
  5
7E
100
AcDbEntity
  8
0
  6
HIDDEN
 62
   174
100
AcDbLine
 10
548.962091
 20
390.584907
 30
0.0
 11
548.962091
 21
411.833957
 31
0.0
  0
LINE
  5
7F
100
AcDbEntity
  8
0
  6
HIDDEN
 62
   174
100
AcDbLine
 10
257.13613
 20
414.083679
 30
0.0
 11
257.13613
 21
390.584907
 31
0.0
  0
LINE
  5
80
100
AcDbEntity
  8
0
  6
HIDDEN
 62
   174
100
AcDbLine
 10
456.483128
 20
421.125045
 30
0.0
 11
441.483976
 21
421.125045
 31
0.0
  0
LINE
  5
81
100
AcDbEntity
  8
0
  6
HIDDEN
 62
   174
100
AcDbLine
 10
426.51113
 20
421.125045
 30
0.0
 11
426.51113
 21
420.500045
 31
0.0
  0
LINE
  5
82
100
AcDbEntity
  8
0
  6
HIDDEN
 62
   174
100
AcDbLine
 10
550.26113
 20
367.000045
 30
0.0
 11
548.962091
 21
369.250045
 31
0.0
  0
LINE
  5
83
100
AcDbEntity
  8
0
  6
HIDDEN
 62
   174
100
AcDbLine
 10
441.483976
 20
421.125045
 30
0.0
 11
426.484823
 21
421.125045
 31
0.0
  0
LINE
  5
84
100
AcDbEntity
  8
0
  6
HIDDEN
 62
   174
100
AcDbLine
 10
257.13613
 20
411.750045
 30
0.0
 11
548.962091
 21
411.750045
 31
0.0
  0
LINE
  5
85
100
AcDbEntity
  8
0
  6
HIDDEN
 62
   174
100
AcDbLine
 10
472.73226
 20
421.125045
 30
0.0
 11
441.483976
 21
421.125045
 31
0.0
  0
LINE
  5
86
100
AcDbEntity
  8
0
  6
HIDDEN
 62
   174
100
AcDbLine
 10
257.13613
 20
414.083679
 30
0.0
 11
257.13613
 21
390.584907
 31
0.0
  0
LINE
  5
87
100
AcDbEntity
  8
0
  6
HIDDEN
 62
   174
100
AcDbLine
 10
532.10388
 20
421.125045
 30
0.0
 11
517.104728
 21
421.125045
 31
0.0
  0
LINE
  5
88
100
AcDbEntity
  8
0
  6
HIDDEN
 62
   174
100
AcDbLine
 10
592.76113
 20
390.584907
 30
0.0
 11
592.76113
 21
416.783346
 31
0.0
  0
LINE
  5
89
100
AcDbEntity
  8
0
  6
HIDDEN
 62
   174
100
AcDbLine
 10
257.13613
 20
390.584907
 30
0.0
 11
257.13613
 21
411.833957
 31
0.0
  0
LINE
  5
8A
100
AcDbEntity
  8
0
  6
HIDDEN
 62
   174
100
AcDbLine
 10
548.962091
 20
369.335857
 30
0.0
 11
548.962091
 21
390.584907
 31
0.0
  0
LINE
  5
8B
100
AcDbEntity
  8
0
  6
HIDDEN
 62
   174
100
AcDbLine
 10
548.35241
 20
421.125045
 30
0.0
 11
517.104728
 21
421.125045
 31
0.0
  0
LINE
  5
8C
100
AcDbEntity
  8
0
  6
HIDDEN
 62
   174
100
AcDbLine
 10
257.13613
 20
367.085533
 30
0.0
 11
257.13613
 21
390.584907
 31
0.0
  0
LINE
  5
8D
100
AcDbEntity
  8
0
  6
HIDDEN
 62
   174
100
AcDbLine
 10
426.51113
 20
421.125045
 30
0.0
 11
426.51113
 21
420.500045
 31
0.0
  0
LINE
  5
8E
100
AcDbEntity
  8
0
  6
HIDDEN
 62
   174
100
AcDbLine
 10
441.483976
 20
421.125045
 30
0.0
 11
426.484823
 21
421.125045
 31
0.0
  0
LINE
  5
8F
100
AcDbEntity
  8
0
  6
HIDDEN
 62
   174
100
AcDbLine
 10
550.26113
 20
367.000045
 30
0.0
 11
548.962091
 21
369.250045
 31
0.0
  0
LINE
  5
90
100
AcDbEntity
  8
0
  6
HIDDEN
 62
   174
100
AcDbLine
 10
410.236293
 20
421.125045
 30
0.0
 11
441.483976
 21
421.125045
 31
0.0
  0
LINE
  5
91
100
AcDbEntity
  8
0
  6
HIDDEN
 62
   174
100
AcDbLine
 10
502.13613
 20
421.125045
 30
0.0
 11
502.13613
 21
420.500045
 31
0.0
  0
LINE
  5
92
100
AcDbEntity
  8
0
  6
HIDDEN
 62
   174
100
AcDbLine
 10
257.13613
 20
367.085533
 30
0.0
 11
257.13613
 21
390.584907
 31
0.0
  0
LINE
  5
93
100
AcDbEntity
  8
0
  6
HIDDEN
 62
   174
100
AcDbLine
 10
592.76113
 20
367.000045
 30
0.0
 11
550.26113
 21
367.000045
 31
0.0
  0
LINE
  5
94
100
AcDbEntity
  8
0
  6
HIDDEN
 62
   174
100
AcDbLine
 10
592.76113
 20
390.584907
 30
0.0
 11
592.76113
 21
416.783346
 31
0.0
  0
LINE
  5
95
100
AcDbEntity
  8
0
  6
HIDDEN
 62
   174
100
AcDbLine
 10
557.76113
 20
390.584907
 30
0.0
 11
557.76113
 21
416.783346
 31
0.0
  0
LINE
  5
96
100
AcDbEntity
  8
0
  6
HIDDEN
 62
   174
100
AcDbLine
 10
592.76113
 20
367.000045
 30
0.0
 11
550.26113
 21
367.000045
 31
0.0
  0
LINE
  5
97
100
AcDbEntity
  8
0
  6
HIDDEN
 62
   174
100
AcDbLine
 10
557.76113
 20
364.385866
 30
0.0
 11
557.76113
 21
390.584907
 31
0.0
  0
LINE
  5
98
100
AcDbEntity
  8
0
  6
HIDDEN
 62
   174
100
AcDbLine
 10
557.76113
 20
390.584907
 30
0.0
 11
557.76113
 21
416.783346
 31
0.0
  0
LINE
  5
99
100
AcDbEntity
  8
0
  6
HIDDEN
 62
   174
100
AcDbLine
 10
257.13613
 20
369.335857
 30
0.0
 11
257.13613
 21
390.584907
 31
0.0
  0
LINE
  5
9A
100
AcDbEntity
  8
0
  6
HIDDEN
 62
   174
100
AcDbLine
 10
548.962091
 20
390.584907
 30
0.0
 11
548.962091
 21
411.833957
 31
0.0
  0
LINE
  5
9B
100
AcDbEntity
  8
0
  6
HIDDEN
 62
   174
100
AcDbLine
 10
214.63613
 20
367.085533
 30
0.0
 11
214.63613
 21
390.584907
 31
0.0
  0
LINE
  5
9C
100
AcDbEntity
  8
0
  6
HIDDEN
 62
   174
100
AcDbLine
 10
532.13613
 20
421.125045
 30
0.0
 11
532.13613
 21
420.500045
 31
0.0
  0
LINE
  5
9D
100
AcDbEntity
  8
0
  6
HIDDEN
 62
   174
100
AcDbLine
 10
485.856443
 20
421.125045
 30
0.0
 11
517.104728
 21
421.125045
 31
0.0
  0
LINE
  5
9E
100
AcDbEntity
  8
0
  6
HIDDEN
 62
   174
100
AcDbLine
 10
532.13613
 20
421.125045
 30
0.0
 11
532.13613
 21
420.500045
 31
0.0
  0
LINE
  5
9F
100
AcDbEntity
  8
0
  6
HIDDEN
 62
   174
100
AcDbLine
 10
258.995391
 20
421.125045
 30
0.0
 11
290.243675
 21
421.125045
 31
0.0
  0
LINE
  5
A0
100
AcDbEntity
  8
0
  6
HIDDEN
 62
   174
100
AcDbLine
 10
340.642271
 20
421.750045
 30
0.0
 11
341.433283
 21
421.750045
 31
0.0
  0
LINE
  5
A1
100
AcDbEntity
  8
0
  6
HIDDEN
 62
   174
100
AcDbLine
 10
335.399335
 20
421.750045
 30
0.0
 11
340.642271
 21
421.750045
 31
0.0
  0
LINE
  5
A2
100
AcDbEntity
  8
0
  6
HIDDEN
 62
   174
100
AcDbLine
 10
416.262421
 20
421.750045
 30
0.0
 11
417.053433
 21
421.750045
 31
0.0
  0
LINE
  5
A3
100
AcDbEntity
  8
0
  6
HIDDEN
 62
   174
100
AcDbLine
 10
491.882571
 20
421.750045
 30
0.0
 11
492.673584
 21
421.750045
 31
0.0
  0
LINE
  5
A4
100
AcDbEntity
  8
0
  6
HIDDEN
 62
   174
100
AcDbLine
 10
259.778583
 20
421.750045
 30
0.0
 11
265.021519
 21
421.750045
 31
0.0
  0
LINE
  5
A5
100
AcDbEntity
  8
0
  6
HIDDEN
 62
   174
100
AcDbLine
 10
550.26113
 20
390.584907
 30
0.0
 11
550.26113
 21
414.083679
 31
0.0
  0
LINE
  5
A6
100
AcDbEntity
  8
0
  6
HIDDEN
 62
   174
100
AcDbLine
 10
233.372014
 20
359.250045
 30
0.0
 11
241.621397
 21
359.250045
 31
0.0
  0
LINE
  5
A7
100
AcDbEntity
  8
0
  6
HIDDEN
 62
   174
100
AcDbLine
 10
249.63613
 20
367.000045
 30
0.0
 11
214.63613
 21
367.000045
 31
0.0
  0
LINE
  5
A8
100
AcDbEntity
  8
0
  6
HIDDEN
 62
   174
100
AcDbLine
 10
441.483976
 20
421.750045
 30
0.0
 11
455.042464
 21
421.750045
 31
0.0
  0
LINE
  5
A9
100
AcDbEntity
  8
0
  6
HIDDEN
 62
   174
100
AcDbLine
 10
486.639635
 20
421.750045
 30
0.0
 11
491.882571
 21
421.750045
 31
0.0
  0
LINE
  5
AA
100
AcDbEntity
  8
0
  6
HIDDEN
 62
   174
100
AcDbLine
 10
334.63613
 20
421.750045
 30
0.0
 11
334.63613
 21
421.125045
 31
0.0
  0
LINE
  5
AB
100
AcDbEntity
  8
0
  6
HIDDEN
 62
   174
100
AcDbLine
 10
334.615541
 20
421.125045
 30
0.0
 11
365.863825
 21
421.125045
 31
0.0
  0
LINE
  5
AC
100
AcDbEntity
  8
0
  6
HIDDEN
 62
   174
100
AcDbLine
 10
548.962091
 20
390.584907
 30
0.0
 11
548.962091
 21
411.833957
 31
0.0
  0
LINE
  5
AD
100
AcDbEntity
  8
0
  6
HIDDEN
 62
   174
100
AcDbLine
 10
350.673386
 20
421.750045
 30
0.0
 11
352.305939
 21
421.750045
 31
0.0
  0
LINE
  5
AE
100
AcDbEntity
  8
0
  6
HIDDEN
 62
   174
100
AcDbLine
 10
426.294138
 20
421.750045
 30
0.0
 11
427.926089
 21
421.750045
 31
0.0
  0
LINE
  5
AF
100
AcDbEntity
  8
0
  6
HIDDEN
 62
   174
100
AcDbLine
 10
271.632936
 20
421.750045
 30
0.0
 11
275.053236
 21
421.750045
 31
0.0
  0
LINE
  5
B0
100
AcDbEntity
  8
0
  6
HIDDEN
 62
   174
100
AcDbLine
 10
557.76113
 20
364.385866
 30
0.0
 11
557.76113
 21
390.584907
 31
0.0
  0
LINE
  5
B1
100
AcDbEntity
  8
0
  6
HIDDEN
 62
   174
100
AcDbLine
 10
485.88613
 20
421.750045
 30
0.0
 11
485.88613
 21
421.125045
 31
0.0
  0
LINE
  5
B2
100
AcDbEntity
  8
0
  6
HIDDEN
 62
   174
100
AcDbLine
 10
225.13613
 20
421.750045
 30
0.0
 11
225.13613
 21
359.250045
 31
0.0
  0
LINE
  5
B3
100
AcDbEntity
  8
0
  6
HIDDEN
 62
   174
100
AcDbLine
 10
249.63613
 20
364.300045
 30
0.0
 11
214.63613
 21
364.300045
 31
0.0
  0
LINE
  5
B4
100
AcDbEntity
  8
0
  6
HIDDEN
 62
   174
100
AcDbLine
 10
379.421712
 20
421.750045
 30
0.0
 11
381.054264
 21
421.750045
 31
0.0
  0
LINE
  5
B5
100
AcDbEntity
  8
0
  6
HIDDEN
 62
   174
100
AcDbLine
 10
410.236293
 20
421.750045
 30
0.0
 11
411.019485
 21
421.750045
 31
0.0
  0
LINE
  5
B6
100
AcDbEntity
  8
0
  6
HIDDEN
 62
   174
100
AcDbLine
 10
350.88613
 20
421.125045
 30
0.0
 11
350.88613
 21
420.500045
 31
0.0
  0
LINE
  5
B7
100
AcDbEntity
  8
0
  6
HIDDEN
 62
   174
100
AcDbLine
 10
214.63613
 20
390.584907
 30
0.0
 11
214.63613
 21
364.385866
 31
0.0
  0
LINE
  5
B8
100
AcDbEntity
  8
0
  6
HIDDEN
 62
   174
100
AcDbLine
 10
379.421712
 20
421.750045
 30
0.0
 11
381.054264
 21
421.750045
 31
0.0
  0
LINE
  5
B9
100
AcDbEntity
  8
0
  6
HIDDEN
 62
   174
100
AcDbLine
 10
265.812531
 20
421.750045
 30
0.0
 11
271.632936
 21
421.750045
 31
0.0
  0
LINE
  5
BA
100
AcDbEntity
  8
0
  6
HIDDEN
 62
   174
100
AcDbLine
 10
455.042464
 20
421.750045
 30
0.0
 11
456.674415
 21
421.750045
 31
0.0
  0
LINE
  5
BB
100
AcDbEntity
  8
0
  6
HIDDEN
 62
   174
100
AcDbLine
 10
214.63613
 20
416.783346
 30
0.0
 11
214.63613
 21
390.584907
 31
0.0
  0
LINE
  5
BC
100
AcDbEntity
  8
0
  6
HIDDEN
 62
   174
100
AcDbLine
 10
548.38613
 20
421.750045
 30
0.0
 11
548.38613
 21
421.125045
 31
0.0
  0
LINE
  5
BD
100
AcDbEntity
  8
0
  6
HIDDEN
 62
   174
100
AcDbLine
 10
582.26113
 20
421.750045
 30
0.0
 11
582.26113
 21
359.250045
 31
0.0
  0
LINE
  5
BE
100
AcDbEntity
  8
0
  6
HIDDEN
 62
   174
100
AcDbLine
 10
498.493989
 20
421.750045
 30
0.0
 11
501.914289
 21
421.750045
 31
0.0
  0
LINE
  5
BF
100
AcDbEntity
  8
0
  6
HIDDEN
 62
   174
100
AcDbLine
 10
225.122631
 20
421.750045
 30
0.0
 11
233.372014
 21
421.750045
 31
0.0
  0
LINE
  5
C0
100
AcDbEntity
  8
0
  6
HIDDEN
 62
   174
100
AcDbLine
 10
365.863825
 20
421.750045
 30
0.0
 11
379.421712
 21
421.750045
 31
0.0
  0
LINE
  5
C1
100
AcDbEntity
  8
0
  6
HIDDEN
 62
   174
100
AcDbLine
 10
258.995391
 20
421.125045
 30
0.0
 11
290.243675
 21
421.125045
 31
0.0
  0
LINE
  5
C2
100
AcDbEntity
  8
0
  6
HIDDEN
 62
   174
100
AcDbLine
 10
308.853812
 20
421.750045
 30
0.0
 11
314.674217
 21
421.750045
 31
0.0
  0
LINE
  5
C3
100
AcDbEntity
  8
0
  6
HIDDEN
 62
   174
100
AcDbLine
 10
290.243675
 20
421.750045
 30
0.0
 11
303.801561
 21
421.750045
 31
0.0
  0
LINE
  5
C4
100
AcDbEntity
  8
0
  6
HIDDEN
 62
   174
100
AcDbLine
 10
397.13613
 20
421.750045
 30
0.0
 11
397.13613
 21
421.125045
 31
0.0
  0
LINE
  5
C5
100
AcDbEntity
  8
0
  6
HIDDEN
 62
   174
100
AcDbLine
 10
517.104728
 20
421.125045
 30
0.0
 11
502.105575
 21
421.125045
 31
0.0
  0
LINE
  5
C6
100
AcDbEntity
  8
0
  6
HIDDEN
 62
   174
100
AcDbLine
 10
517.104728
 20
421.750045
 30
0.0
 11
530.662614
 21
421.750045
 31
0.0
  0
LINE
  5
C7
100
AcDbEntity
  8
0
  6
HIDDEN
 62
   174
100
AcDbLine
 10
530.662614
 20
421.750045
 30
0.0
 11
532.294565
 21
421.750045
 31
0.0
  0
LINE
  5
C8
100
AcDbEntity
  8
0
  6
HIDDEN
 62
   174
100
AcDbLine
 10
486.639635
 20
421.750045
 30
0.0
 11
491.882571
 21
421.750045
 31
0.0
  0
LINE
  5
C9
100
AcDbEntity
  8
0
  6
HIDDEN
 62
   174
100
AcDbLine
 10
548.38613
 20
421.750045
 30
0.0
 11
548.38613
 21
421.125045
 31
0.0
  0
LINE
  5
CA
100
AcDbEntity
  8
0
  6
HIDDEN
 62
   174
100
AcDbLine
 10
241.63613
 20
421.750045
 30
0.0
 11
241.63613
 21
359.250045
 31
0.0
  0
LINE
  5
CB
100
AcDbEntity
  8
0
  6
HIDDEN
 62
   174
100
AcDbLine
 10
249.63613
 20
416.700045
 30
0.0
 11
214.63613
 21
416.700045
 31
0.0
  0
LINE
  5
CC
100
AcDbEntity
  8
0
  6
HIDDEN
 62
   174
100
AcDbLine
 10
335.399335
 20
421.750045
 30
0.0
 11
340.642271
 21
421.750045
 31
0.0
  0
LINE
  5
CD
100
AcDbEntity
  8
0
  6
HIDDEN
 62
   174
100
AcDbLine
 10
380.88613
 20
421.125045
 30
0.0
 11
380.88613
 21
420.500045
 31
0.0
  0
LINE
  5
CE
100
AcDbEntity
  8
0
  6
HIDDEN
 62
   174
100
AcDbLine
 10
305.242827
 20
421.125045
 30
0.0
 11
290.243675
 21
421.125045
 31
0.0
  0
LINE
  5
CF
100
AcDbEntity
  8
0
  6
HIDDEN
 62
   174
100
AcDbLine
 10
334.615541
 20
421.750045
 30
0.0
 11
335.399335
 21
421.750045
 31
0.0
  0
LINE
  5
D0
100
AcDbEntity
  8
0
  6
HIDDEN
 62
   174
100
AcDbLine
 10
411.019485
 20
421.750045
 30
0.0
 11
416.262421
 21
421.750045
 31
0.0
  0
LINE
  5
D1
100
AcDbEntity
  8
0
  6
HIDDEN
 62
   174
100
AcDbLine
 10
427.926089
 20
421.750045
 30
0.0
 11
441.483976
 21
421.750045
 31
0.0
  0
LINE
  5
D2
100
AcDbEntity
  8
0
  6
HIDDEN
 62
   174
100
AcDbLine
 10
258.995391
 20
421.750045
 30
0.0
 11
259.778583
 21
421.750045
 31
0.0
  0
LINE
  5
D3
100
AcDbEntity
  8
0
  6
HIDDEN
 62
   174
100
AcDbLine
 10
550.26113
 20
367.085533
 30
0.0
 11
550.26113
 21
390.584907
 31
0.0
  0
LINE
  5
D4
100
AcDbEntity
  8
0
  6
HIDDEN
 62
   174
100
AcDbLine
 10
380.862978
 20
421.125045
 30
0.0
 11
365.863825
 21
421.125045
 31
0.0
  0
LINE
  5
D5
100
AcDbEntity
  8
0
  6
HIDDEN
 62
   174
100
AcDbLine
 10
275.26113
 20
421.125045
 30
0.0
 11
275.26113
 21
420.500045
 31
0.0
  0
LINE
  5
D6
100
AcDbEntity
  8
0
  6
HIDDEN
 62
   174
100
AcDbLine
 10
347.253086
 20
421.750045
 30
0.0
 11
350.673386
 21
421.750045
 31
0.0
  0
LINE
  5
D7
100
AcDbEntity
  8
0
  6
HIDDEN
 62
   174
100
AcDbLine
 10
485.856443
 20
421.750045
 30
0.0
 11
486.639635
 21
421.750045
 31
0.0
  0
LINE
  5
D8
100
AcDbEntity
  8
0
  6
HIDDEN
 62
   174
100
AcDbLine
 10
517.104728
 20
421.750045
 30
0.0
 11
530.662614
 21
421.750045
 31
0.0
  0
LINE
  5
D9
100
AcDbEntity
  8
0
  6
HIDDEN
 62
   174
100
AcDbLine
 10
592.76113
 20
390.584907
 30
0.0
 11
592.76113
 21
367.085533
 31
0.0
  0
LINE
  5
DA
100
AcDbEntity
  8
0
  6
HIDDEN
 62
   174
100
AcDbLine
 10
565.726403
 20
359.250045
 30
0.0
 11
573.975787
 21
359.250045
 31
0.0
  0
LINE
  5
DB
100
AcDbEntity
  8
0
  6
HIDDEN
 62
   174
100
AcDbLine
 10
548.962091
 20
369.335857
 30
0.0
 11
548.962091
 21
390.584907
 31
0.0
  0
LINE
  5
DC
100
AcDbEntity
  8
0
  6
HIDDEN
 62
   174
100
AcDbLine
 10
422.873838
 20
421.750045
 30
0.0
 11
426.294138
 21
421.750045
 31
0.0
  0
LINE
  5
DD
100
AcDbEntity
  8
0
  6
HIDDEN
 62
   174
100
AcDbLine
 10
265.812531
 20
421.750045
 30
0.0
 11
271.632936
 21
421.750045
 31
0.0
  0
LINE
  5
DE
100
AcDbEntity
  8
0
  6
HIDDEN
 62
   174
100
AcDbLine
 10
592.76113
 20
414.000045
 30
0.0
 11
550.26113
 21
414.000045
 31
0.0
  0
LINE
  5
DF
100
AcDbEntity
  8
0
  6
HIDDEN
 62
   174
100
AcDbLine
 10
380.862978
 20
420.500045
 30
0.0
 11
365.863825
 21
420.500045
 31
0.0
  0
LINE
  5
E0
100
AcDbEntity
  8
0
  6
HIDDEN
 62
   174
100
AcDbLine
 10
471.948466
 20
421.750045
 30
0.0
 11
472.73226
 21
421.750045
 31
0.0
  0
LINE
  5
E1
100
AcDbEntity
  8
0
  6
HIDDEN
 62
   174
100
AcDbLine
 10
565.726403
 20
421.750045
 30
0.0
 11
573.975787
 21
421.750045
 31
0.0
  0
LINE
  5
E2
100
AcDbEntity
  8
0
  6
HIDDEN
 62
   174
100
AcDbLine
 10
214.63613
 20
416.783346
 30
0.0
 11
214.63613
 21
390.584907
 31
0.0
  0
LINE
  5
E3
100
AcDbEntity
  8
0
  6
HIDDEN
 62
   174
100
AcDbLine
 10
265.021519
 20
421.750045
 30
0.0
 11
265.812531
 21
421.750045
 31
0.0
  0
LINE
  5
E4
100
AcDbEntity
  8
0
  6
HIDDEN
 62
   174
100
AcDbLine
 10
334.63613
 20
421.750045
 30
0.0
 11
334.63613
 21
421.125045
 31
0.0
  0
LINE
  5
E5
100
AcDbEntity
  8
0
  6
HIDDEN
 62
   174
100
AcDbLine
 10
485.88613
 20
421.750045
 30
0.0
 11
485.88613
 21
421.125045
 31
0.0
  0
LINE
  5
E6
100
AcDbEntity
  8
0
  6
HIDDEN
 62
   174
100
AcDbLine
 10
249.63613
 20
390.584907
 30
0.0
 11
249.63613
 21
364.385866
 31
0.0
  0
LINE
  5
E7
100
AcDbEntity
  8
0
  6
HIDDEN
 62
   174
100
AcDbLine
 10
321.491358
 20
421.125045
 30
0.0
 11
290.243675
 21
421.125045
 31
0.0
  0
LINE
  5
E8
100
AcDbEntity
  8
0
  6
HIDDEN
 62
   174
100
AcDbLine
 10
249.63613
 20
416.783346
 30
0.0
 11
249.63613
 21
390.584907
 31
0.0
  0
LINE
  5
E9
100
AcDbEntity
  8
0
  6
HIDDEN
 62
   174
100
AcDbLine
 10
365.863825
 20
421.750045
 30
0.0
 11
379.421712
 21
421.750045
 31
0.0
  0
LINE
  5
EA
100
AcDbEntity
  8
0
  6
HIDDEN
 62
   174
100
AcDbLine
 10
492.673584
 20
421.750045
 30
0.0
 11
498.493989
 21
421.750045
 31
0.0
  0
LINE
  5
EB
100
AcDbEntity
  8
0
  6
HIDDEN
 62
   174
100
AcDbLine
 10
485.856443
 20
421.750045
 30
0.0
 11
486.639635
 21
421.750045
 31
0.0
  0
LINE
  5
EC
100
AcDbEntity
  8
0
  6
HIDDEN
 62
   174
100
AcDbLine
 10
305.433512
 20
421.750045
 30
0.0
 11
308.853812
 21
421.750045
 31
0.0
  0
LINE
  5
ED
100
AcDbEntity
  8
0
  6
HIDDEN
 62
   174
100
AcDbLine
 10
233.372014
 20
421.750045
 30
0.0
 11
241.621397
 21
421.750045
 31
0.0
  0
LINE
  5
EE
100
AcDbEntity
  8
0
  6
HIDDEN
 62
   174
100
AcDbLine
 10
305.26113
 20
421.125045
 30
0.0
 11
305.26113
 21
420.500045
 31
0.0
  0
LINE
  5
EF
100
AcDbEntity
  8
0
  6
HIDDEN
 62
   174
100
AcDbLine
 10
352.305939
 20
421.750045
 30
0.0
 11
365.863825
 21
421.750045
 31
0.0
  0
LINE
  5
F0
100
AcDbEntity
  8
0
  6
HIDDEN
 62
   174
100
AcDbLine
 10
441.483976
 20
421.750045
 30
0.0
 11
455.042464
 21
421.750045
 31
0.0
  0
LINE
  5
F1
100
AcDbEntity
  8
0
  6
HIDDEN
 62
   174
100
AcDbLine
 10
276.685187
 20
421.750045
 30
0.0
 11
290.243675
 21
421.750045
 31
0.0
  0
LINE
  5
F2
100
AcDbEntity
  8
0
  6
HIDDEN
 62
   174
100
AcDbLine
 10
259.01113
 20
421.750045
 30
0.0
 11
259.01113
 21
421.125045
 31
0.0
  0
LINE
  5
F3
100
AcDbEntity
  8
0
  6
HIDDEN
 62
   174
100
AcDbLine
 10
503.54624
 20
421.750045
 30
0.0
 11
517.104728
 21
421.750045
 31
0.0
  0
LINE
  5
F4
100
AcDbEntity
  8
0
  6
HIDDEN
 62
   174
100
AcDbLine
 10
592.76113
 20
367.000045
 30
0.0
 11
550.26113
 21
367.000045
 31
0.0
  0
LINE
  5
F5
100
AcDbEntity
  8
0
  6
HIDDEN
 62
   174
100
AcDbLine
 10
290.243675
 20
421.125045
 30
0.0
 11
275.244523
 21
421.125045
 31
0.0
  0
LINE
  5
F6
100
AcDbEntity
  8
0
  6
HIDDEN
 62
   174
100
AcDbLine
 10
334.615541
 20
421.750045
 30
0.0
 11
335.399335
 21
421.750045
 31
0.0
  0
LINE
  5
F7
100
AcDbEntity
  8
0
  6
HIDDEN
 62
   174
100
AcDbLine
 10
396.328316
 20
421.750045
 30
0.0
 11
397.11211
 21
421.750045
 31
0.0
  0
LINE
  5
F8
100
AcDbEntity
  8
0
  6
HIDDEN
 62
   174
100
AcDbLine
 10
410.236293
 20
421.750045
 30
0.0
 11
411.019485
 21
421.750045
 31
0.0
  0
LINE
  5
F9
100
AcDbEntity
  8
0
  6
HIDDEN
 62
   174
100
AcDbLine
 10
305.242827
 20
421.125045
 30
0.0
 11
290.243675
 21
421.125045
 31
0.0
  0
LINE
  5
FA
100
AcDbEntity
  8
0
  6
HIDDEN
 62
   174
100
AcDbLine
 10
305.433512
 20
421.750045
 30
0.0
 11
321.491358
 21
421.750045
 31
0.0
  0
LINE
  5
FB
100
AcDbEntity
  8
0
  6
HIDDEN
 62
   174
100
AcDbLine
 10
550.26113
 20
390.584907
 30
0.0
 11
550.26113
 21
414.083679
 31
0.0
  0
LINE
  5
FC
100
AcDbEntity
  8
0
  6
HIDDEN
 62
   174
100
AcDbLine
 10
365.863825
 20
421.125045
 30
0.0
 11
350.864673
 21
421.125045
 31
0.0
  0
LINE
  5
FD
100
AcDbEntity
  8
0
  6
HIDDEN
 62
   174
100
AcDbLine
 10
397.11211
 20
421.125045
 30
0.0
 11
365.863825
 21
421.125045
 31
0.0
  0
LINE
  5
FE
100
AcDbEntity
  8
0
  6
HIDDEN
 62
   174
100
AcDbLine
 10
532.10388
 20
420.500045
 30
0.0
 11
517.104728
 21
420.500045
 31
0.0
  0
LINE
  5
FF
100
AcDbEntity
  8
0
  6
HIDDEN
 62
   174
100
AcDbLine
 10
426.294138
 20
421.750045
 30
0.0
 11
427.926089
 21
421.750045
 31
0.0
  0
LINE
  5
100
100
AcDbEntity
  8
0
  6
HIDDEN
 62
   174
100
AcDbLine
 10
532.294565
 20
421.750045
 30
0.0
 11
548.35241
 21
421.750045
 31
0.0
  0
LINE
  5
101
100
AcDbEntity
  8
0
  6
HIDDEN
 62
   174
100
AcDbLine
 10
557.76113
 20
414.000045
 30
0.0
 11
592.76113
 21
414.000045
 31
0.0
  0
LINE
  5
102
100
AcDbEntity
  8
0
  6
HIDDEN
 62
   174
100
AcDbLine
 10
397.13613
 20
421.750045
 30
0.0
 11
397.13613
 21
421.125045
 31
0.0
  0
LINE
  5
103
100
AcDbEntity
  8
0
  6
HIDDEN
 62
   174
100
AcDbLine
 10
548.38613
 20
421.750045
 30
0.0
 11
548.38613
 21
421.125045
 31
0.0
  0
LINE
  5
104
100
AcDbEntity
  8
0
  6
HIDDEN
 62
   174
100
AcDbLine
 10
550.26113
 20
367.085533
 30
0.0
 11
550.26113
 21
390.584907
 31
0.0
  0
LINE
  5
105
100
AcDbEntity
  8
0
  6
HIDDEN
 62
   174
100
AcDbLine
 10
341.433283
 20
421.750045
 30
0.0
 11
347.253086
 21
421.750045
 31
0.0
  0
LINE
  5
106
100
AcDbEntity
  8
0
  6
HIDDEN
 62
   174
100
AcDbLine
 10
417.053433
 20
421.750045
 30
0.0
 11
422.873838
 21
421.750045
 31
0.0
  0
LINE
  5
107
100
AcDbEntity
  8
0
  6
HIDDEN
 62
   174
100
AcDbLine
 10
503.54624
 20
421.750045
 30
0.0
 11
517.104728
 21
421.750045
 31
0.0
  0
LINE
  5
108
100
AcDbEntity
  8
0
  6
HIDDEN
 62
   174
100
AcDbLine
 10
265.021519
 20
421.750045
 30
0.0
 11
265.812531
 21
421.750045
 31
0.0
  0
LINE
  5
109
100
AcDbEntity
  8
0
  6
HIDDEN
 62
   174
100
AcDbLine
 10
592.76113
 20
414.083679
 30
0.0
 11
592.76113
 21
390.584907
 31
0.0
  0
LINE
  5
10A
100
AcDbEntity
  8
0
  6
HIDDEN
 62
   174
100
AcDbLine
 10
573.975787
 20
359.250045
 30
0.0
 11
582.225772
 21
359.250045
 31
0.0
  0
LINE
  5
10B
100
AcDbEntity
  8
0
  6
HIDDEN
 62
   174
100
AcDbLine
 10
466.706132
 20
421.750045
 30
0.0
 11
471.948466
 21
421.750045
 31
0.0
  0
LINE
  5
10C
100
AcDbEntity
  8
0
  6
HIDDEN
 62
   174
100
AcDbLine
 10
350.864673
 20
420.500045
 30
0.0
 11
365.863825
 21
420.500045
 31
0.0
  0
LINE
  5
10D
100
AcDbEntity
  8
0
  6
HIDDEN
 62
   174
100
AcDbLine
 10
249.63613
 20
416.783346
 30
0.0
 11
249.63613
 21
390.584907
 31
0.0
  0
LINE
  5
10E
100
AcDbEntity
  8
0
  6
HIDDEN
 62
   174
100
AcDbLine
 10
259.778583
 20
421.750045
 30
0.0
 11
265.021519
 21
421.750045
 31
0.0
  0
LINE
  5
10F
100
AcDbEntity
  8
0
  6
HIDDEN
 62
   174
100
AcDbLine
 10
321.51113
 20
421.750045
 30
0.0
 11
321.51113
 21
421.125045
 31
0.0
  0
LINE
  5
110
100
AcDbEntity
  8
0
  6
HIDDEN
 62
   174
100
AcDbLine
 10
573.975787
 20
421.750045
 30
0.0
 11
582.225772
 21
421.750045
 31
0.0
  0
LINE
  5
111
100
AcDbEntity
  8
0
  6
HIDDEN
 62
   174
100
AcDbLine
 10
258.995391
 20
421.125045
 30
0.0
 11
290.243675
 21
421.125045
 31
0.0
  0
LINE
  5
112
100
AcDbEntity
  8
0
  6
HIDDEN
 62
   174
100
AcDbLine
 10
547.569218
 20
421.750045
 30
0.0
 11
548.35241
 21
421.750045
 31
0.0
  0
LINE
  5
113
100
AcDbEntity
  8
0
  6
HIDDEN
 62
   174
100
AcDbLine
 10
557.76113
 20
367.000045
 30
0.0
 11
592.76113
 21
367.000045
 31
0.0
  0
LINE
  5
114
100
AcDbEntity
  8
0
  6
HIDDEN
 62
   174
100
AcDbLine
 10
214.63613
 20
414.000045
 30
0.0
 11
257.13613
 21
414.000045
 31
0.0
  0
LINE
  5
115
100
AcDbEntity
  8
0
  6
HIDDEN
 62
   174
100
AcDbLine
 10
214.63613
 20
390.584907
 30
0.0
 11
214.63613
 21
364.385866
 31
0.0
  0
LINE
  5
116
100
AcDbEntity
  8
0
  6
HIDDEN
 62
   174
100
AcDbLine
 10
305.242827
 20
421.125045
 30
0.0
 11
290.243675
 21
421.125045
 31
0.0
  0
LINE
  5
117
100
AcDbEntity
  8
0
  6
HIDDEN
 62
   174
100
AcDbLine
 10
491.882571
 20
421.750045
 30
0.0
 11
492.673584
 21
421.750045
 31
0.0
  0
LINE
  5
118
100
AcDbEntity
  8
0
  6
HIDDEN
 62
   174
100
AcDbLine
 10
352.305939
 20
421.750045
 30
0.0
 11
365.863825
 21
421.750045
 31
0.0
  0
LINE
  5
119
100
AcDbEntity
  8
0
  6
HIDDEN
 62
   174
100
AcDbLine
 10
350.673386
 20
421.750045
 30
0.0
 11
352.305939
 21
421.750045
 31
0.0
  0
LINE
  5
11A
100
AcDbEntity
  8
0
  6
HIDDEN
 62
   174
100
AcDbLine
 10
427.926089
 20
421.750045
 30
0.0
 11
441.483976
 21
421.750045
 31
0.0
  0
LINE
  5
11B
100
AcDbEntity
  8
0
  6
HIDDEN
 62
   174
100
AcDbLine
 10
303.801561
 20
421.750045
 30
0.0
 11
305.433512
 21
421.750045
 31
0.0
  0
LINE
  5
11C
100
AcDbEntity
  8
0
  6
HIDDEN
 62
   174
100
AcDbLine
 10
275.053236
 20
421.750045
 30
0.0
 11
276.685187
 21
421.750045
 31
0.0
  0
LINE
  5
11D
100
AcDbEntity
  8
0
  6
HIDDEN
 62
   174
100
AcDbLine
 10
557.76113
 20
390.584907
 30
0.0
 11
557.76113
 21
416.783346
 31
0.0
  0
LINE
  5
11E
100
AcDbEntity
  8
0
  6
HIDDEN
 62
   174
100
AcDbLine
 10
501.914289
 20
421.750045
 30
0.0
 11
503.54624
 21
421.750045
 31
0.0
  0
LINE
  5
11F
100
AcDbEntity
  8
0
  6
HIDDEN
 62
   174
100
AcDbLine
 10
410.26113
 20
421.750045
 30
0.0
 11
410.26113
 21
421.125045
 31
0.0
  0
LINE
  5
120
100
AcDbEntity
  8
0
  6
HIDDEN
 62
   174
100
AcDbLine
 10
592.76113
 20
390.584907
 30
0.0
 11
592.76113
 21
367.085533
 31
0.0
  0
LINE
  5
121
100
AcDbEntity
  8
0
  6
HIDDEN
 62
   174
100
AcDbLine
 10
381.054264
 20
421.750045
 30
0.0
 11
397.11211
 21
421.750045
 31
0.0
  0
LINE
  5
122
100
AcDbEntity
  8
0
  6
HIDDEN
 62
   174
100
AcDbLine
 10
290.243675
 20
421.125045
 30
0.0
 11
275.244523
 21
421.125045
 31
0.0
  0
LINE
  5
123
100
AcDbEntity
  8
0
  6
HIDDEN
 62
   174
100
AcDbLine
 10
565.726403
 20
359.250045
 30
0.0
 11
573.975787
 21
359.250045
 31
0.0
  0
LINE
  5
124
100
AcDbEntity
  8
0
  6
HIDDEN
 62
   174
100
AcDbLine
 10
502.105575
 20
420.500045
 30
0.0
 11
517.104728
 21
420.500045
 31
0.0
  0
LINE
  5
125
100
AcDbEntity
  8
0
  6
HIDDEN
 62
   174
100
AcDbLine
 10
391.08538
 20
421.750045
 30
0.0
 11
396.328316
 21
421.750045
 31
0.0
  0
LINE
  5
126
100
AcDbEntity
  8
0
  6
HIDDEN
 62
   174
100
AcDbLine
 10
456.674415
 20
421.750045
 30
0.0
 11
472.73226
 21
421.750045
 31
0.0
  0
LINE
  5
127
100
AcDbEntity
  8
0
  6
HIDDEN
 62
   174
100
AcDbLine
 10
422.873838
 20
421.750045
 30
0.0
 11
426.294138
 21
421.750045
 31
0.0
  0
LINE
  5
128
100
AcDbEntity
  8
0
  6
HIDDEN
 62
   174
100
AcDbLine
 10
303.801561
 20
421.750045
 30
0.0
 11
305.433512
 21
421.750045
 31
0.0
  0
LINE
  5
129
100
AcDbEntity
  8
0
  6
HIDDEN
 62
   174
100
AcDbLine
 10
334.615541
 20
421.125045
 30
0.0
 11
365.863825
 21
421.125045
 31
0.0
  0
LINE
  5
12A
100
AcDbEntity
  8
0
  6
HIDDEN
 62
   174
100
AcDbLine
 10
340.642271
 20
421.750045
 30
0.0
 11
341.433283
 21
421.750045
 31
0.0
  0
LINE
  5
12B
100
AcDbEntity
  8
0
  6
HIDDEN
 62
   174
100
AcDbLine
 10
530.662614
 20
421.750045
 30
0.0
 11
532.294565
 21
421.750045
 31
0.0
  0
LINE
  5
12C
100
AcDbEntity
  8
0
  6
HIDDEN
 62
   174
100
AcDbLine
 10
501.914289
 20
421.750045
 30
0.0
 11
503.54624
 21
421.750045
 31
0.0
  0
LINE
  5
12D
100
AcDbEntity
  8
0
  6
HIDDEN
 62
   174
100
AcDbLine
 10
290.243675
 20
421.750045
 30
0.0
 11
303.801561
 21
421.750045
 31
0.0
  0
LINE
  5
12E
100
AcDbEntity
  8
0
  6
HIDDEN
 62
   174
100
AcDbLine
 10
214.63613
 20
367.000045
 30
0.0
 11
257.13613
 21
367.000045
 31
0.0
  0
LINE
  5
12F
100
AcDbEntity
  8
0
  6
HIDDEN
 62
   174
100
AcDbLine
 10
550.26113
 20
390.584907
 30
0.0
 11
550.26113
 21
414.083679
 31
0.0
  0
LINE
  5
130
100
AcDbEntity
  8
0
  6
HIDDEN
 62
   174
100
AcDbLine
 10
565.76113
 20
421.750045
 30
0.0
 11
565.76113
 21
359.250045
 31
0.0
  0
LINE
  5
131
100
AcDbEntity
  8
0
  6
HIDDEN
 62
   174
100
AcDbLine
 10
305.242827
 20
420.500045
 30
0.0
 11
290.243675
 21
420.500045
 31
0.0
  0
LINE
  5
132
100
AcDbEntity
  8
0
  6
HIDDEN
 62
   174
100
AcDbLine
 10
416.262421
 20
421.750045
 30
0.0
 11
417.053433
 21
421.750045
 31
0.0
  0
LINE
  5
133
100
AcDbEntity
  8
0
  6
HIDDEN
 62
   174
100
AcDbLine
 10
259.778583
 20
421.750045
 30
0.0
 11
265.021519
 21
421.750045
 31
0.0
  0
LINE
  5
134
100
AcDbEntity
  8
0
  6
HIDDEN
 62
   174
100
AcDbLine
 10
465.91512
 20
421.750045
 30
0.0
 11
466.706132
 21
421.750045
 31
0.0
  0
LINE
  5
135
100
AcDbEntity
  8
0
  6
HIDDEN
 62
   174
100
AcDbLine
 10
249.63613
 20
414.000045
 30
0.0
 11
214.63613
 21
414.000045
 31
0.0
  0
LINE
  5
136
100
AcDbEntity
  8
0
  6
HIDDEN
 62
   174
100
AcDbLine
 10
550.26113
 20
367.085533
 30
0.0
 11
550.26113
 21
390.584907
 31
0.0
  0
LINE
  5
137
100
AcDbEntity
  8
0
  6
HIDDEN
 62
   174
100
AcDbLine
 10
380.862978
 20
421.125045
 30
0.0
 11
365.863825
 21
421.125045
 31
0.0
  0
LINE
  5
138
100
AcDbEntity
  8
0
  6
HIDDEN
 62
   174
100
AcDbLine
 10
214.63613
 20
414.000045
 30
0.0
 11
257.13613
 21
414.000045
 31
0.0
  0
LINE
  5
139
100
AcDbEntity
  8
0
  6
HIDDEN
 62
   174
100
AcDbLine
 10
258.995391
 20
421.750045
 30
0.0
 11
259.778583
 21
421.750045
 31
0.0
  0
LINE
  5
13A
100
AcDbEntity
  8
0
  6
HIDDEN
 62
   174
100
AcDbLine
 10
472.76113
 20
421.750045
 30
0.0
 11
472.76113
 21
421.125045
 31
0.0
  0
LINE
  5
13B
100
AcDbEntity
  8
0
  6
HIDDEN
 62
   174
100
AcDbLine
 10
214.63613
 20
416.783346
 30
0.0
 11
214.63613
 21
390.584907
 31
0.0
  0
LINE
  5
13C
100
AcDbEntity
  8
0
  6
HIDDEN
 62
   174
100
AcDbLine
 10
542.326282
 20
421.750045
 30
0.0
 11
547.569218
 21
421.750045
 31
0.0
  0
LINE
  5
13D
100
AcDbEntity
  8
0
  6
HIDDEN
 62
   174
100
AcDbLine
 10
225.13613
 20
421.750045
 30
0.0
 11
225.13613
 21
359.250045
 31
0.0
  0
LINE
  5
13E
100
AcDbEntity
  8
0
  6
HIDDEN
 62
   174
100
AcDbLine
 10
290.243675
 20
421.125045
 30
0.0
 11
275.244523
 21
421.125045
 31
0.0
  0
LINE
  5
13F
100
AcDbEntity
  8
0
  6
HIDDEN
 62
   174
100
AcDbLine
 10
350.673386
 20
421.750045
 30
0.0
 11
352.305939
 21
421.750045
 31
0.0
  0
LINE
  5
140
100
AcDbEntity
  8
0
  6
HIDDEN
 62
   174
100
AcDbLine
 10
486.639635
 20
421.750045
 30
0.0
 11
491.882571
 21
421.750045
 31
0.0
  0
LINE
  5
141
100
AcDbEntity
  8
0
  6
HIDDEN
 62
   174
100
AcDbLine
 10
557.76113
 20
416.700045
 30
0.0
 11
592.76113
 21
416.700045
 31
0.0
  0
LINE
  5
142
100
AcDbEntity
  8
0
  6
HIDDEN
 62
   174
100
AcDbLine
 10
347.253086
 20
421.750045
 30
0.0
 11
350.673386
 21
421.750045
 31
0.0
  0
LINE
  5
143
100
AcDbEntity
  8
0
  6
HIDDEN
 62
   174
100
AcDbLine
 10
426.294138
 20
421.750045
 30
0.0
 11
427.926089
 21
421.750045
 31
0.0
  0
LINE
  5
144
100
AcDbEntity
  8
0
  6
HIDDEN
 62
   174
100
AcDbLine
 10
271.632936
 20
421.750045
 30
0.0
 11
275.053236
 21
421.750045
 31
0.0
  0
LINE
  5
145
100
AcDbEntity
  8
0
  6
HIDDEN
 62
   174
100
AcDbLine
 10
249.63613
 20
367.000045
 30
0.0
 11
214.63613
 21
367.000045
 31
0.0
  0
LINE
  5
146
100
AcDbEntity
  8
0
  6
HIDDEN
 62
   174
100
AcDbLine
 10
582.26113
 20
421.750045
 30
0.0
 11
582.26113
 21
359.250045
 31
0.0
  0
LINE
  5
147
100
AcDbEntity
  8
0
  6
HIDDEN
 62
   174
100
AcDbLine
 10
498.493989
 20
421.750045
 30
0.0
 11
501.914289
 21
421.750045
 31
0.0
  0
LINE
  5
148
100
AcDbEntity
  8
0
  6
HIDDEN
 62
   174
100
AcDbLine
 10
410.26113
 20
421.750045
 30
0.0
 11
410.26113
 21
421.125045
 31
0.0
  0
LINE
  5
149
100
AcDbEntity
  8
0
  6
HIDDEN
 62
   174
100
AcDbLine
 10
592.76113
 20
414.083679
 30
0.0
 11
592.76113
 21
390.584907
 31
0.0
  0
LINE
  5
14A
100
AcDbEntity
  8
0
  6
HIDDEN
 62
   174
100
AcDbLine
 10
573.975787
 20
359.250045
 30
0.0
 11
582.225772
 21
359.250045
 31
0.0
  0
LINE
  5
14B
100
AcDbEntity
  8
0
  6
HIDDEN
 62
   174
100
AcDbLine
 10
379.421712
 20
421.750045
 30
0.0
 11
381.054264
 21
421.750045
 31
0.0
  0
LINE
  5
14C
100
AcDbEntity
  8
0
  6
HIDDEN
 62
   174
100
AcDbLine
 10
390.294368
 20
421.750045
 30
0.0
 11
391.08538
 21
421.750045
 31
0.0
  0
LINE
  5
14D
100
AcDbEntity
  8
0
  6
HIDDEN
 62
   174
100
AcDbLine
 10
455.042464
 20
421.750045
 30
0.0
 11
456.674415
 21
421.750045
 31
0.0
  0
LINE
  5
14E
100
AcDbEntity
  8
0
  6
HIDDEN
 62
   174
100
AcDbLine
 10
290.243675
 20
421.750045
 30
0.0
 11
303.801561
 21
421.750045
 31
0.0
  0
LINE
  5
14F
100
AcDbEntity
  8
0
  6
HIDDEN
 62
   174
100
AcDbLine
 10
249.63613
 20
364.300045
 30
0.0
 11
214.63613
 21
364.300045
 31
0.0
  0
LINE
  5
150
100
AcDbEntity
  8
0
  6
HIDDEN
 62
   174
100
AcDbLine
 10
214.63613
 20
367.000045
 30
0.0
 11
257.13613
 21
367.000045
 31
0.0
  0
LINE
  5
151
100
AcDbEntity
  8
0
  6
HIDDEN
 62
   174
100
AcDbLine
 10
417.053433
 20
421.750045
 30
0.0
 11
422.873838
 21
421.750045
 31
0.0
  0
LINE
  5
152
100
AcDbEntity
  8
0
  6
HIDDEN
 62
   174
100
AcDbLine
 10
550.26113
 20
367.085533
 30
0.0
 11
550.26113
 21
390.584907
 31
0.0
  0
LINE
  5
153
100
AcDbEntity
  8
0
  6
HIDDEN
 62
   174
100
AcDbLine
 10
335.399335
 20
421.750045
 30
0.0
 11
340.642271
 21
421.750045
 31
0.0
  0
LINE
  5
154
100
AcDbEntity
  8
0
  6
HIDDEN
 62
   174
100
AcDbLine
 10
411.019485
 20
421.750045
 30
0.0
 11
416.262421
 21
421.750045
 31
0.0
  0
LINE
  5
155
100
AcDbEntity
  8
0
  6
HIDDEN
 62
   174
100
AcDbLine
 10
498.493989
 20
421.750045
 30
0.0
 11
501.914289
 21
421.750045
 31
0.0
  0
LINE
  5
156
100
AcDbEntity
  8
0
  6
HIDDEN
 62
   174
100
AcDbLine
 10
305.242827
 20
420.500045
 30
0.0
 11
290.243675
 21
420.500045
 31
0.0
  0
LINE
  5
157
100
AcDbEntity
  8
0
  6
HIDDEN
 62
   174
100
AcDbLine
 10
276.685187
 20
421.750045
 30
0.0
 11
290.243675
 21
421.750045
 31
0.0
  0
LINE
  5
158
100
AcDbEntity
  8
0
  6
HIDDEN
 62
   174
100
AcDbLine
 10
258.995391
 20
421.750045
 30
0.0
 11
259.778583
 21
421.750045
 31
0.0
  0
LINE
  5
159
100
AcDbEntity
  8
0
  6
HIDDEN
 62
   174
100
AcDbLine
 10
241.63613
 20
421.750045
 30
0.0
 11
241.63613
 21
359.250045
 31
0.0
  0
LINE
  5
15A
100
AcDbEntity
  8
0
  6
HIDDEN
 62
   174
100
AcDbLine
 10
249.63613
 20
414.000045
 30
0.0
 11
214.63613
 21
414.000045
 31
0.0
  0
LINE
  5
15B
100
AcDbEntity
  8
0
  6
HIDDEN
 62
   174
100
AcDbLine
 10
380.862978
 20
420.500045
 30
0.0
 11
365.863825
 21
420.500045
 31
0.0
  0
LINE
  5
15C
100
AcDbEntity
  8
0
  6
HIDDEN
 62
   174
100
AcDbLine
 10
485.856443
 20
421.125045
 30
0.0
 11
517.104728
 21
421.125045
 31
0.0
  0
LINE
  5
15D
100
AcDbEntity
  8
0
  6
HIDDEN
 62
   174
100
AcDbLine
 10
275.244523
 20
420.500045
 30
0.0
 11
290.243675
 21
420.500045
 31
0.0
  0
LINE
  5
15E
100
AcDbEntity
  8
0
  6
HIDDEN
 62
   174
100
AcDbLine
 10
460.094715
 20
421.750045
 30
0.0
 11
465.91512
 21
421.750045
 31
0.0
  0
LINE
  5
15F
100
AcDbEntity
  8
0
  6
HIDDEN
 62
   174
100
AcDbLine
 10
592.76113
 20
390.584907
 30
0.0
 11
592.76113
 21
416.783346
 31
0.0
  0
LINE
  5
160
100
AcDbEntity
  8
0
  6
HIDDEN
 62
   174
100
AcDbLine
 10
550.26113
 20
390.584907
 30
0.0
 11
550.26113
 21
414.083679
 31
0.0
  0
LINE
  5
161
100
AcDbEntity
  8
0
  6
HIDDEN
 62
   174
100
AcDbLine
 10
350.88613
 20
421.125045
 30
0.0
 11
350.88613
 21
420.500045
 31
0.0
  0
LINE
  5
162
100
AcDbEntity
  8
0
  6
HIDDEN
 62
   174
100
AcDbLine
 10
517.104728
 20
421.750045
 30
0.0
 11
530.662614
 21
421.750045
 31
0.0
  0
LINE
  5
163
100
AcDbEntity
  8
0
  6
HIDDEN
 62
   174
100
AcDbLine
 10
320.708166
 20
421.750045
 30
0.0
 11
321.491358
 21
421.750045
 31
0.0
  0
LINE
  5
164
100
AcDbEntity
  8
0
  6
HIDDEN
 62
   174
100
AcDbLine
 10
259.01113
 20
421.750045
 30
0.0
 11
259.01113
 21
421.125045
 31
0.0
  0
LINE
  5
165
100
AcDbEntity
  8
0
  6
HIDDEN
 62
   174
100
AcDbLine
 10
365.863825
 20
421.125045
 30
0.0
 11
350.864673
 21
421.125045
 31
0.0
  0
LINE
  5
166
100
AcDbEntity
  8
0
  6
HIDDEN
 62
   174
100
AcDbLine
 10
541.53527
 20
421.750045
 30
0.0
 11
542.326282
 21
421.750045
 31
0.0
  0
LINE
  5
167
100
AcDbEntity
  8
0
  6
HIDDEN
 62
   174
100
AcDbLine
 10
472.76113
 20
421.750045
 30
0.0
 11
472.76113
 21
421.125045
 31
0.0
  0
LINE
  5
168
100
AcDbEntity
  8
0
  6
HIDDEN
 62
   174
100
AcDbLine
 10
249.63613
 20
416.783346
 30
0.0
 11
249.63613
 21
390.584907
 31
0.0
  0
LINE
  5
169
100
AcDbEntity
  8
0
  6
HIDDEN
 62
   174
100
AcDbLine
 10
485.856443
 20
421.750045
 30
0.0
 11
486.639635
 21
421.750045
 31
0.0
  0
LINE
  5
16A
100
AcDbEntity
  8
0
  6
HIDDEN
 62
   174
100
AcDbLine
 10
249.63613
 20
416.700045
 30
0.0
 11
214.63613
 21
416.700045
 31
0.0
  0
LINE
  5
16B
100
AcDbEntity
  8
0
  6
HIDDEN
 62
   174
100
AcDbLine
 10
592.76113
 20
390.584907
 30
0.0
 11
592.76113
 21
367.085533
 31
0.0
  0
LINE
  5
16C
100
AcDbEntity
  8
0
  6
HIDDEN
 62
   174
100
AcDbLine
 10
249.63613
 20
367.000045
 30
0.0
 11
214.63613
 21
367.000045
 31
0.0
  0
LINE
  5
16D
100
AcDbEntity
  8
0
  6
HIDDEN
 62
   174
100
AcDbLine
 10
347.253086
 20
421.750045
 30
0.0
 11
350.673386
 21
421.750045
 31
0.0
  0
LINE
  5
16E
100
AcDbEntity
  8
0
  6
HIDDEN
 62
   174
100
AcDbLine
 10
341.433283
 20
421.750045
 30
0.0
 11
347.253086
 21
421.750045
 31
0.0
  0
LINE
  5
16F
100
AcDbEntity
  8
0
  6
HIDDEN
 62
   174
100
AcDbLine
 10
422.873838
 20
421.750045
 30
0.0
 11
426.294138
 21
421.750045
 31
0.0
  0
LINE
  5
170
100
AcDbEntity
  8
0
  6
HIDDEN
 62
   174
100
AcDbLine
 10
265.812531
 20
421.750045
 30
0.0
 11
271.632936
 21
421.750045
 31
0.0
  0
LINE
  5
171
100
AcDbEntity
  8
0
  6
HIDDEN
 62
   174
100
AcDbLine
 10
259.01113
 20
421.750045
 30
0.0
 11
259.01113
 21
421.125045
 31
0.0
  0
LINE
  5
172
100
AcDbEntity
  8
0
  6
HIDDEN
 62
   174
100
AcDbLine
 10
492.673584
 20
421.750045
 30
0.0
 11
498.493989
 21
421.750045
 31
0.0
  0
LINE
  5
173
100
AcDbEntity
  8
0
  6
HIDDEN
 62
   174
100
AcDbLine
 10
249.63613
 20
364.300045
 30
0.0
 11
214.63613
 21
364.300045
 31
0.0
  0
LINE
  5
174
100
AcDbEntity
  8
0
  6
HIDDEN
 62
   174
100
AcDbLine
 10
365.863825
 20
421.750045
 30
0.0
 11
379.421712
 21
421.750045
 31
0.0
  0
LINE
  5
175
100
AcDbEntity
  8
0
  6
HIDDEN
 62
   174
100
AcDbLine
 10
441.483976
 20
421.750045
 30
0.0
 11
455.042464
 21
421.750045
 31
0.0
  0
LINE
  5
176
100
AcDbEntity
  8
0
  6
HIDDEN
 62
   174
100
AcDbLine
 10
276.685187
 20
421.750045
 30
0.0
 11
290.243675
 21
421.750045
 31
0.0
  0
LINE
  5
177
100
AcDbEntity
  8
0
  6
HIDDEN
 62
   174
100
AcDbLine
 10
380.88613
 20
421.125045
 30
0.0
 11
380.88613
 21
420.500045
 31
0.0
  0
LINE
  5
178
100
AcDbEntity
  8
0
  6
HIDDEN
 62
   174
100
AcDbLine
 10
275.26113
 20
421.125045
 30
0.0
 11
275.26113
 21
420.500045
 31
0.0
  0
LINE
  5
179
100
AcDbEntity
  8
0
  6
HIDDEN
 62
   174
100
AcDbLine
 10
384.474564
 20
421.750045
 30
0.0
 11
390.294368
 21
421.750045
 31
0.0
  0
LINE
  5
17A
100
AcDbEntity
  8
0
  6
HIDDEN
 62
   174
100
AcDbLine
 10
416.262421
 20
421.750045
 30
0.0
 11
417.053433
 21
421.750045
 31
0.0
  0
LINE
  5
17B
100
AcDbEntity
  8
0
  6
HIDDEN
 62
   174
100
AcDbLine
 10
321.51113
 20
421.750045
 30
0.0
 11
321.51113
 21
421.125045
 31
0.0
  0
LINE
  5
17C
100
AcDbEntity
  8
0
  6
HIDDEN
 62
   174
100
AcDbLine
 10
334.615541
 20
421.750045
 30
0.0
 11
335.399335
 21
421.750045
 31
0.0
  0
LINE
  5
17D
100
AcDbEntity
  8
0
  6
HIDDEN
 62
   174
100
AcDbLine
 10
492.673584
 20
421.750045
 30
0.0
 11
498.493989
 21
421.750045
 31
0.0
  0
LINE
  5
17E
100
AcDbEntity
  8
0
  6
HIDDEN
 62
   174
100
AcDbLine
 10
275.053236
 20
421.750045
 30
0.0
 11
276.685187
 21
421.750045
 31
0.0
  0
LINE
  5
17F
100
AcDbEntity
  8
0
  6
HIDDEN
 62
   174
100
AcDbLine
 10
550.26113
 20
390.584907
 30
0.0
 11
550.26113
 21
414.083679
 31
0.0
  0
LINE
  5
180
100
AcDbEntity
  8
0
  6
HIDDEN
 62
   174
100
AcDbLine
 10
565.726403
 20
421.750045
 30
0.0
 11
573.975787
 21
421.750045
 31
0.0
  0
LINE
  5
181
100
AcDbEntity
  8
0
  6
HIDDEN
 62
   174
100
AcDbLine
 10
225.122631
 20
359.250045
 30
0.0
 11
233.372014
 21
359.250045
 31
0.0
  0
LINE
  5
182
100
AcDbEntity
  8
0
  6
HIDDEN
 62
   174
100
AcDbLine
 10
225.122631
 20
421.750045
 30
0.0
 11
233.372014
 21
421.750045
 31
0.0
  0
LINE
  5
183
100
AcDbEntity
  8
0
  6
HIDDEN
 62
   174
100
AcDbLine
 10
305.242827
 20
420.500045
 30
0.0
 11
290.243675
 21
420.500045
 31
0.0
  0
LINE
  5
184
100
AcDbEntity
  8
0
  6
HIDDEN
 62
   174
100
AcDbLine
 10
410.236293
 20
421.750045
 30
0.0
 11
411.019485
 21
421.750045
 31
0.0
  0
LINE
  5
185
100
AcDbEntity
  8
0
  6
HIDDEN
 62
   174
100
AcDbLine
 10
275.26113
 20
421.125045
 30
0.0
 11
275.26113
 21
420.500045
 31
0.0
  0
LINE
  5
186
100
AcDbEntity
  8
0
  6
HIDDEN
 62
   174
100
AcDbLine
 10
275.244523
 20
420.500045
 30
0.0
 11
290.243675
 21
420.500045
 31
0.0
  0
LINE
  5
187
100
AcDbEntity
  8
0
  6
HIDDEN
 62
   174
100
AcDbLine
 10
305.433512
 20
421.750045
 30
0.0
 11
321.491358
 21
421.750045
 31
0.0
  0
LINE
  5
188
100
AcDbEntity
  8
0
  6
HIDDEN
 62
   174
100
AcDbLine
 10
249.63613
 20
390.584907
 30
0.0
 11
249.63613
 21
364.385866
 31
0.0
  0
LINE
  5
189
100
AcDbEntity
  8
0
  6
HIDDEN
 62
   174
100
AcDbLine
 10
334.63613
 20
421.750045
 30
0.0
 11
334.63613
 21
421.125045
 31
0.0
  0
LINE
  5
18A
100
AcDbEntity
  8
0
  6
HIDDEN
 62
   174
100
AcDbLine
 10
350.864673
 20
420.500045
 30
0.0
 11
365.863825
 21
420.500045
 31
0.0
  0
LINE
  5
18B
100
AcDbEntity
  8
0
  6
HIDDEN
 62
   174
100
AcDbLine
 10
548.35241
 20
421.125045
 30
0.0
 11
517.104728
 21
421.125045
 31
0.0
  0
LINE
  5
18C
100
AcDbEntity
  8
0
  6
HIDDEN
 62
   174
100
AcDbLine
 10
456.674415
 20
421.750045
 30
0.0
 11
460.094715
 21
421.750045
 31
0.0
  0
LINE
  5
18D
100
AcDbEntity
  8
0
  6
HIDDEN
 62
   174
100
AcDbLine
 10
503.54624
 20
421.750045
 30
0.0
 11
517.104728
 21
421.750045
 31
0.0
  0
LINE
  5
18E
100
AcDbEntity
  8
0
  6
HIDDEN
 62
   174
100
AcDbLine
 10
592.76113
 20
364.385866
 30
0.0
 11
592.76113
 21
390.584907
 31
0.0
  0
LINE
  5
18F
100
AcDbEntity
  8
0
  6
HIDDEN
 62
   174
100
AcDbLine
 10
321.51113
 20
421.750045
 30
0.0
 11
321.51113
 21
421.125045
 31
0.0
  0
LINE
  5
190
100
AcDbEntity
  8
0
  6
HIDDEN
 62
   174
100
AcDbLine
 10
410.26113
 20
421.750045
 30
0.0
 11
410.26113
 21
421.125045
 31
0.0
  0
LINE
  5
191
100
AcDbEntity
  8
0
  6
HIDDEN
 62
   174
100
AcDbLine
 10
550.26113
 20
367.085533
 30
0.0
 11
550.26113
 21
390.584907
 31
0.0
  0
LINE
  5
192
100
AcDbEntity
  8
0
  6
HIDDEN
 62
   174
100
AcDbLine
 10
315.46523
 20
421.750045
 30
0.0
 11
320.708166
 21
421.750045
 31
0.0
  0
LINE
  5
193
100
AcDbEntity
  8
0
  6
HIDDEN
 62
   174
100
AcDbLine
 10
214.63613
 20
414.000045
 30
0.0
 11
257.13613
 21
414.000045
 31
0.0
  0
LINE
  5
194
100
AcDbEntity
  8
0
  6
HIDDEN
 62
   174
100
AcDbLine
 10
249.63613
 20
416.700045
 30
0.0
 11
214.63613
 21
416.700045
 31
0.0
  0
LINE
  5
195
100
AcDbEntity
  8
0
  6
HIDDEN
 62
   174
100
AcDbLine
 10
321.491358
 20
421.125045
 30
0.0
 11
290.243675
 21
421.125045
 31
0.0
  0
LINE
  5
196
100
AcDbEntity
  8
0
  6
HIDDEN
 62
   174
100
AcDbLine
 10
535.714865
 20
421.750045
 30
0.0
 11
541.53527
 21
421.750045
 31
0.0
  0
LINE
  5
197
100
AcDbEntity
  8
0
  6
HIDDEN
 62
   174
100
AcDbLine
 10
305.26113
 20
421.125045
 30
0.0
 11
305.26113
 21
420.500045
 31
0.0
  0
LINE
  5
198
100
AcDbEntity
  8
0
  6
HIDDEN
 62
   174
100
AcDbLine
 10
341.433283
 20
421.750045
 30
0.0
 11
347.253086
 21
421.750045
 31
0.0
  0
LINE
  5
199
100
AcDbEntity
  8
0
  6
HIDDEN
 62
   174
100
AcDbLine
 10
532.294565
 20
421.750045
 30
0.0
 11
548.35241
 21
421.750045
 31
0.0
  0
LINE
  5
19A
100
AcDbEntity
  8
0
  6
HIDDEN
 62
   174
100
AcDbLine
 10
550.26113
 20
367.085533
 30
0.0
 11
550.26113
 21
390.584907
 31
0.0
  0
LINE
  5
19B
100
AcDbEntity
  8
0
  6
HIDDEN
 62
   174
100
AcDbLine
 10
592.76113
 20
414.083679
 30
0.0
 11
592.76113
 21
390.584907
 31
0.0
  0
LINE
  5
19C
100
AcDbEntity
  8
0
  6
HIDDEN
 62
   174
100
AcDbLine
 10
350.88613
 20
421.125045
 30
0.0
 11
350.88613
 21
420.500045
 31
0.0
  0
LINE
  5
19D
100
AcDbEntity
  8
0
  6
HIDDEN
 62
   174
100
AcDbLine
 10
225.122631
 20
359.250045
 30
0.0
 11
233.372014
 21
359.250045
 31
0.0
  0
LINE
  5
19E
100
AcDbEntity
  8
0
  6
HIDDEN
 62
   174
100
AcDbLine
 10
340.642271
 20
421.750045
 30
0.0
 11
341.433283
 21
421.750045
 31
0.0
  0
LINE
  5
19F
100
AcDbEntity
  8
0
  6
HIDDEN
 62
   174
100
AcDbLine
 10
417.053433
 20
421.750045
 30
0.0
 11
422.873838
 21
421.750045
 31
0.0
  0
LINE
  5
1A0
100
AcDbEntity
  8
0
  6
HIDDEN
 62
   174
100
AcDbLine
 10
265.021519
 20
421.750045
 30
0.0
 11
265.812531
 21
421.750045
 31
0.0
  0
LINE
  5
1A1
100
AcDbEntity
  8
0
  6
HIDDEN
 62
   174
100
AcDbLine
 10
397.11211
 20
421.125045
 30
0.0
 11
365.863825
 21
421.125045
 31
0.0
  0
LINE
  5
1A2
100
AcDbEntity
  8
0
  6
HIDDEN
 62
   174
100
AcDbLine
 10
550.26113
 20
367.000045
 30
0.0
 11
548.962091
 21
369.250045
 31
0.0
  0
LINE
  5
1A3
100
AcDbEntity
  8
0
  6
HIDDEN
 62
   174
100
AcDbLine
 10
352.305939
 20
421.750045
 30
0.0
 11
365.863825
 21
421.750045
 31
0.0
  0
LINE
  5
1A4
100
AcDbEntity
  8
0
  6
HIDDEN
 62
   174
100
AcDbLine
 10
305.26113
 20
421.125045
 30
0.0
 11
305.26113
 21
420.500045
 31
0.0
  0
LINE
  5
1A5
100
AcDbEntity
  8
0
  6
HIDDEN
 62
   174
100
AcDbLine
 10
491.882571
 20
421.750045
 30
0.0
 11
492.673584
 21
421.750045
 31
0.0
  0
LINE
  5
1A6
100
AcDbEntity
  8
0
  6
HIDDEN
 62
   174
100
AcDbLine
 10
397.13613
 20
421.750045
 30
0.0
 11
397.13613
 21
421.125045
 31
0.0
  0
LINE
  5
1A7
100
AcDbEntity
  8
0
  6
HIDDEN
 62
   174
100
AcDbLine
 10
381.054264
 20
421.750045
 30
0.0
 11
384.474564
 21
421.750045
 31
0.0
  0
LINE
  5
1A8
100
AcDbEntity
  8
0
  6
HIDDEN
 62
   174
100
AcDbLine
 10
427.926089
 20
421.750045
 30
0.0
 11
441.483976
 21
421.750045
 31
0.0
  0
LINE
  5
1A9
100
AcDbEntity
  8
0
  6
HIDDEN
 62
   174
100
AcDbLine
 10
275.053236
 20
421.750045
 30
0.0
 11
276.685187
 21
421.750045
 31
0.0
  0
LINE
  5
1AA
100
AcDbEntity
  8
0
  6
HIDDEN
 62
   174
100
AcDbLine
 10
472.76113
 20
421.750045
 30
0.0
 11
472.76113
 21
421.125045
 31
0.0
  0
LINE
  5
1AB
100
AcDbEntity
  8
0
  6
HIDDEN
 62
   174
100
AcDbLine
 10
411.019485
 20
421.750045
 30
0.0
 11
416.262421
 21
421.750045
 31
0.0
  0
LINE
  5
1AC
100
AcDbEntity
  8
0
  6
HIDDEN
 62
   174
100
AcDbLine
 10
573.975787
 20
421.750045
 30
0.0
 11
582.225772
 21
421.750045
 31
0.0
  0
LINE
  5
1AD
100
AcDbEntity
  8
0
  6
HIDDEN
 62
   174
100
AcDbLine
 10
214.63613
 20
367.000045
 30
0.0
 11
257.13613
 21
367.000045
 31
0.0
  0
LINE
  5
1AE
100
AcDbEntity
  8
0
  6
HIDDEN
 62
   174
100
AcDbLine
 10
249.63613
 20
390.584907
 30
0.0
 11
249.63613
 21
364.385866
 31
0.0
  0
LINE
  5
1AF
100
AcDbEntity
  8
0
  6
HIDDEN
 62
   174
100
AcDbLine
 10
381.054264
 20
421.750045
 30
0.0
 11
397.11211
 21
421.750045
 31
0.0
  0
LINE
  5
1B0
100
AcDbEntity
  8
0
  6
HIDDEN
 62
   174
100
AcDbLine
 10
275.244523
 20
420.500045
 30
0.0
 11
290.243675
 21
420.500045
 31
0.0
  0
LINE
  5
1B1
100
AcDbEntity
  8
0
  6
HIDDEN
 62
   174
100
AcDbLine
 10
456.674415
 20
421.750045
 30
0.0
 11
472.73226
 21
421.750045
 31
0.0
  0
LINE
  5
1B2
100
AcDbEntity
  8
0
  6
HIDDEN
 62
   174
100
AcDbLine
 10
271.632936
 20
421.750045
 30
0.0
 11
275.053236
 21
421.750045
 31
0.0
  0
LINE
  5
1B3
100
AcDbEntity
  8
0
  6
HIDDEN
 62
   174
100
AcDbLine
 10
303.801561
 20
421.750045
 30
0.0
 11
305.433512
 21
421.750045
 31
0.0
  0
LINE
  5
1B4
100
AcDbEntity
  8
0
  6
HIDDEN
 62
   174
100
AcDbLine
 10
233.372014
 20
359.250045
 30
0.0
 11
241.621397
 21
359.250045
 31
0.0
  0
LINE
  5
1B5
100
AcDbEntity
  8
0
  6
HIDDEN
 62
   174
100
AcDbLine
 10
233.372014
 20
421.750045
 30
0.0
 11
241.621397
 21
421.750045
 31
0.0
  0
LINE
  5
1B6
100
AcDbEntity
  8
0
  6
HIDDEN
 62
   174
100
AcDbLine
 10
455.042464
 20
421.750045
 30
0.0
 11
456.674415
 21
421.750045
 31
0.0
  0
LINE
  5
1B7
100
AcDbEntity
  8
0
  6
HIDDEN
 62
   174
100
AcDbLine
 10
557.76113
 20
364.300045
 30
0.0
 11
592.76113
 21
364.300045
 31
0.0
  0
LINE
  5
1B8
100
AcDbEntity
  8
0
  6
HIDDEN
 62
   174
100
AcDbLine
 10
214.63613
 20
390.584907
 30
0.0
 11
214.63613
 21
364.385866
 31
0.0
  0
LINE
  5
1B9
100
AcDbEntity
  8
0
  6
HIDDEN
 62
   174
100
AcDbLine
 10
550.26113
 20
390.584907
 30
0.0
 11
550.26113
 21
414.083679
 31
0.0
  0
LINE
  5
1BA
100
AcDbEntity
  8
0
  6
HIDDEN
 62
   174
100
AcDbLine
 10
380.88613
 20
421.125045
 30
0.0
 11
380.88613
 21
420.500045
 31
0.0
  0
LINE
  5
1BB
100
AcDbEntity
  8
0
  6
HIDDEN
 62
   174
100
AcDbLine
 10
249.63613
 20
414.000045
 30
0.0
 11
214.63613
 21
414.000045
 31
0.0
  0
LINE
  5
1BC
100
AcDbEntity
  8
0
  6
HIDDEN
 62
   174
100
AcDbLine
 10
501.914289
 20
421.750045
 30
0.0
 11
503.54624
 21
421.750045
 31
0.0
  0
LINE
  5
1BD
100
AcDbEntity
  8
0
  6
HIDDEN
 62
   174
100
AcDbLine
 10
314.674217
 20
421.750045
 30
0.0
 11
315.46523
 21
421.750045
 31
0.0
  0
LINE
  5
1BE
100
AcDbEntity
  8
0
  6
HIDDEN
 62
   174
100
AcDbLine
 10
550.26113
 20
414.000045
 30
0.0
 11
548.962091
 21
411.750045
 31
0.0
  0
LINE
  5
1BF
100
AcDbEntity
  8
0
  6
HIDDEN
 62
   174
100
AcDbLine
 10
532.10388
 20
421.125045
 30
0.0
 11
517.104728
 21
421.125045
 31
0.0
  0
LINE
  5
1C0
100
AcDbEntity
  8
0
  6
HIDDEN
 62
   174
100
AcDbLine
 10
532.294565
 20
421.750045
 30
0.0
 11
535.714865
 21
421.750045
 31
0.0
  0
LINE
  5
1C1
100
AcDbEntity
  8
0
  6
HIDDEN
 62
   174
100
AcDbLine
 10
321.491358
 20
421.125045
 30
0.0
 11
290.243675
 21
421.125045
 31
0.0
  0
LINE
  5
1C2
100
AcDbEntity
  8
0
  6
HIDDEN
 62
   174
100
AcDbLine
 10
530.662614
 20
421.750045
 30
0.0
 11
532.294565
 21
421.750045
 31
0.0
  0
LINE
  5
1C3
100
AcDbEntity
  8
0
  6
HIDDEN
 62
   174
100
AcDbLine
 10
485.88613
 20
421.750045
 30
0.0
 11
485.88613
 21
421.125045
 31
0.0
  0
LINE
  5
1C4
100
AcDbEntity
  8
0
  6
HIDDEN
 62
   174
100
AcDbLine
 10
565.76113
 20
421.750045
 30
0.0
 11
565.76113
 21
359.250045
 31
0.0
  0
ENDBLK
  5
1C5
100
AcDbEntity
  8
0
100
AcDbBlockEnd
  0
BLOCK
  5
1C8
100
AcDbEntity
  8
0
100
AcDbBlockBegin
  2
*B3
 70
     0
 10
0.0
 20
0.0
 30
0.0
  3
*B3
  1

  0
LINE
  5
1C9
100
AcDbEntity
  8
0
  6
HIDDEN
 62
   232
100
AcDbLine
 10
252.76113
 20
421.750045
 30
0.0
 11
327.76113
 21
421.750045
 31
0.0
  0
LINE
  5
1CA
100
AcDbEntity
  8
0
  6
HIDDEN
 62
   232
100
AcDbLine
 10
327.76113
 20
421.750045
 30
0.0
 11
327.76113
 21
571.750045
 31
0.0
  0
LINE
  5
1CB
100
AcDbEntity
  8
0
  6
HIDDEN
 62
   232
100
AcDbLine
 10
327.76113
 20
571.750045
 30
0.0
 11
252.76113
 21
571.750045
 31
0.0
  0
LINE
  5
1CC
100
AcDbEntity
  8
0
  6
HIDDEN
 62
   232
100
AcDbLine
 10
252.76113
 20
571.750045
 30
0.0
 11
252.76113
 21
421.750045
 31
0.0
  0
LINE
  5
1CD
100
AcDbEntity
  8
0
  6
HIDDEN
 62
   232
100
AcDbLine
 10
328.38613
 20
571.750045
 30
0.0
 11
328.38613
 21
421.750045
 31
0.0
  0
LINE
  5
1CE
100
AcDbEntity
  8
0
  6
HIDDEN
 62
   232
100
AcDbLine
 10
403.38613
 20
571.750045
 30
0.0
 11
328.38613
 21
571.750045
 31
0.0
  0
LINE
  5
1CF
100
AcDbEntity
  8
0
  6
HIDDEN
 62
   232
100
AcDbLine
 10
403.38613
 20
421.750045
 30
0.0
 11
403.38613
 21
571.750045
 31
0.0
  0
LINE
  5
1D0
100
AcDbEntity
  8
0
  6
HIDDEN
 62
   232
100
AcDbLine
 10
328.38613
 20
421.750045
 30
0.0
 11
403.38613
 21
421.750045
 31
0.0
  0
LINE
  5
1D1
100
AcDbEntity
  8
0
  6
HIDDEN
 62
   232
100
AcDbLine
 10
404.01113
 20
571.750045
 30
0.0
 11
404.01113
 21
421.750045
 31
0.0
  0
LINE
  5
1D2
100
AcDbEntity
  8
0
  6
HIDDEN
 62
   232
100
AcDbLine
 10
479.01113
 20
571.750045
 30
0.0
 11
404.01113
 21
571.750045
 31
0.0
  0
LINE
  5
1D3
100
AcDbEntity
  8
0
  6
HIDDEN
 62
   232
100
AcDbLine
 10
479.01113
 20
421.750045
 30
0.0
 11
479.01113
 21
571.750045
 31
0.0
  0
LINE
  5
1D4
100
AcDbEntity
  8
0
  6
HIDDEN
 62
   232
100
AcDbLine
 10
404.01113
 20
421.750045
 30
0.0
 11
479.01113
 21
421.750045
 31
0.0
  0
LINE
  5
1D5
100
AcDbEntity
  8
0
  6
HIDDEN
 62
   232
100
AcDbLine
 10
479.63613
 20
571.750045
 30
0.0
 11
479.63613
 21
421.750045
 31
0.0
  0
LINE
  5
1D6
100
AcDbEntity
  8
0
  6
HIDDEN
 62
   232
100
AcDbLine
 10
554.63613
 20
421.750045
 30
0.0
 11
554.63613
 21
571.750045
 31
0.0
  0
LINE
  5
1D7
100
AcDbEntity
  8
0
  6
HIDDEN
 62
   232
100
AcDbLine
 10
554.63613
 20
571.750045
 30
0.0
 11
479.63613
 21
571.750045
 31
0.0
  0
LINE
  5
1D8
100
AcDbEntity
  8
0
  6
HIDDEN
 62
   232
100
AcDbLine
 10
479.63613
 20
421.750045
 30
0.0
 11
554.63613
 21
421.750045
 31
0.0
  0
ENDBLK
  5
1D9
100
AcDbEntity
  8
0
100
AcDbBlockEnd
  0
BLOCK
  5
1DC
100
AcDbEntity
  8
0
100
AcDbBlockBegin
  2
*B4
 70
     0
 10
0.0
 20
0.0
 30
0.0
  3
*B4
  1

  0
LINE
  5
1DD
100
AcDbEntity
  8
0
  6
HIDDEN
 62
   174
100
AcDbLine
 10
548.962091
 20
57.091219
 30
0.0
 11
548.962091
 21
99.589319
 31
0.0
  0
LINE
  5
1DE
100
AcDbEntity
  8
0
  6
HIDDEN
 62
   174
100
AcDbLine
 10
548.962091
 20
57.091219
 30
0.0
 11
548.962091
 21
99.589319
 31
0.0
  0
ARC
  5
1DF
100
AcDbEntity
  8
0
  6
Continuous
 62
   174
100
AcDbCircle
 10
365.88613
 20
238.240832
 30
0.0
 40
15.0
100
AcDbArc
 50
-270.0
 51
-90.0
  0
ARC
  5
1E0
100
AcDbEntity
  8
0
  6
Continuous
 62
   174
100
AcDbCircle
 10
365.88613
 20
238.240832
 30
0.0
 40
15.0
100
AcDbArc
 50
-90.0
 51
90.0
  0
LINE
  5
1E1
100
AcDbEntity
  8
0
  6
Continuous
 62
   174
100
AcDbLine
 10
592.76113
 20
33.240832
 30
0.0
 11
214.63613
 21
33.240832
 31
0.0
  0
LINE
  5
1E2
100
AcDbEntity
  8
0
  6
Continuous
 62
   174
100
AcDbLine
 10
214.63613
 20
283.240832
 30
0.0
 11
592.76113
 21
283.240832
 31
0.0
  0
LINE
  5
1E3
100
AcDbEntity
  8
0
  6
HIDDEN
 62
   174
100
AcDbLine
 10
257.13613
 20
101.839042
 30
0.0
 11
257.13613
 21
54.840895
 31
0.0
  0
LINE
  5
1E4
100
AcDbEntity
  8
0
  6
HIDDEN
 62
   174
100
AcDbLine
 10
257.13613
 20
56.990832
 30
0.0
 11
548.962091
 21
56.990832
 31
0.0
  0
LINE
  5
1E5
100
AcDbEntity
  8
0
  6
HIDDEN
 62
   174
100
AcDbLine
 10
257.13613
 20
99.490832
 30
0.0
 11
548.962091
 21
99.490832
 31
0.0
  0
LINE
  5
1E6
100
AcDbEntity
  8
0
  6
HIDDEN
 62
   174
100
AcDbLine
 10
257.13613
 20
56.990832
 30
0.0
 11
548.962091
 21
56.990832
 31
0.0
  0
LINE
  5
1E7
100
AcDbEntity
  8
0
  6
HIDDEN
 62
   174
100
AcDbLine
 10
257.13613
 20
99.490832
 30
0.0
 11
548.962091
 21
99.490832
 31
0.0
  0
LINE
  5
1E8
100
AcDbEntity
  8
0
  6
HIDDEN
 62
   174
100
AcDbLine
 10
214.63613
 20
54.840895
 30
0.0
 11
214.63613
 21
101.839042
 31
0.0
  0
LINE
  5
1E9
100
AcDbEntity
  8
0
  6
HIDDEN
 62
   174
100
AcDbLine
 10
257.13613
 20
57.091219
 30
0.0
 11
257.13613
 21
99.589319
 31
0.0
  0
LINE
  5
1EA
100
AcDbEntity
  8
0
  6
Continuous
 62
   174
100
AcDbLine
 10
592.76113
 20
33.240832
 30
0.0
 11
592.76113
 21
283.240832
 31
0.0
  0
LINE
  5
1EB
100
AcDbEntity
  8
0
  6
Continuous
 62
   174
100
AcDbLine
 10
214.63613
 20
283.240832
 30
0.0
 11
214.63613
 21
33.240832
 31
0.0
  0
LINE
  5
1EC
100
AcDbEntity
  8
0
  6
HIDDEN
 62
   174
100
AcDbLine
 10
550.26113
 20
181.740832
 30
0.0
 11
548.962091
 21
179.490832
 31
0.0
  0
ARC
  5
1ED
100
AcDbEntity
  8
0
  6
Continuous
 62
   174
100
AcDbCircle
 10
441.51113
 20
238.240832
 30
0.0
 40
15.0
100
AcDbArc
 50
-90.0
 51
90.0
  0
LINE
  5
1EE
100
AcDbEntity
  8
0
  6
HIDDEN
 62
   174
100
AcDbLine
 10
257.13613
 20
216.990832
 30
0.0
 11
548.962091
 21
216.990832
 31
0.0
  0
LINE
  5
1EF
100
AcDbEntity
  8
0
  6
HIDDEN
 62
   174
100
AcDbLine
 10
257.13613
 20
179.490832
 30
0.0
 11
548.962091
 21
179.490832
 31
0.0
  0
LINE
  5
1F0
100
AcDbEntity
  8
0
  6
HIDDEN
 62
   174
100
AcDbLine
 10
557.76113
 20
181.740832
 30
0.0
 11
592.76113
 21
181.740832
 31
0.0
  0
LINE
  5
1F1
100
AcDbEntity
  8
0
  6
HIDDEN
 62
   174
100
AcDbLine
 10
592.76113
 20
134.740832
 30
0.0
 11
550.26113
 21
134.740832
 31
0.0
  0
LINE
  5
1F2
100
AcDbEntity
  8
0
  6
HIDDEN
 62
   174
100
AcDbLine
 10
557.76113
 20
184.440832
 30
0.0
 11
592.76113
 21
184.440832
 31
0.0
  0
LINE
  5
1F3
100
AcDbEntity
  8
0
  6
HIDDEN
 62
   174
100
AcDbLine
 10
592.76113
 20
132.13751
 30
0.0
 11
592.76113
 21
184.53499
 31
0.0
  0
LINE
  5
1F4
100
AcDbEntity
  8
0
  6
HIDDEN
 62
   174
100
AcDbLine
 10
214.63613
 20
134.837177
 30
0.0
 11
214.63613
 21
181.835323
 31
0.0
  0
ARC
  5
1F5
100
AcDbEntity
  8
0
  6
Continuous
 62
   174
100
AcDbCircle
 10
365.88613
 20
158.240832
 30
0.0
 40
31.25
100
AcDbArc
 50
-90.0
 51
90.0
  0
ARC
  5
1F6
100
AcDbEntity
  8
0
  6
Continuous
 62
   174
100
AcDbCircle
 10
441.51113
 20
78.240832
 30
0.0
 40
31.25
100
AcDbArc
 50
90.0
 51
270.0
  0
ARC
  5
1F7
100
AcDbEntity
  8
0
  6
Continuous
 62
   174
100
AcDbCircle
 10
290.26113
 20
78.240832
 30
0.0
 40
31.25
100
AcDbArc
 50
-90.0
 51
90.0
  0
LINE
  5
1F8
100
AcDbEntity
  8
0
  6
HIDDEN
 62
   174
100
AcDbLine
 10
550.26113
 20
261.740832
 30
0.0
 11
548.962091
 21
259.490832
 31
0.0
  0
LINE
  5
1F9
100
AcDbEntity
  8
0
  6
HIDDEN
 62
   174
100
AcDbLine
 10
257.13613
 20
181.835323
 30
0.0
 11
257.13613
 21
134.837177
 31
0.0
  0
ARC
  5
1FA
100
AcDbEntity
  8
0
  6
Continuous
 62
   174
100
AcDbCircle
 10
517.13613
 20
158.240832
 30
0.0
 40
15.0
100
AcDbArc
 50
-270.0
 51
-90.0
  0
LINE
  5
1FB
100
AcDbEntity
  8
0
  6
HIDDEN
 62
   174
100
AcDbLine
 10
592.76113
 20
261.740832
 30
0.0
 11
550.26113
 21
261.740832
 31
0.0
  0
LINE
  5
1FC
100
AcDbEntity
  8
0
  6
HIDDEN
 62
   174
100
AcDbLine
 10
557.76113
 20
212.040832
 30
0.0
 11
592.76113
 21
212.040832
 31
0.0
  0
LINE
  5
1FD
100
AcDbEntity
  8
0
  6
HIDDEN
 62
   174
100
AcDbLine
 10
557.76113
 20
184.440832
 30
0.0
 11
592.76113
 21
184.440832
 31
0.0
  0
LINE
  5
1FE
100
AcDbEntity
  8
0
  6
HIDDEN
 62
   174
100
AcDbLine
 10
548.962091
 20
217.083783
 30
0.0
 11
548.962091
 21
259.581281
 31
0.0
  0
ARC
  5
1FF
100
AcDbEntity
  8
0
  6
Continuous
 62
   174
100
AcDbCircle
 10
441.51113
 20
158.240832
 30
0.0
 40
31.25
100
AcDbArc
 50
-90.0
 51
90.0
  0
ARC
  5
200
100
AcDbEntity
  8
0
  6
Continuous
 62
   174
100
AcDbCircle
 10
517.13613
 20
78.240832
 30
0.0
 40
31.25
100
AcDbArc
 50
90.0
 51
270.0
  0
ARC
  5
201
100
AcDbEntity
  8
0
  6
Continuous
 62
   174
100
AcDbCircle
 10
441.51113
 20
158.240832
 30
0.0
 40
15.0
100
AcDbArc
 50
-270.0
 51
-90.0
  0
LINE
  5
202
100
AcDbEntity
  8
0
  6
HIDDEN
 62
   174
100
AcDbLine
 10
550.26113
 20
134.740832
 30
0.0
 11
548.962091
 21
136.990832
 31
0.0
  0
LINE
  5
203
100
AcDbEntity
  8
0
  6
HIDDEN
 62
   174
100
AcDbLine
 10
257.13613
 20
259.490832
 30
0.0
 11
548.962091
 21
259.490832
 31
0.0
  0
LINE
  5
204
100
AcDbEntity
  8
0
  6
HIDDEN
 62
   174
100
AcDbLine
 10
257.13613
 20
136.990832
 30
0.0
 11
548.962091
 21
136.990832
 31
0.0
  0
ARC
  5
205
100
AcDbEntity
  8
0
  6
Continuous
 62
   174
100
AcDbCircle
 10
517.13613
 20
158.240832
 30
0.0
 40
15.0
100
AcDbArc
 50
-90.0
 51
90.0
  0
LINE
  5
206
100
AcDbEntity
  8
0
  6
HIDDEN
 62
   174
100
AcDbLine
 10
557.76113
 20
212.133792
 30
0.0
 11
557.76113
 21
264.531272
 31
0.0
  0
LINE
  5
207
100
AcDbEntity
  8
0
  6
HIDDEN
 62
   174
100
AcDbLine
 10
557.76113
 20
134.740832
 30
0.0
 11
592.76113
 21
134.740832
 31
0.0
  0
LINE
  5
208
100
AcDbEntity
  8
0
  6
HIDDEN
 62
   174
100
AcDbLine
 10
592.76113
 20
181.740832
 30
0.0
 11
550.26113
 21
181.740832
 31
0.0
  0
LINE
  5
209
100
AcDbEntity
  8
0
  6
HIDDEN
 62
   174
100
AcDbLine
 10
557.76113
 20
132.040832
 30
0.0
 11
592.76113
 21
132.040832
 31
0.0
  0
LINE
  5
20A
100
AcDbEntity
  8
0
  6
HIDDEN
 62
   174
100
AcDbLine
 10
214.63613
 20
214.833459
 30
0.0
 11
214.63613
 21
261.831605
 31
0.0
  0
ARC
  5
20B
100
AcDbEntity
  8
0
  6
Continuous
 62
   174
100
AcDbCircle
 10
290.26113
 20
238.240832
 30
0.0
 40
15.0
100
AcDbArc
 50
-270.0
 51
-90.0
  0
ARC
  5
20C
100
AcDbEntity
  8
0
  6
Continuous
 62
   174
100
AcDbCircle
 10
365.88613
 20
158.240832
 30
0.0
 40
31.25
100
AcDbArc
 50
90.0
 51
270.0
  0
ARC
  5
20D
100
AcDbEntity
  8
0
  6
Continuous
 62
   174
100
AcDbCircle
 10
441.51113
 20
158.240832
 30
0.0
 40
31.25
100
AcDbArc
 50
90.0
 51
270.0
  0
ARC
  5
20E
100
AcDbEntity
  8
0
  6
Continuous
 62
   174
100
AcDbCircle
 10
517.13613
 20
158.240832
 30
0.0
 40
31.25
100
AcDbArc
 50
-90.0
 51
90.0
  0
ARC
  5
20F
100
AcDbEntity
  8
0
  6
Continuous
 62
   174
100
AcDbCircle
 10
290.26113
 20
78.240832
 30
0.0
 40
31.25
100
AcDbArc
 50
90.0
 51
270.0
  0
LINE
  5
210
100
AcDbEntity
  8
0
  6
HIDDEN
 62
   174
100
AcDbLine
 10
550.26113
 20
214.740832
 30
0.0
 11
548.962091
 21
216.990832
 31
0.0
  0
LINE
  5
211
100
AcDbEntity
  8
0
  6
HIDDEN
 62
   174
100
AcDbLine
 10
557.76113
 20
261.740832
 30
0.0
 11
592.76113
 21
261.740832
 31
0.0
  0
LINE
  5
212
100
AcDbEntity
  8
0
  6
HIDDEN
 62
   174
100
AcDbLine
 10
592.76113
 20
214.740832
 30
0.0
 11
550.26113
 21
214.740832
 31
0.0
  0
LINE
  5
213
100
AcDbEntity
  8
0
  6
HIDDEN
 62
   174
100
AcDbLine
 10
557.76113
 20
264.440832
 30
0.0
 11
592.76113
 21
264.440832
 31
0.0
  0
LINE
  5
214
100
AcDbEntity
  8
0
  6
HIDDEN
 62
   174
100
AcDbLine
 10
557.76113
 20
134.740832
 30
0.0
 11
592.76113
 21
134.740832
 31
0.0
  0
LINE
  5
215
100
AcDbEntity
  8
0
  6
HIDDEN
 62
   174
100
AcDbLine
 10
257.13613
 20
217.083783
 30
0.0
 11
257.13613
 21
259.581281
 31
0.0
  0
ARC
  5
216
100
AcDbEntity
  8
0
  6
Continuous
 62
   174
100
AcDbCircle
 10
290.26113
 20
78.240832
 30
0.0
 40
15.0
100
AcDbArc
 50
-270.0
 51
-90.0
  0
ARC
  5
217
100
AcDbEntity
  8
0
  6
Continuous
 62
   174
100
AcDbCircle
 10
365.88613
 20
238.240832
 30
0.0
 40
31.25
100
AcDbArc
 50
-90.0
 51
90.0
  0
ARC
  5
218
100
AcDbEntity
  8
0
  6
Continuous
 62
   174
100
AcDbCircle
 10
517.13613
 20
158.240832
 30
0.0
 40
31.25
100
AcDbArc
 50
90.0
 51
270.0
  0
ARC
  5
219
100
AcDbEntity
  8
0
  6
Continuous
 62
   174
100
AcDbCircle
 10
290.26113
 20
238.240832
 30
0.0
 40
31.25
100
AcDbArc
 50
-90.0
 51
90.0
  0
ARC
  5
21A
100
AcDbEntity
  8
0
  6
Continuous
 62
   174
100
AcDbCircle
 10
441.51113
 20
158.240832
 30
0.0
 40
15.0
100
AcDbArc
 50
-90.0
 51
90.0
  0
ARC
  5
21B
100
AcDbEntity
  8
0
  6
Continuous
 62
   174
100
AcDbCircle
 10
441.51113
 20
78.240832
 30
0.0
 40
15.0
100
AcDbArc
 50
-270.0
 51
-90.0
  0
LINE
  5
21C
100
AcDbEntity
  8
0
  6
HIDDEN
 62
   174
100
AcDbLine
 10
550.26113
 20
181.740832
 30
0.0
 11
548.962091
 21
179.490832
 31
0.0
  0
LINE
  5
21D
100
AcDbEntity
  8
0
  6
HIDDEN
 62
   174
100
AcDbLine
 10
257.13613
 20
216.990832
 30
0.0
 11
548.962091
 21
216.990832
 31
0.0
  0
LINE
  5
21E
100
AcDbEntity
  8
0
  6
HIDDEN
 62
   174
100
AcDbLine
 10
257.13613
 20
179.490832
 30
0.0
 11
548.962091
 21
179.490832
 31
0.0
  0
LINE
  5
21F
100
AcDbEntity
  8
0
  6
HIDDEN
 62
   174
100
AcDbLine
 10
592.76113
 20
212.133792
 30
0.0
 11
592.76113
 21
264.531272
 31
0.0
  0
LINE
  5
220
100
AcDbEntity
  8
0
  6
HIDDEN
 62
   174
100
AcDbLine
 10
557.76113
 20
264.440832
 30
0.0
 11
592.76113
 21
264.440832
 31
0.0
  0
LINE
  5
221
100
AcDbEntity
  8
0
  6
HIDDEN
 62
   174
100
AcDbLine
 10
557.76113
 20
181.740832
 30
0.0
 11
592.76113
 21
181.740832
 31
0.0
  0
LINE
  5
222
100
AcDbEntity
  8
0
  6
HIDDEN
 62
   174
100
AcDbLine
 10
592.76113
 20
134.740832
 30
0.0
 11
550.26113
 21
134.740832
 31
0.0
  0
LINE
  5
223
100
AcDbEntity
  8
0
  6
HIDDEN
 62
   174
100
AcDbLine
 10
548.962091
 20
137.087501
 30
0.0
 11
548.962091
 21
179.585601
 31
0.0
  0
ARC
  5
224
100
AcDbEntity
  8
0
  6
Continuous
 62
   174
100
AcDbCircle
 10
290.26113
 20
238.240832
 30
0.0
 40
15.0
100
AcDbArc
 50
-90.0
 51
90.0
  0
ARC
  5
225
100
AcDbEntity
  8
0
  6
Continuous
 62
   174
100
AcDbCircle
 10
290.26113
 20
78.240832
 30
0.0
 40
15.0
100
AcDbArc
 50
-90.0
 51
90.0
  0
ARC
  5
226
100
AcDbEntity
  8
0
  6
Continuous
 62
   174
100
AcDbCircle
 10
441.51113
 20
238.240832
 30
0.0
 40
31.25
100
AcDbArc
 50
-90.0
 51
90.0
  0
ARC
  5
227
100
AcDbEntity
  8
0
  6
Continuous
 62
   174
100
AcDbCircle
 10
290.26113
 20
238.240832
 30
0.0
 40
31.25
100
AcDbArc
 50
90.0
 51
270.0
  0
ARC
  5
228
100
AcDbEntity
  8
0
  6
Continuous
 62
   174
100
AcDbCircle
 10
441.51113
 20
78.240832
 30
0.0
 40
15.0
100
AcDbArc
 50
-90.0
 51
90.0
  0
LINE
  5
229
100
AcDbEntity
  8
0
  6
HIDDEN
 62
   174
100
AcDbLine
 10
550.26113
 20
261.740832
 30
0.0
 11
548.962091
 21
259.490832
 31
0.0
  0
LINE
  5
22A
100
AcDbEntity
  8
0
  6
HIDDEN
 62
   174
100
AcDbLine
 10
257.13613
 20
261.831605
 30
0.0
 11
257.13613
 21
214.833459
 31
0.0
  0
LINE
  5
22B
100
AcDbEntity
  8
0
  6
HIDDEN
 62
   174
100
AcDbLine
 10
557.76113
 20
214.740832
 30
0.0
 11
592.76113
 21
214.740832
 31
0.0
  0
LINE
  5
22C
100
AcDbEntity
  8
0
  6
HIDDEN
 62
   174
100
AcDbLine
 10
592.76113
 20
261.740832
 30
0.0
 11
550.26113
 21
261.740832
 31
0.0
  0
LINE
  5
22D
100
AcDbEntity
  8
0
  6
HIDDEN
 62
   174
100
AcDbLine
 10
557.76113
 20
212.040832
 30
0.0
 11
592.76113
 21
212.040832
 31
0.0
  0
ARC
  5
22E
100
AcDbEntity
  8
0
  6
Continuous
 62
   174
100
AcDbCircle
 10
517.13613
 20
238.240832
 30
0.0
 40
15.0
100
AcDbArc
 50
-270.0
 51
-90.0
  0
ARC
  5
22F
100
AcDbEntity
  8
0
  6
Continuous
 62
   174
100
AcDbCircle
 10
365.88613
 20
238.240832
 30
0.0
 40
31.25
100
AcDbArc
 50
90.0
 51
270.0
  0
ARC
  5
230
100
AcDbEntity
  8
0
  6
Continuous
 62
   174
100
AcDbCircle
 10
517.13613
 20
238.240832
 30
0.0
 40
31.25
100
AcDbArc
 50
-90.0
 51
90.0
  0
ARC
  5
231
100
AcDbEntity
  8
0
  6
Continuous
 62
   174
100
AcDbCircle
 10
290.26113
 20
158.240832
 30
0.0
 40
15.0
100
AcDbArc
 50
-270.0
 51
-90.0
  0
LINE
  5
232
100
AcDbEntity
  8
0
  6
HIDDEN
 62
   174
100
AcDbLine
 10
550.26113
 20
134.740832
 30
0.0
 11
548.962091
 21
136.990832
 31
0.0
  0
ARC
  5
233
100
AcDbEntity
  8
0
  6
Continuous
 62
   174
100
AcDbCircle
 10
441.51113
 20
238.240832
 30
0.0
 40
15.0
100
AcDbArc
 50
-270.0
 51
-90.0
  0
LINE
  5
234
100
AcDbEntity
  8
0
  6
HIDDEN
 62
   174
100
AcDbLine
 10
257.13613
 20
259.490832
 30
0.0
 11
548.962091
 21
259.490832
 31
0.0
  0
LINE
  5
235
100
AcDbEntity
  8
0
  6
HIDDEN
 62
   174
100
AcDbLine
 10
257.13613
 20
136.990832
 30
0.0
 11
548.962091
 21
136.990832
 31
0.0
  0
LINE
  5
236
100
AcDbEntity
  8
0
  6
HIDDEN
 62
   174
100
AcDbLine
 10
557.76113
 20
214.740832
 30
0.0
 11
592.76113
 21
214.740832
 31
0.0
  0
LINE
  5
237
100
AcDbEntity
  8
0
  6
HIDDEN
 62
   174
100
AcDbLine
 10
592.76113
 20
181.740832
 30
0.0
 11
550.26113
 21
181.740832
 31
0.0
  0
LINE
  5
238
100
AcDbEntity
  8
0
  6
HIDDEN
 62
   174
100
AcDbLine
 10
557.76113
 20
132.040832
 30
0.0
 11
592.76113
 21
132.040832
 31
0.0
  0
LINE
  5
239
100
AcDbEntity
  8
0
  6
HIDDEN
 62
   174
100
AcDbLine
 10
548.962091
 20
137.087501
 30
0.0
 11
548.962091
 21
179.585601
 31
0.0
  0
ARC
  5
23A
100
AcDbEntity
  8
0
  6
Continuous
 62
   174
100
AcDbCircle
 10
517.13613
 20
78.240832
 30
0.0
 40
15.0
100
AcDbArc
 50
-270.0
 51
-90.0
  0
ARC
  5
23B
100
AcDbEntity
  8
0
  6
Continuous
 62
   174
100
AcDbCircle
 10
517.13613
 20
238.240832
 30
0.0
 40
15.0
100
AcDbArc
 50
-90.0
 51
90.0
  0
ARC
  5
23C
100
AcDbEntity
  8
0
  6
Continuous
 62
   174
100
AcDbCircle
 10
365.88613
 20
78.240832
 30
0.0
 40
31.25
100
AcDbArc
 50
-90.0
 51
90.0
  0
ARC
  5
23D
100
AcDbEntity
  8
0
  6
Continuous
 62
   174
100
AcDbCircle
 10
441.51113
 20
78.240832
 30
0.0
 40
31.25
100
AcDbArc
 50
-90.0
 51
90.0
  0
ARC
  5
23E
100
AcDbEntity
  8
0
  6
Continuous
 62
   174
100
AcDbCircle
 10
441.51113
 20
238.240832
 30
0.0
 40
31.25
100
AcDbArc
 50
90.0
 51
270.0
  0
ARC
  5
23F
100
AcDbEntity
  8
0
  6
Continuous
 62
   174
100
AcDbCircle
 10
517.13613
 20
238.240832
 30
0.0
 40
31.25
100
AcDbArc
 50
90.0
 51
270.0
  0
ARC
  5
240
100
AcDbEntity
  8
0
  6
Continuous
 62
   174
100
AcDbCircle
 10
290.26113
 20
158.240832
 30
0.0
 40
31.25
100
AcDbArc
 50
-90.0
 51
90.0
  0
LINE
  5
241
100
AcDbEntity
  8
0
  6
HIDDEN
 62
   174
100
AcDbLine
 10
550.26113
 20
214.740832
 30
0.0
 11
548.962091
 21
216.990832
 31
0.0
  0
LINE
  5
242
100
AcDbEntity
  8
0
  6
HIDDEN
 62
   174
100
AcDbLine
 10
557.76113
 20
261.740832
 30
0.0
 11
592.76113
 21
261.740832
 31
0.0
  0
LINE
  5
243
100
AcDbEntity
  8
0
  6
HIDDEN
 62
   174
100
AcDbLine
 10
592.76113
 20
214.740832
 30
0.0
 11
550.26113
 21
214.740832
 31
0.0
  0
LINE
  5
244
100
AcDbEntity
  8
0
  6
HIDDEN
 62
   174
100
AcDbLine
 10
557.76113
 20
132.13751
 30
0.0
 11
557.76113
 21
184.53499
 31
0.0
  0
LINE
  5
245
100
AcDbEntity
  8
0
  6
HIDDEN
 62
   174
100
AcDbLine
 10
257.13613
 20
137.087501
 30
0.0
 11
257.13613
 21
179.585601
 31
0.0
  0
ARC
  5
246
100
AcDbEntity
  8
0
  6
Continuous
 62
   174
100
AcDbCircle
 10
517.13613
 20
78.240832
 30
0.0
 40
15.0
100
AcDbArc
 50
-90.0
 51
90.0
  0
LINE
  5
247
100
AcDbEntity
  8
0
  6
HIDDEN
 62
   174
100
AcDbLine
 10
548.962091
 20
217.083783
 30
0.0
 11
548.962091
 21
259.581281
 31
0.0
  0
ARC
  5
248
100
AcDbEntity
  8
0
  6
Continuous
 62
   174
100
AcDbCircle
 10
365.88613
 20
78.240832
 30
0.0
 40
31.25
100
AcDbArc
 50
90.0
 51
270.0
  0
ARC
  5
249
100
AcDbEntity
  8
0
  6
Continuous
 62
   174
100
AcDbCircle
 10
517.13613
 20
78.240832
 30
0.0
 40
31.25
100
AcDbArc
 50
-90.0
 51
90.0
  0
ARC
  5
24A
100
AcDbEntity
  8
0
  6
Continuous
 62
   174
100
AcDbCircle
 10
290.26113
 20
158.240832
 30
0.0
 40
15.0
100
AcDbArc
 50
-90.0
 51
90.0
  0
LINE
  5
24B
100
AcDbEntity
  8
0
  6
HIDDEN
 62
   174
100
AcDbLine
 10
214.63613
 20
181.740832
 30
0.0
 11
257.13613
 21
181.740832
 31
0.0
  0
ARC
  5
24C
100
AcDbEntity
  8
0
  6
Continuous
 62
   174
100
AcDbCircle
 10
492.13613
 20
48.240832
 30
0.0
 40
6.875
100
AcDbArc
 50
-90.0
 51
90.0
  0
LINE
  5
24D
100
AcDbEntity
  8
0
  6
HIDDEN
 62
   174
100
AcDbLine
 10
249.63613
 20
104.538709
 30
0.0
 11
249.63613
 21
52.141228
 31
0.0
  0
LINE
  5
24E
100
AcDbEntity
  8
0
  6
HIDDEN
 62
   174
100
AcDbLine
 10
592.76113
 20
181.835323
 30
0.0
 11
592.76113
 21
134.837177
 31
0.0
  0
LINE
  5
24F
100
AcDbEntity
  8
0
  6
HIDDEN
 62
   174
100
AcDbLine
 10
214.63613
 20
261.740832
 30
0.0
 11
257.13613
 21
261.740832
 31
0.0
  0
ARC
  5
250
100
AcDbEntity
  8
0
  6
Continuous
 62
   174
100
AcDbCircle
 10
365.88613
 20
78.240832
 30
0.0
 40
15.0
100
AcDbArc
 50
-270.0
 51
-90.0
  0
ARC
  5
251
100
AcDbEntity
  8
0
  6
HIDDEN
 62
   174
100
AcDbCircle
 10
416.51113
 20
48.240832
 30
0.0
 40
12.5
100
AcDbArc
 50
-270.0
 51
-90.0
  0
ARC
  5
252
100
AcDbEntity
  8
0
  6
Continuous
 62
   174
100
AcDbCircle
 10
265.26113
 20
48.240832
 30
0.0
 40
6.875
100
AcDbArc
 50
-90.0
 51
90.0
  0
LINE
  5
253
100
AcDbEntity
  8
0
  6
HIDDEN
 62
   174
100
AcDbLine
 10
557.76113
 20
52.040832
 30
0.0
 11
592.76113
 21
52.040832
 31
0.0
  0
ARC
  5
254
100
AcDbEntity
  8
0
  6
Continuous
 62
   174
100
AcDbCircle
 10
233.38613
 20
118.240832
 30
0.0
 40
8.25
100
AcDbArc
 50
90.0
 51
270.0
  0
ARC
  5
255
100
AcDbEntity
  8
0
  6
Continuous
 62
   174
100
AcDbCircle
 10
574.01113
 20
198.240832
 30
0.0
 40
8.25
100
AcDbArc
 50
90.0
 51
270.0
  0
LINE
  5
256
100
AcDbEntity
  8
0
  6
HIDDEN
 62
   174
100
AcDbLine
 10
249.63613
 20
101.740832
 30
0.0
 11
214.63613
 21
101.740832
 31
0.0
  0
ARC
  5
257
100
AcDbEntity
  8
0
  6
Continuous
 62
   174
100
AcDbCircle
 10
416.51113
 20
48.240832
 30
0.0
 40
6.875
100
AcDbArc
 50
-270.0
 51
-90.0
  0
LINE
  5
258
100
AcDbEntity
  8
0
  6
HIDDEN
 62
   174
100
AcDbLine
 10
214.63613
 20
134.740832
 30
0.0
 11
257.13613
 21
134.740832
 31
0.0
  0
ARC
  5
259
100
AcDbEntity
  8
0
  6
HIDDEN
 62
   174
100
AcDbCircle
 10
492.13613
 20
48.240832
 30
0.0
 40
12.5
100
AcDbArc
 50
-90.0
 51
90.0
  0
LINE
  5
25A
100
AcDbEntity
  8
0
  6
HIDDEN
 62
   174
100
AcDbLine
 10
214.63613
 20
214.740832
 30
0.0
 11
257.13613
 21
214.740832
 31
0.0
  0
LINE
  5
25B
100
AcDbEntity
  8
0
  6
HIDDEN
 62
   174
100
AcDbLine
 10
592.76113
 20
54.740832
 30
0.0
 11
550.26113
 21
54.740832
 31
0.0
  0
LINE
  5
25C
100
AcDbEntity
  8
0
  6
HIDDEN
 62
   174
100
AcDbLine
 10
592.76113
 20
101.839042
 30
0.0
 11
592.76113
 21
54.840895
 31
0.0
  0
LINE
  5
25D
100
AcDbEntity
  8
0
  6
HIDDEN
 62
   174
100
AcDbLine
 10
249.63613
 20
54.740832
 30
0.0
 11
214.63613
 21
54.740832
 31
0.0
  0
ARC
  5
25E
100
AcDbEntity
  8
0
  6
Continuous
 62
   174
100
AcDbCircle
 10
492.13613
 20
48.240832
 30
0.0
 40
6.875
100
AcDbArc
 50
-270.0
 51
-90.0
  0
LINE
  5
25F
100
AcDbEntity
  8
0
  6
HIDDEN
 62
   174
100
AcDbLine
 10
214.63613
 20
104.538709
 30
0.0
 11
214.63613
 21
52.141228
 31
0.0
  0
LINE
  5
260
100
AcDbEntity
  8
0
  6
HIDDEN
 62
   174
100
AcDbLine
 10
214.63613
 20
181.740832
 30
0.0
 11
257.13613
 21
181.740832
 31
0.0
  0
ARC
  5
261
100
AcDbEntity
  8
0
  6
Continuous
 62
   174
100
AcDbCircle
 10
365.88613
 20
78.240832
 30
0.0
 40
15.0
100
AcDbArc
 50
-90.0
 51
90.0
  0
ARC
  5
262
100
AcDbEntity
  8
0
  6
Continuous
 62
   174
100
AcDbCircle
 10
265.26113
 20
48.240832
 30
0.0
 40
6.875
100
AcDbArc
 50
-270.0
 51
-90.0
  0
ARC
  5
263
100
AcDbEntity
  8
0
  6
HIDDEN
 62
   174
100
AcDbCircle
 10
416.51113
 20
48.240832
 30
0.0
 40
12.5
100
AcDbArc
 50
-90.0
 51
90.0
  0
ARC
  5
264
100
AcDbEntity
  8
0
  6
Continuous
 62
   174
100
AcDbCircle
 10
574.01113
 20
118.240832
 30
0.0
 40
8.25
100
AcDbArc
 50
-90.0
 51
90.0
  0
LINE
  5
265
100
AcDbEntity
  8
0
  6
HIDDEN
 62
   174
100
AcDbLine
 10
214.63613
 20
261.740832
 30
0.0
 11
257.13613
 21
261.740832
 31
0.0
  0
LINE
  5
266
100
AcDbEntity
  8
0
  6
HIDDEN
 62
   174
100
AcDbLine
 10
249.63613
 20
181.740832
 30
0.0
 11
214.63613
 21
181.740832
 31
0.0
  0
LINE
  5
267
100
AcDbEntity
  8
0
  6
HIDDEN
 62
   174
100
AcDbLine
 10
592.76113
 20
101.740832
 30
0.0
 11
550.26113
 21
101.740832
 31
0.0
  0
ARC
  5
268
100
AcDbEntity
  8
0
  6
HIDDEN
 62
   174
100
AcDbCircle
 10
390.88613
 20
268.240832
 30
0.0
 40
12.5
100
AcDbArc
 50
-270.0
 51
-90.0
  0
ARC
  5
269
100
AcDbEntity
  8
0
  6
Continuous
 62
   174
100
AcDbCircle
 10
233.38613
 20
198.240832
 30
0.0
 40
8.25
100
AcDbArc
 50
-90.0
 51
90.0
  0
LINE
  5
26A
100
AcDbEntity
  8
0
  6
HIDDEN
 62
   174
100
AcDbLine
 10
249.63613
 20
261.740832
 30
0.0
 11
214.63613
 21
261.740832
 31
0.0
  0
LINE
  5
26B
100
AcDbEntity
  8
0
  6
HIDDEN
 62
   174
100
AcDbLine
 10
214.63613
 20
134.740832
 30
0.0
 11
257.13613
 21
134.740832
 31
0.0
  0
ARC
  5
26C
100
AcDbEntity
  8
0
  6
HIDDEN
 62
   174
100
AcDbCircle
 10
542.13613
 20
268.240832
 30
0.0
 40
12.5
100
AcDbArc
 50
-270.0
 51
-90.0
  0
LINE
  5
26D
100
AcDbEntity
  8
0
  6
HIDDEN
 62
   174
100
AcDbLine
 10
214.63613
 20
214.740832
 30
0.0
 11
257.13613
 21
214.740832
 31
0.0
  0
LINE
  5
26E
100
AcDbEntity
  8
0
  6
HIDDEN
 62
   174
100
AcDbLine
 10
249.63613
 20
104.440832
 30
0.0
 11
214.63613
 21
104.440832
 31
0.0
  0
LINE
  5
26F
100
AcDbEntity
  8
0
  6
HIDDEN
 62
   174
100
AcDbLine
 10
249.63613
 20
132.040832
 30
0.0
 11
214.63613
 21
132.040832
 31
0.0
  0
LINE
  5
270
100
AcDbEntity
  8
0
  6
HIDDEN
 62
   174
100
AcDbLine
 10
592.76113
 20
54.740832
 30
0.0
 11
550.26113
 21
54.740832
 31
0.0
  0
LINE
  5
271
100
AcDbEntity
  8
0
  6
HIDDEN
 62
   174
100
AcDbLine
 10
550.26113
 20
134.837177
 30
0.0
 11
550.26113
 21
181.835323
 31
0.0
  0
LINE
  5
272
100
AcDbEntity
  8
0
  6
HIDDEN
 62
   174
100
AcDbLine
 10
550.26113
 20
214.833459
 30
0.0
 11
550.26113
 21
261.831605
 31
0.0
  0
ARC
  5
273
100
AcDbEntity
  8
0
  6
Continuous
 62
   174
100
AcDbCircle
 10
574.01113
 20
118.240832
 30
0.0
 40
8.25
100
AcDbArc
 50
90.0
 51
270.0
  0
LINE
  5
274
100
AcDbEntity
  8
0
  6
HIDDEN
 62
   174
100
AcDbLine
 10
249.63613
 20
212.040832
 30
0.0
 11
214.63613
 21
212.040832
 31
0.0
  0
LINE
  5
275
100
AcDbEntity
  8
0
  6
HIDDEN
 62
   174
100
AcDbLine
 10
249.63613
 20
134.740832
 30
0.0
 11
214.63613
 21
134.740832
 31
0.0
  0
ARC
  5
276
100
AcDbEntity
  8
0
  6
Continuous
 62
   174
100
AcDbCircle
 10
315.26113
 20
268.240832
 30
0.0
 40
6.875
100
AcDbArc
 50
-90.0
 51
90.0
  0
LINE
  5
277
100
AcDbEntity
  8
0
  6
HIDDEN
 62
   174
100
AcDbLine
 10
550.26113
 20
101.740832
 30
0.0
 11
548.962091
 21
99.490832
 31
0.0
  0
LINE
  5
278
100
AcDbEntity
  8
0
  6
HIDDEN
 62
   174
100
AcDbLine
 10
557.76113
 20
54.740832
 30
0.0
 11
592.76113
 21
54.740832
 31
0.0
  0
ARC
  5
279
100
AcDbEntity
  8
0
  6
HIDDEN
 62
   174
100
AcDbCircle
 10
390.88613
 20
268.240832
 30
0.0
 40
12.5
100
AcDbArc
 50
-90.0
 51
90.0
  0
ARC
  5
27A
100
AcDbEntity
  8
0
  6
Continuous
 62
   174
100
AcDbCircle
 10
233.38613
 20
198.240832
 30
0.0
 40
8.25
100
AcDbArc
 50
90.0
 51
270.0
  0
LINE
  5
27B
100
AcDbEntity
  8
0
  6
HIDDEN
 62
   174
100
AcDbLine
 10
249.63613
 20
214.740832
 30
0.0
 11
214.63613
 21
214.740832
 31
0.0
  0
LINE
  5
27C
100
AcDbEntity
  8
0
  6
HIDDEN
 62
   174
100
AcDbLine
 10
249.63613
 20
52.040832
 30
0.0
 11
214.63613
 21
52.040832
 31
0.0
  0
LINE
  5
27D
100
AcDbEntity
  8
0
  6
HIDDEN
 62
   174
100
AcDbLine
 10
249.63613
 20
184.53499
 30
0.0
 11
249.63613
 21
132.13751
 31
0.0
  0
LINE
  5
27E
100
AcDbEntity
  8
0
  6
HIDDEN
 62
   174
100
AcDbLine
 10
592.76113
 20
101.740832
 30
0.0
 11
550.26113
 21
101.740832
 31
0.0
  0
ARC
  5
27F
100
AcDbEntity
  8
0
  6
HIDDEN
 62
   174
100
AcDbCircle
 10
542.13613
 20
268.240832
 30
0.0
 40
12.5
100
AcDbArc
 50
-90.0
 51
90.0
  0
LINE
  5
280
100
AcDbEntity
  8
0
  6
HIDDEN
 62
   174
100
AcDbLine
 10
249.63613
 20
264.531272
 30
0.0
 11
249.63613
 21
212.133792
 31
0.0
  0
LINE
  5
281
100
AcDbEntity
  8
0
  6
HIDDEN
 62
   174
100
AcDbLine
 10
249.63613
 20
181.740832
 30
0.0
 11
214.63613
 21
181.740832
 31
0.0
  0
LINE
  5
282
100
AcDbEntity
  8
0
  6
HIDDEN
 62
   174
100
AcDbLine
 10
550.26113
 20
54.740832
 30
0.0
 11
548.962091
 21
56.990832
 31
0.0
  0
LINE
  5
283
100
AcDbEntity
  8
0
  6
HIDDEN
 62
   174
100
AcDbLine
 10
557.76113
 20
104.440832
 30
0.0
 11
592.76113
 21
104.440832
 31
0.0
  0
ARC
  5
284
100
AcDbEntity
  8
0
  6
HIDDEN
 62
   174
100
AcDbCircle
 10
340.88613
 20
48.240832
 30
0.0
 40
12.5
100
AcDbArc
 50
-270.0
 51
-90.0
  0
LINE
  5
285
100
AcDbEntity
  8
0
  6
HIDDEN
 62
   174
100
AcDbLine
 10
550.26113
 20
134.837177
 30
0.0
 11
550.26113
 21
181.835323
 31
0.0
  0
LINE
  5
286
100
AcDbEntity
  8
0
  6
HIDDEN
 62
   174
100
AcDbLine
 10
550.26113
 20
214.833459
 30
0.0
 11
550.26113
 21
261.831605
 31
0.0
  0
LINE
  5
287
100
AcDbEntity
  8
0
  6
HIDDEN
 62
   174
100
AcDbLine
 10
249.63613
 20
261.740832
 30
0.0
 11
214.63613
 21
261.740832
 31
0.0
  0
LINE
  5
288
100
AcDbEntity
  8
0
  6
HIDDEN
 62
   174
100
AcDbLine
 10
249.63613
 20
104.440832
 30
0.0
 11
214.63613
 21
104.440832
 31
0.0
  0
ARC
  5
289
100
AcDbEntity
  8
0
  6
Continuous
 62
   174
100
AcDbCircle
 10
315.26113
 20
268.240832
 30
0.0
 40
6.875
100
AcDbArc
 50
-270.0
 51
-90.0
  0
LINE
  5
28A
100
AcDbEntity
  8
0
  6
HIDDEN
 62
   174
100
AcDbLine
 10
557.76113
 20
101.740832
 30
0.0
 11
592.76113
 21
101.740832
 31
0.0
  0
LINE
  5
28B
100
AcDbEntity
  8
0
  6
HIDDEN
 62
   174
100
AcDbLine
 10
249.63613
 20
134.740832
 30
0.0
 11
214.63613
 21
134.740832
 31
0.0
  0
LINE
  5
28C
100
AcDbEntity
  8
0
  6
HIDDEN
 62
   174
100
AcDbLine
 10
214.63613
 20
184.53499
 30
0.0
 11
214.63613
 21
132.13751
 31
0.0
  0
LINE
  5
28D
100
AcDbEntity
  8
0
  6
HIDDEN
 62
   174
100
AcDbLine
 10
550.26113
 20
101.740832
 30
0.0
 11
548.962091
 21
99.490832
 31
0.0
  0
LINE
  5
28E
100
AcDbEntity
  8
0
  6
HIDDEN
 62
   174
100
AcDbLine
 10
557.76113
 20
52.141228
 30
0.0
 11
557.76113
 21
104.538709
 31
0.0
  0
ARC
  5
28F
100
AcDbEntity
  8
0
  6
HIDDEN
 62
   174
100
AcDbCircle
 10
265.26113
 20
48.240832
 30
0.0
 40
12.5
100
AcDbArc
 50
-270.0
 51
-90.0
  0
ARC
  5
290
100
AcDbEntity
  8
0
  6
Continuous
 62
   174
100
AcDbCircle
 10
365.88613
 20
158.240832
 30
0.0
 40
15.0
100
AcDbArc
 50
-270.0
 51
-90.0
  0
LINE
  5
291
100
AcDbEntity
  8
0
  6
HIDDEN
 62
   174
100
AcDbLine
 10
249.63613
 20
214.740832
 30
0.0
 11
214.63613
 21
214.740832
 31
0.0
  0
LINE
  5
292
100
AcDbEntity
  8
0
  6
HIDDEN
 62
   174
100
AcDbLine
 10
214.63613
 20
264.531272
 30
0.0
 11
214.63613
 21
212.133792
 31
0.0
  0
LINE
  5
293
100
AcDbEntity
  8
0
  6
HIDDEN
 62
   174
100
AcDbLine
 10
214.63613
 20
101.740832
 30
0.0
 11
257.13613
 21
101.740832
 31
0.0
  0
LINE
  5
294
100
AcDbEntity
  8
0
  6
HIDDEN
 62
   174
100
AcDbLine
 10
557.76113
 20
54.740832
 30
0.0
 11
592.76113
 21
54.740832
 31
0.0
  0
ARC
  5
295
100
AcDbEntity
  8
0
  6
HIDDEN
 62
   174
100
AcDbCircle
 10
466.51113
 20
268.240832
 30
0.0
 40
12.5
100
AcDbArc
 50
-270.0
 51
-90.0
  0
ARC
  5
296
100
AcDbEntity
  8
0
  6
HIDDEN
 62
   174
100
AcDbCircle
 10
340.88613
 20
48.240832
 30
0.0
 40
12.5
100
AcDbArc
 50
-90.0
 51
90.0
  0
LINE
  5
297
100
AcDbEntity
  8
0
  6
HIDDEN
 62
   174
100
AcDbLine
 10
550.26113
 20
54.740832
 30
0.0
 11
548.962091
 21
56.990832
 31
0.0
  0
ARC
  5
298
100
AcDbEntity
  8
0
  6
Continuous
 62
   174
100
AcDbCircle
 10
542.13613
 20
268.240832
 30
0.0
 40
6.875
100
AcDbArc
 50
-90.0
 51
90.0
  0
ARC
  5
299
100
AcDbEntity
  8
0
  6
HIDDEN
 62
   174
100
AcDbCircle
 10
315.26113
 20
268.240832
 30
0.0
 40
12.5
100
AcDbArc
 50
-270.0
 51
-90.0
  0
LINE
  5
29A
100
AcDbEntity
  8
0
  6
HIDDEN
 62
   174
100
AcDbLine
 10
214.63613
 20
54.740832
 30
0.0
 11
257.13613
 21
54.740832
 31
0.0
  0
ARC
  5
29B
100
AcDbEntity
  8
0
  6
Continuous
 62
   174
100
AcDbCircle
 10
340.88613
 20
48.240832
 30
0.0
 40
6.875
100
AcDbArc
 50
-90.0
 51
90.0
  0
ARC
  5
29C
100
AcDbEntity
  8
0
  6
Continuous
 62
   174
100
AcDbCircle
 10
390.88613
 20
268.240832
 30
0.0
 40
6.875
100
AcDbArc
 50
-90.0
 51
90.0
  0
LINE
  5
29D
100
AcDbEntity
  8
0
  6
HIDDEN
 62
   174
100
AcDbLine
 10
557.76113
 20
101.740832
 30
0.0
 11
592.76113
 21
101.740832
 31
0.0
  0
LINE
  5
29E
100
AcDbEntity
  8
0
  6
HIDDEN
 62
   174
100
AcDbLine
 10
592.76113
 20
52.141228
 30
0.0
 11
592.76113
 21
104.538709
 31
0.0
  0
LINE
  5
29F
100
AcDbEntity
  8
0
  6
HIDDEN
 62
   174
100
AcDbLine
 10
592.76113
 20
261.831605
 30
0.0
 11
592.76113
 21
214.833459
 31
0.0
  0
LINE
  5
2A0
100
AcDbEntity
  8
0
  6
HIDDEN
 62
   174
100
AcDbLine
 10
249.63613
 20
184.440832
 30
0.0
 11
214.63613
 21
184.440832
 31
0.0
  0
ARC
  5
2A1
100
AcDbEntity
  8
0
  6
Continuous
 62
   174
100
AcDbCircle
 10
466.51113
 20
268.240832
 30
0.0
 40
6.875
100
AcDbArc
 50
-90.0
 51
90.0
  0
ARC
  5
2A2
100
AcDbEntity
  8
0
  6
HIDDEN
 62
   174
100
AcDbCircle
 10
265.26113
 20
48.240832
 30
0.0
 40
12.5
100
AcDbArc
 50
-90.0
 51
90.0
  0
ARC
  5
2A3
100
AcDbEntity
  8
0
  6
Continuous
 62
   174
100
AcDbCircle
 10
365.88613
 20
158.240832
 30
0.0
 40
15.0
100
AcDbArc
 50
-90.0
 51
90.0
  0
LINE
  5
2A4
100
AcDbEntity
  8
0
  6
HIDDEN
 62
   174
100
AcDbLine
 10
249.63613
 20
264.440832
 30
0.0
 11
214.63613
 21
264.440832
 31
0.0
  0
LINE
  5
2A5
100
AcDbEntity
  8
0
  6
HIDDEN
 62
   174
100
AcDbLine
 10
214.63613
 20
101.740832
 30
0.0
 11
257.13613
 21
101.740832
 31
0.0
  0
ARC
  5
2A6
100
AcDbEntity
  8
0
  6
HIDDEN
 62
   174
100
AcDbCircle
 10
466.51113
 20
268.240832
 30
0.0
 40
12.5
100
AcDbArc
 50
-90.0
 51
90.0
  0
LINE
  5
2A7
100
AcDbEntity
  8
0
  6
HIDDEN
 62
   174
100
AcDbLine
 10
249.63613
 20
132.040832
 30
0.0
 11
214.63613
 21
132.040832
 31
0.0
  0
LINE
  5
2A8
100
AcDbEntity
  8
0
  6
HIDDEN
 62
   174
100
AcDbLine
 10
550.26113
 20
54.840895
 30
0.0
 11
550.26113
 21
101.839042
 31
0.0
  0
ARC
  5
2A9
100
AcDbEntity
  8
0
  6
Continuous
 62
   174
100
AcDbCircle
 10
542.13613
 20
268.240832
 30
0.0
 40
6.875
100
AcDbArc
 50
-270.0
 51
-90.0
  0
LINE
  5
2AA
100
AcDbEntity
  8
0
  6
HIDDEN
 62
   174
100
AcDbLine
 10
249.63613
 20
101.740832
 30
0.0
 11
214.63613
 21
101.740832
 31
0.0
  0
ARC
  5
2AB
100
AcDbEntity
  8
0
  6
HIDDEN
 62
   174
100
AcDbCircle
 10
315.26113
 20
268.240832
 30
0.0
 40
12.5
100
AcDbArc
 50
-90.0
 51
90.0
  0
LINE
  5
2AC
100
AcDbEntity
  8
0
  6
HIDDEN
 62
   174
100
AcDbLine
 10
249.63613
 20
212.040832
 30
0.0
 11
214.63613
 21
212.040832
 31
0.0
  0
ARC
  5
2AD
100
AcDbEntity
  8
0
  6
Continuous
 62
   174
100
AcDbCircle
 10
340.88613
 20
48.240832
 30
0.0
 40
6.875
100
AcDbArc
 50
-270.0
 51
-90.0
  0
ARC
  5
2AE
100
AcDbEntity
  8
0
  6
Continuous
 62
   174
100
AcDbCircle
 10
290.26113
 20
158.240832
 30
0.0
 40
31.25
100
AcDbArc
 50
90.0
 51
270.0
  0
ARC
  5
2AF
100
AcDbEntity
  8
0
  6
Continuous
 62
   174
100
AcDbCircle
 10
390.88613
 20
268.240832
 30
0.0
 40
6.875
100
AcDbArc
 50
-270.0
 51
-90.0
  0
LINE
  5
2B0
100
AcDbEntity
  8
0
  6
HIDDEN
 62
   174
100
AcDbLine
 10
557.76113
 20
52.040832
 30
0.0
 11
592.76113
 21
52.040832
 31
0.0
  0
ARC
  5
2B1
100
AcDbEntity
  8
0
  6
Continuous
 62
   174
100
AcDbCircle
 10
466.51113
 20
268.240832
 30
0.0
 40
6.875
100
AcDbArc
 50
-270.0
 51
-90.0
  0
LINE
  5
2B2
100
AcDbEntity
  8
0
  6
HIDDEN
 62
   174
100
AcDbLine
 10
214.63613
 20
54.740832
 30
0.0
 11
257.13613
 21
54.740832
 31
0.0
  0
ARC
  5
2B3
100
AcDbEntity
  8
0
  6
Continuous
 62
   174
100
AcDbCircle
 10
233.38613
 20
118.240832
 30
0.0
 40
8.25
100
AcDbArc
 50
-90.0
 51
90.0
  0
LINE
  5
2B4
100
AcDbEntity
  8
0
  6
HIDDEN
 62
   174
100
AcDbLine
 10
249.63613
 20
184.440832
 30
0.0
 11
214.63613
 21
184.440832
 31
0.0
  0
ARC
  5
2B5
100
AcDbEntity
  8
0
  6
Continuous
 62
   174
100
AcDbCircle
 10
574.01113
 20
198.240832
 30
0.0
 40
8.25
100
AcDbArc
 50
-90.0
 51
90.0
  0
ARC
  5
2B6
100
AcDbEntity
  8
0
  6
Continuous
 62
   174
100
AcDbCircle
 10
416.51113
 20
48.240832
 30
0.0
 40
6.875
100
AcDbArc
 50
-90.0
 51
90.0
  0
LINE
  5
2B7
100
AcDbEntity
  8
0
  6
HIDDEN
 62
   174
100
AcDbLine
 10
249.63613
 20
52.040832
 30
0.0
 11
214.63613
 21
52.040832
 31
0.0
  0
LINE
  5
2B8
100
AcDbEntity
  8
0
  6
HIDDEN
 62
   174
100
AcDbLine
 10
249.63613
 20
264.440832
 30
0.0
 11
214.63613
 21
264.440832
 31
0.0
  0
LINE
  5
2B9
100
AcDbEntity
  8
0
  6
HIDDEN
 62
   174
100
AcDbLine
 10
557.76113
 20
104.440832
 30
0.0
 11
592.76113
 21
104.440832
 31
0.0
  0
LINE
  5
2BA
100
AcDbEntity
  8
0
  6
HIDDEN
 62
   174
100
AcDbLine
 10
550.26113
 20
54.840895
 30
0.0
 11
550.26113
 21
101.839042
 31
0.0
  0
LINE
  5
2BB
100
AcDbEntity
  8
0
  6
HIDDEN
 62
   174
100
AcDbLine
 10
249.63613
 20
54.740832
 30
0.0
 11
214.63613
 21
54.740832
 31
0.0
  0
ARC
  5
2BC
100
AcDbEntity
  8
0
  6
HIDDEN
 62
   174
100
AcDbCircle
 10
492.13613
 20
48.240832
 30
0.0
 40
12.5
100
AcDbArc
 50
-270.0
 51
-90.0
  0
ENDBLK
  5
2BD
100
AcDbEntity
  8
0
100
AcDbBlockEnd
  0
BLOCK
  5
2C0
100
AcDbEntity
  8
0
100
AcDbBlockBegin
  2
*B5
 70
     0
 10
0.0
 20
0.0
 30
0.0
  3
*B5
  1

  0
LINE
  5
2C1
100
AcDbEntity
  8
0
  6
Continuous
 62
     0
100
AcDbLine
 10
257.370658
 20
306.088579
 30
0.0
 11
166.522774
 21
306.088579
 31
0.0
  0
SOLID
  5
2C2
100
AcDbEntity
  8
0
  6
Continuous
 62
     0
100
AcDbTrace
 10
245.371336
 20
308.588538
 30
0.0
 11
233.372014
 21
306.088579
 31
0.0
 12
245.371336
 22
303.58862
 32
0.0
 13
245.371336
 23
303.58862
 33
0.0
  0
SOLID
  5
2C3
100
AcDbEntity
  8
0
  6
Continuous
 62
     0
100
AcDbTrace
 10
202.623601
 20
303.58862
 30
0.0
 11
214.622923
 21
306.088579
 31
0.0
 12
202.623601
 22
308.588538
 32
0.0
 13
202.623601
 23
308.588538
 33
0.0
  0
ENDBLK
  5
2C4
100
AcDbEntity
  8
0
100
AcDbBlockEnd
  0
BLOCK
  5
2C7
100
AcDbEntity
  8
0
100
AcDbBlockBegin
  2
*B6
 70
     0
 10
0.0
 20
0.0
 30
0.0
  3
*B6
  1

  0
LINE
  5
2C8
100
AcDbEntity
  8
0
  6
Continuous
 62
     0
100
AcDbLine
 10
549.977745
 20
306.088579
 30
0.0
 11
641.54145
 21
306.088579
 31
0.0
  0
SOLID
  5
2C9
100
AcDbEntity
  8
0
  6
Continuous
 62
     0
100
AcDbTrace
 10
561.976465
 20
303.58862
 30
0.0
 11
573.975787
 21
306.088579
 31
0.0
 12
561.976465
 22
308.588538
 32
0.0
 13
561.976465
 23
308.588538
 33
0.0
  0
SOLID
  5
2CA
100
AcDbEntity
  8
0
  6
Continuous
 62
     0
100
AcDbTrace
 10
604.7242
 20
308.588538
 30
0.0
 11
592.724878
 21
306.088579
 31
0.0
 12
604.7242
 22
303.58862
 32
0.0
 13
604.7242
 23
303.58862
 33
0.0
  0
ENDBLK
  5
2CB
100
AcDbEntity
  8
0
100
AcDbBlockEnd
  0
BLOCK
  5
2CE
100
AcDbEntity
  8
0
100
AcDbBlockBegin
  2
*B7
 70
     0
 10
0.0
 20
0.0
 30
0.0
  3
*B7
  1

  0
LINE
  5
2CF
100
AcDbEntity
  8
0
  6
Continuous
 62
     0
100
AcDbLine
 10
290.243675
 20
330.087223
 30
0.0
 11
214.622923
 21
330.087223
 31
0.0
  0
SOLID
  5
2D0
100
AcDbEntity
  8
0
  6
Continuous
 62
     0
100
AcDbTrace
 10
278.244353
 20
327.587264
 30
0.0
 11
290.243675
 21
330.087223
 31
0.0
 12
278.244353
 22
332.587182
 32
0.0
 13
278.244353
 23
332.587182
 33
0.0
  0
SOLID
  5
2D1
100
AcDbEntity
  8
0
  6
Continuous
 62
     0
100
AcDbTrace
 10
226.622245
 20
332.587182
 30
0.0
 11
214.622923
 21
330.087223
 31
0.0
 12
226.622245
 22
327.587264
 32
0.0
 13
226.622245
 23
327.587264
 33
0.0
  0
ENDBLK
  5
2D2
100
AcDbEntity
  8
0
100
AcDbBlockEnd
  0
BLOCK
  5
2D5
100
AcDbEntity
  8
0
100
AcDbBlockBegin
  2
*B8
 70
     0
 10
0.0
 20
0.0
 30
0.0
  3
*B8
  1

  0
LINE
  5
2D6
100
AcDbEntity
  8
0
  6
Continuous
 62
     0
100
AcDbLine
 10
290.243675
 20
330.087223
 30
0.0
 11
365.863825
 21
330.087223
 31
0.0
  0
SOLID
  5
2D7
100
AcDbEntity
  8
0
  6
Continuous
 62
     0
100
AcDbTrace
 10
302.242997
 20
332.587182
 30
0.0
 11
290.243675
 21
330.087223
 31
0.0
 12
302.242997
 22
327.587264
 32
0.0
 13
302.242997
 23
327.587264
 33
0.0
  0
SOLID
  5
2D8
100
AcDbEntity
  8
0
  6
Continuous
 62
     0
100
AcDbTrace
 10
353.864503
 20
327.587264
 30
0.0
 11
365.863825
 21
330.087223
 31
0.0
 12
353.864503
 22
332.587182
 32
0.0
 13
353.864503
 23
332.587182
 33
0.0
  0
ENDBLK
  5
2D9
100
AcDbEntity
  8
0
100
AcDbBlockEnd
  0
BLOCK
  5
2DC
100
AcDbEntity
  8
0
100
AcDbBlockBegin
  2
*B9
 70
     0
 10
0.0
 20
0.0
 30
0.0
  3
*B9
  1

  0
LINE
  5
2DD
100
AcDbEntity
  8
0
  6
Continuous
 62
     0
100
AcDbLine
 10
365.863825
 20
330.087223
 30
0.0
 11
441.483976
 21
330.087223
 31
0.0
  0
SOLID
  5
2DE
100
AcDbEntity
  8
0
  6
Continuous
 62
     0
100
AcDbTrace
 10
377.863147
 20
332.587182
 30
0.0
 11
365.863825
 21
330.087223
 31
0.0
 12
377.863147
 22
327.587264
 32
0.0
 13
377.863147
 23
327.587264
 33
0.0
  0
SOLID
  5
2DF
100
AcDbEntity
  8
0
  6
Continuous
 62
     0
100
AcDbTrace
 10
429.484654
 20
327.587264
 30
0.0
 11
441.483976
 21
330.087223
 31
0.0
 12
429.484654
 22
332.587182
 32
0.0
 13
429.484654
 23
332.587182
 33
0.0
  0
ENDBLK
  5
2E0
100
AcDbEntity
  8
0
100
AcDbBlockEnd
  0
BLOCK
  5
2E3
100
AcDbEntity
  8
0
100
AcDbBlockBegin
  2
*B10
 70
     0
 10
0.0
 20
0.0
 30
0.0
  3
*B10
  1

  0
LINE
  5
2E4
100
AcDbEntity
  8
0
  6
Continuous
 62
     0
100
AcDbLine
 10
441.483976
 20
330.087223
 30
0.0
 11
517.104728
 21
330.087223
 31
0.0
  0
SOLID
  5
2E5
100
AcDbEntity
  8
0
  6
Continuous
 62
     0
100
AcDbTrace
 10
453.483298
 20
332.587182
 30
0.0
 11
441.483976
 21
330.087223
 31
0.0
 12
453.483298
 22
327.587264
 32
0.0
 13
453.483298
 23
327.587264
 33
0.0
  0
SOLID
  5
2E6
100
AcDbEntity
  8
0
  6
Continuous
 62
     0
100
AcDbTrace
 10
505.105406
 20
327.587264
 30
0.0
 11
517.104728
 21
330.087223
 31
0.0
 12
505.105406
 22
332.587182
 32
0.0
 13
505.105406
 23
332.587182
 33
0.0
  0
ENDBLK
  5
2E7
100
AcDbEntity
  8
0
100
AcDbBlockEnd
  0
BLOCK
  5
2EA
100
AcDbEntity
  8
0
100
AcDbBlockBegin
  2
*B11
 70
     0
 10
0.0
 20
0.0
 30
0.0
  3
*B11
  1

  0
LINE
  5
2EB
100
AcDbEntity
  8
0
  6
Continuous
 62
     0
100
AcDbLine
 10
517.104728
 20
330.087223
 30
0.0
 11
592.724878
 21
330.087223
 31
0.0
  0
SOLID
  5
2EC
100
AcDbEntity
  8
0
  6
Continuous
 62
     0
100
AcDbTrace
 10
529.104049
 20
332.587182
 30
0.0
 11
517.104728
 21
330.087223
 31
0.0
 12
529.104049
 22
327.587264
 32
0.0
 13
529.104049
 23
327.587264
 33
0.0
  0
SOLID
  5
2ED
100
AcDbEntity
  8
0
  6
Continuous
 62
     0
100
AcDbTrace
 10
580.725556
 20
327.587264
 30
0.0
 11
592.724878
 21
330.087223
 31
0.0
 12
580.725556
 22
332.587182
 32
0.0
 13
580.725556
 23
332.587182
 33
0.0
  0
ENDBLK
  5
2EE
100
AcDbEntity
  8
0
100
AcDbBlockEnd
  0
BLOCK
  5
2F1
100
AcDbEntity
  8
0
100
AcDbBlockBegin
  2
*B12
 70
     0
 10
0.0
 20
0.0
 30
0.0
  3
*B12
  1

  0
LINE
  5
2F2
100
AcDbEntity
  8
0
  6
Continuous
 62
     0
100
AcDbLine
 10
189.988462
 20
110.838533
 30
0.0
 11
189.988462
 21
246.996069
 31
0.0
  0
SOLID
  5
2F3
100
AcDbEntity
  8
0
  6
Continuous
 62
     0
100
AcDbTrace
 10
192.488421
 20
122.837855
 30
0.0
 11
189.988462
 21
134.837177
 31
0.0
 12
187.488503
 22
122.837855
 32
0.0
 13
187.488503
 23
122.837855
 33
0.0
  0
SOLID
  5
2F4
100
AcDbEntity
  8
0
  6
Continuous
 62
     0
100
AcDbTrace
 10
187.488503
 20
193.834645
 30
0.0
 11
189.988462
 21
181.835323
 31
0.0
 12
192.488421
 22
193.834645
 32
0.0
 13
192.488421
 23
193.834645
 33
0.0
  0
ENDBLK
  5
2F5
100
AcDbEntity
  8
0
100
AcDbBlockEnd
  0
BLOCK
  5
2F8
100
AcDbEntity
  8
0
100
AcDbBlockBegin
  2
*B13
 70
     0
 10
0.0
 20
0.0
 30
0.0
  3
*B13
  1

  0
LINE
  5
2F9
100
AcDbEntity
  8
0
  6
Continuous
 62
     0
100
AcDbLine
 10
159.990157
 20
158.336551
 30
0.0
 11
159.990157
 21
238.332833
 31
0.0
  0
SOLID
  5
2FA
100
AcDbEntity
  8
0
  6
Continuous
 62
     0
100
AcDbTrace
 10
157.4908
 20
170.335873
 30
0.0
 11
159.990157
 21
158.336551
 31
0.0
 12
162.490116
 22
170.335873
 32
0.0
 13
162.490116
 23
170.335873
 33
0.0
  0
SOLID
  5
2FB
100
AcDbEntity
  8
0
  6
Continuous
 62
     0
100
AcDbTrace
 10
162.490116
 20
226.332909
 30
0.0
 11
159.990157
 21
238.332833
 31
0.0
 12
157.4908
 22
226.332909
 32
0.0
 13
157.4908
 23
226.332909
 33
0.0
  0
ENDBLK
  5
2FC
100
AcDbEntity
  8
0
100
AcDbBlockEnd
  0
BLOCK
  5
2FF
100
AcDbEntity
  8
0
100
AcDbBlockBegin
  2
*B14
 70
     0
 10
0.0
 20
0.0
 30
0.0
  3
*B14
  1

  0
LINE
  5
300
100
AcDbEntity
  8
0
  6
Continuous
 62
     0
100
AcDbLine
 10
159.990157
 20
158.336551
 30
0.0
 11
159.990157
 21
78.340269
 31
0.0
  0
SOLID
  5
301
100
AcDbEntity
  8
0
  6
Continuous
 62
     0
100
AcDbTrace
 10
162.490116
 20
146.336627
 30
0.0
 11
159.990157
 21
158.336551
 31
0.0
 12
157.4908
 22
146.336627
 32
0.0
 13
157.4908
 23
146.336627
 33
0.0
  0
SOLID
  5
302
100
AcDbEntity
  8
0
  6
Continuous
 62
     0
100
AcDbTrace
 10
157.4908
 20
90.339591
 30
0.0
 11
159.990157
 21
78.340269
 31
0.0
 12
162.490116
 22
90.339591
 32
0.0
 13
162.490116
 23
90.339591
 33
0.0
  0
ENDBLK
  5
303
100
AcDbEntity
  8
0
100
AcDbBlockEnd
  0
BLOCK
  5
306
100
AcDbEntity
  8
0
100
AcDbBlockBegin
  2
*B15
 70
     0
 10
0.0
 20
0.0
 30
0.0
  3
*B15
  1

  0
LINE
  5
307
100
AcDbEntity
  8
0
  6
Continuous
 62
     0
100
AcDbLine
 10
129.992454
 20
283.33029
 30
0.0
 11
129.992454
 21
33.342211
 31
0.0
  0
SOLID
  5
308
100
AcDbEntity
  8
0
  6
Continuous
 62
     0
100
AcDbTrace
 10
132.491811
 20
271.330968
 30
0.0
 11
129.992454
 21
283.33029
 31
0.0
 12
127.492495
 22
271.330968
 32
0.0
 13
127.492495
 23
271.330968
 33
0.0
  0
SOLID
  5
309
100
AcDbEntity
  8
0
  6
Continuous
 62
     0
100
AcDbTrace
 10
127.492495
 20
45.341532
 30
0.0
 11
129.992454
 21
33.342211
 31
0.0
 12
132.491811
 22
45.341532
 32
0.0
 13
132.491811
 23
45.341532
 33
0.0
  0
ENDBLK
  5
30A
100
AcDbEntity
  8
0
100
AcDbBlockEnd
  0
BLOCK
  5
30D
100
AcDbEntity
  8
0
100
AcDbBlockBegin
  2
*B16
 70
     0
 10
0.0
 20
0.0
 30
0.0
  3
*B16
  1

  0
LINE
  5
30E
100
AcDbEntity
  8
0
  6
Continuous
 62
     0
100
AcDbLine
 10
189.988462
 20
421.833191
 30
0.0
 11
189.988462
 21
359.336021
 31
0.0
  0
SOLID
  5
30F
100
AcDbEntity
  8
0
  6
Continuous
 62
     0
100
AcDbTrace
 10
192.488421
 20
409.833869
 30
0.0
 11
189.988462
 21
421.833191
 31
0.0
 12
187.488503
 22
409.833869
 32
0.0
 13
187.488503
 23
409.833869
 33
0.0
  0
SOLID
  5
310
100
AcDbEntity
  8
0
  6
Continuous
 62
     0
100
AcDbTrace
 10
187.488503
 20
371.335343
 30
0.0
 11
189.988462
 21
359.336021
 31
0.0
 12
192.488421
 22
371.335343
 32
0.0
 13
192.488421
 23
371.335343
 33
0.0
  0
ENDBLK
  5
311
100
AcDbEntity
  8
0
100
AcDbBlockEnd
  0
BLOCK
  5
314
100
AcDbEntity
  8
0
100
AcDbBlockBegin
  2
*B17
 70
     0
 10
0.0
 20
0.0
 30
0.0
  3
*B17
  1

  0
LINE
  5
315
100
AcDbEntity
  8
0
  6
Continuous
 62
     0
100
AcDbLine
 10
621.961646
 20
198.334692
 30
0.0
 11
621.961646
 21
118.33841
 31
0.0
  0
SOLID
  5
316
100
AcDbEntity
  8
0
  6
Continuous
 62
     0
100
AcDbTrace
 10
624.461605
 20
186.334768
 30
0.0
 11
621.961646
 21
198.334692
 31
0.0
 12
619.462288
 22
186.334768
 32
0.0
 13
619.462288
 23
186.334768
 33
0.0
  0
SOLID
  5
317
100
AcDbEntity
  8
0
  6
Continuous
 62
     0
100
AcDbTrace
 10
619.462288
 20
130.337732
 30
0.0
 11
621.961646
 21
118.33841
 31
0.0
 12
624.461605
 22
130.337732
 32
0.0
 13
624.461605
 23
130.337732
 33
0.0
  0
ENDBLK
  5
318
100
AcDbEntity
  8
0
100
AcDbBlockEnd
  0
BLOCK
  5
31B
100
AcDbEntity
  8
0
100
AcDbBlockBegin
  2
*B18
 70
     0
 10
0.0
 20
0.0
 30
0.0
  3
*B18
  1

  0
LINE
  5
31C
100
AcDbEntity
  8
0
  6
Continuous
 62
     0
100
AcDbLine
 10
290.243675
 20
591.530841
 30
0.0
 11
365.863825
 21
591.530841
 31
0.0
  0
SOLID
  5
31D
100
AcDbEntity
  8
0
  6
Continuous
 62
     0
100
AcDbTrace
 10
302.242997
 20
594.0308
 30
0.0
 11
290.243675
 21
591.530841
 31
0.0
 12
302.242997
 22
589.031483
 32
0.0
 13
302.242997
 23
589.031483
 33
0.0
  0
SOLID
  5
31E
100
AcDbEntity
  8
0
  6
Continuous
 62
     0
100
AcDbTrace
 10
353.864503
 20
589.031483
 30
0.0
 11
365.863825
 21
591.530841
 31
0.0
 12
353.864503
 22
594.0308
 32
0.0
 13
353.864503
 23
594.0308
 33
0.0
  0
ENDBLK
  5
31F
100
AcDbEntity
  8
0
100
AcDbBlockEnd
  0
BLOCK
  5
322
100
AcDbEntity
  8
0
100
AcDbBlockBegin
  2
*B19
 70
     0
 10
0.0
 20
0.0
 30
0.0
  3
*B19
  1

  0
LINE
  5
323
100
AcDbEntity
  8
0
  6
Continuous
 62
     0
100
AcDbLine
 10
365.863825
 20
591.530841
 30
0.0
 11
441.483976
 21
591.530841
 31
0.0
  0
SOLID
  5
324
100
AcDbEntity
  8
0
  6
Continuous
 62
     0
100
AcDbTrace
 10
377.863147
 20
594.0308
 30
0.0
 11
365.863825
 21
591.530841
 31
0.0
 12
377.863147
 22
589.031483
 32
0.0
 13
377.863147
 23
589.031483
 33
0.0
  0
SOLID
  5
325
100
AcDbEntity
  8
0
  6
Continuous
 62
     0
100
AcDbTrace
 10
429.484654
 20
589.031483
 30
0.0
 11
441.483976
 21
591.530841
 31
0.0
 12
429.484654
 22
594.0308
 32
0.0
 13
429.484654
 23
594.0308
 33
0.0
  0
ENDBLK
  5
326
100
AcDbEntity
  8
0
100
AcDbBlockEnd
  0
BLOCK
  5
329
100
AcDbEntity
  8
0
100
AcDbBlockBegin
  2
*B20
 70
     0
 10
0.0
 20
0.0
 30
0.0
  3
*B20
  1

  0
LINE
  5
32A
100
AcDbEntity
  8
0
  6
Continuous
 62
     0
100
AcDbLine
 10
189.988462
 20
421.833191
 30
0.0
 11
189.988462
 21
571.825918
 31
0.0
  0
SOLID
  5
32B
100
AcDbEntity
  8
0
  6
Continuous
 62
     0
100
AcDbTrace
 10
187.488503
 20
433.832513
 30
0.0
 11
189.988462
 21
421.833191
 31
0.0
 12
192.488421
 22
433.832513
 32
0.0
 13
192.488421
 23
433.832513
 33
0.0
  0
SOLID
  5
32C
100
AcDbEntity
  8
0
  6
Continuous
 62
     0
100
AcDbTrace
 10
192.488421
 20
559.826596
 30
0.0
 11
189.988462
 21
571.825918
 31
0.0
 12
187.488503
 22
559.826596
 32
0.0
 13
187.488503
 23
559.826596
 33
0.0
  0
ENDBLK
  5
32D
100
AcDbEntity
  8
0
100
AcDbBlockEnd
  0
BLOCK
  5
330
100
AcDbEntity
  8
0
100
AcDbBlockBegin
  2
*B21
 70
     0
 10
0.0
 20
0.0
 30
0.0
  3
*B21
  1

  0
LINE
  5
331
100
AcDbEntity
  8
0
  6
Continuous
 62
     0
100
AcDbLine
 10
241.246644
 20
5.10278
 30
0.0
 11
339.240706
 21
5.10278
 31
0.0
  0
SOLID
  5
332
100
AcDbEntity
  8
0
  6
Continuous
 62
     0
100
AcDbTrace
 10
253.245966
 20
2.602821
 30
0.0
 11
265.245288
 21
5.10278
 31
0.0
 12
253.245966
 22
7.602739
 32
0.0
 13
253.245966
 23
7.602739
 33
0.0
  0
SOLID
  5
333
100
AcDbEntity
  8
0
  6
Continuous
 62
     0
100
AcDbTrace
 10
327.241384
 20
7.602739
 30
0.0
 11
315.242062
 21
5.10278
 31
0.0
 12
327.241384
 22
2.602821
 32
0.0
 13
327.241384
 23
2.602821
 33
0.0
  0
ENDBLK
  5
334
100
AcDbEntity
  8
0
100
AcDbBlockEnd
  0
BLOCK
  5
337
100
AcDbEntity
  8
0
100
AcDbBlockBegin
  2
*B22
 70
     0
 10
0.0
 20
0.0
 30
0.0
  3
*B22
  1

  0
LINE
  5
338
100
AcDbEntity
  8
0
  6
Continuous
 62
     0
100
AcDbLine
 10
541.72776
 20
460.081481
 30
0.0
 11
633.08514
 21
460.081481
 31
0.0
  0
SOLID
  5
339
100
AcDbEntity
  8
0
  6
Continuous
 62
     0
100
AcDbTrace
 10
553.727082
 20
457.581522
 30
0.0
 11
565.726403
 21
460.081481
 31
0.0
 12
553.727082
 22
462.58144
 32
0.0
 13
553.727082
 23
462.58144
 33
0.0
  0
SOLID
  5
33A
100
AcDbEntity
  8
0
  6
Continuous
 62
     0
100
AcDbTrace
 10
594.224492
 20
462.58144
 30
0.0
 11
582.225772
 21
460.081481
 31
0.0
 12
594.224492
 22
457.581522
 32
0.0
 13
594.224492
 23
457.581522
 33
0.0
  0
ENDBLK
  5
33B
100
AcDbEntity
  8
0
100
AcDbBlockEnd
  0
BLOCK
  5
33E
100
AcDbEntity
  8
0
100
AcDbBlockBegin
  2
*B23
 70
     0
 10
0.0
 20
0.0
 30
0.0
  3
*B23
  1

  0
LINE
  5
33F
100
AcDbEntity
  8
0
  6
Continuous
 62
     0
100
AcDbLine
 10
441.483976
 20
591.530841
 30
0.0
 11
517.104728
 21
591.530841
 31
0.0
  0
SOLID
  5
340
100
AcDbEntity
  8
0
  6
Continuous
 62
     0
100
AcDbTrace
 10
453.483298
 20
594.0308
 30
0.0
 11
441.483976
 21
591.530841
 31
0.0
 12
453.483298
 22
589.031483
 32
0.0
 13
453.483298
 23
589.031483
 33
0.0
  0
SOLID
  5
341
100
AcDbEntity
  8
0
  6
Continuous
 62
     0
100
AcDbTrace
 10
505.105406
 20
589.031483
 30
0.0
 11
517.104728
 21
591.530841
 31
0.0
 12
505.105406
 22
594.0308
 32
0.0
 13
505.105406
 23
594.0308
 33
0.0
  0
ENDBLK
  5
342
100
AcDbEntity
  8
0
100
AcDbBlockEnd
  0
BLOCK
  5
345
100
AcDbEntity
  8
0
100
AcDbBlockBegin
  2
*B24
 70
     0
 10
0.0
 20
0.0
 30
0.0
  3
*B24
  1

  0
LINE
  5
346
100
AcDbEntity
  8
0
  6
Continuous
 62
     0
100
AcDbLine
 10
649.959863
 20
48.341363
 30
0.0
 11
649.959863
 21
268.331137
 31
0.0
  0
SOLID
  5
347
100
AcDbEntity
  8
0
  6
Continuous
 62
     0
100
AcDbTrace
 10
647.460505
 20
60.340685
 30
0.0
 11
649.959863
 21
48.341363
 31
0.0
 12
652.459822
 22
60.340685
 32
0.0
 13
652.459822
 23
60.340685
 33
0.0
  0
SOLID
  5
348
100
AcDbEntity
  8
0
  6
Continuous
 62
     0
100
AcDbTrace
 10
652.459822
 20
256.331815
 30
0.0
 11
649.959863
 21
268.331137
 31
0.0
 12
647.460505
 22
256.331815
 32
0.0
 13
647.460505
 23
256.331815
 33
0.0
  0
ENDBLK
  5
349
100
AcDbEntity
  8
0
100
AcDbBlockEnd
  0
BLOCK
  5
34C
100
AcDbEntity
  8
0
100
AcDbBlockBegin
  2
*B25
 70
     0
 10
0.0
 20
0.0
 30
0.0
  3
*B25
  1

  0
LINE
  5
34D
100
AcDbEntity
  8
0
  6
Continuous
 62
     8
100
AcDbLine
 10
187.988374
 20
134.837177
 30
0.0
 11
208.623262
 21
134.837177
 31
0.0
  0
ENDBLK
  5
34E
100
AcDbEntity
  8
0
100
AcDbBlockEnd
  0
BLOCK
  5
351
100
AcDbEntity
  8
0
100
AcDbBlockBegin
  2
*B26
 70
     0
 10
0.0
 20
0.0
 30
0.0
  3
*B26
  1

  0
LINE
  5
352
100
AcDbEntity
  8
0
  6
Continuous
 62
     8
100
AcDbLine
 10
127.992366
 20
33.342211
 30
0.0
 11
208.623262
 21
33.342211
 31
0.0
  0
ENDBLK
  5
353
100
AcDbEntity
  8
0
100
AcDbBlockEnd
  0
BLOCK
  5
356
100
AcDbEntity
  8
0
100
AcDbBlockBegin
  2
*B27
 70
     0
 10
0.0
 20
0.0
 30
0.0
  3
*B27
  1

  0
LINE
  5
357
100
AcDbEntity
  8
0
  6
Continuous
 62
     8
100
AcDbLine
 10
214.622923
 20
289.329951
 30
0.0
 11
214.622923
 21
332.08731
 31
0.0
  0
ENDBLK
  5
358
100
AcDbEntity
  8
0
100
AcDbBlockEnd
  0
BLOCK
  5
35B
100
AcDbEntity
  8
0
100
AcDbBlockBegin
  2
*B28
 70
     0
 10
0.0
 20
0.0
 30
0.0
  3
*B28
  1

  0
LINE
  5
35C
100
AcDbEntity
  8
0
  6
Continuous
 62
     8
100
AcDbLine
 10
340.865438
 20
29.842509
 30
0.0
 11
340.865438
 21
41.341959
 31
0.0
  0
LINE
  5
35D
100
AcDbEntity
  8
0
  6
Continuous
 62
     8
100
AcDbLine
 10
340.865438
 20
55.341368
 30
0.0
 11
340.865438
 21
66.840819
 31
0.0
  0
ENDBLK
  5
35E
100
AcDbEntity
  8
0
100
AcDbBlockEnd
  0
BLOCK
  5
361
100
AcDbEntity
  8
0
100
AcDbBlockBegin
  2
*B29
 70
     0
 10
0.0
 20
0.0
 30
0.0
  3
*B29
  1

  0
LINE
  5
362
100
AcDbEntity
  8
0
  6
Continuous
 62
     8
100
AcDbLine
 10
517.104728
 20
589.531355
 30
0.0
 11
517.104728
 21
593.530928
 31
0.0
  0
LINE
  5
363
100
AcDbEntity
  8
0
  6
Continuous
 62
     8
100
AcDbLine
 10
517.104728
 20
415.83353
 30
0.0
 11
517.104728
 21
428.647925
 31
0.0
  0
LINE
  5
364
100
AcDbEntity
  8
0
  6
Continuous
 62
     8
100
AcDbLine
 10
517.104728
 20
434.647586
 30
0.0
 11
517.104728
 21
436.647674
 31
0.0
  0
LINE
  5
365
100
AcDbEntity
  8
0
  6
Continuous
 62
     8
100
AcDbLine
 10
517.104728
 20
442.647335
 30
0.0
 11
517.104728
 21
455.46173
 31
0.0
  0
LINE
  5
366
100
AcDbEntity
  8
0
  6
Continuous
 62
     8
100
AcDbLine
 10
517.104728
 20
461.461391
 30
0.0
 11
517.104728
 21
463.461478
 31
0.0
  0
LINE
  5
367
100
AcDbEntity
  8
0
  6
Continuous
 62
     8
100
AcDbLine
 10
517.104728
 20
469.461139
 30
0.0
 11
517.104728
 21
482.275535
 31
0.0
  0
LINE
  5
368
100
AcDbEntity
  8
0
  6
Continuous
 62
     8
100
AcDbLine
 10
517.104728
 20
488.275196
 30
0.0
 11
517.104728
 21
490.275283
 31
0.0
  0
LINE
  5
369
100
AcDbEntity
  8
0
  6
Continuous
 62
     8
100
AcDbLine
 10
517.104728
 20
496.274944
 30
0.0
 11
517.104728
 21
509.089339
 31
0.0
  0
LINE
  5
36A
100
AcDbEntity
  8
0
  6
Continuous
 62
     8
100
AcDbLine
 10
517.104728
 20
515.089602
 30
0.0
 11
517.104728
 21
517.089088
 31
0.0
  0
LINE
  5
36B
100
AcDbEntity
  8
0
  6
Continuous
 62
     8
100
AcDbLine
 10
517.104728
 20
523.088749
 30
0.0
 11
517.104728
 21
535.903745
 31
0.0
  0
LINE
  5
36C
100
AcDbEntity
  8
0
  6
Continuous
 62
     8
100
AcDbLine
 10
517.104728
 20
541.903406
 30
0.0
 11
517.104728
 21
543.902892
 31
0.0
  0
LINE
  5
36D
100
AcDbEntity
  8
0
  6
Continuous
 62
     8
100
AcDbLine
 10
517.104728
 20
549.903155
 30
0.0
 11
517.104728
 21
562.71755
 31
0.0
  0
LINE
  5
36E
100
AcDbEntity
  8
0
  6
Continuous
 62
     8
100
AcDbLine
 10
517.104728
 20
568.717211
 30
0.0
 11
517.104728
 21
570.716697
 31
0.0
  0
LINE
  5
36F
100
AcDbEntity
  8
0
  6
Continuous
 62
     8
100
AcDbLine
 10
517.104728
 20
576.716959
 30
0.0
 11
517.104728
 21
589.531355
 31
0.0
  0
ENDBLK
  5
370
100
AcDbEntity
  8
0
100
AcDbBlockEnd
  0
BLOCK
  5
373
100
AcDbEntity
  8
0
100
AcDbBlockBegin
  2
*B30
 70
     0
 10
0.0
 20
0.0
 30
0.0
  3
*B30
  1

  0
LINE
  5
374
100
AcDbEntity
  8
0
  6
Continuous
 62
     8
100
AcDbLine
 10
517.104728
 20
121.088004
 30
0.0
 11
517.104728
 21
151.336545
 31
0.0
  0
LINE
  5
375
100
AcDbEntity
  8
0
  6
Continuous
 62
     8
100
AcDbLine
 10
517.104728
 20
165.335955
 30
0.0
 11
517.104728
 21
195.584496
 31
0.0
  0
ENDBLK
  5
376
100
AcDbEntity
  8
0
100
AcDbBlockEnd
  0
BLOCK
  5
379
100
AcDbEntity
  8
0
100
AcDbBlockBegin
  2
*B31
 70
     0
 10
0.0
 20
0.0
 30
0.0
  3
*B31
  1

  0
LINE
  5
37A
100
AcDbEntity
  8
0
  6
Continuous
 62
     8
100
AcDbLine
 10
517.104728
 20
41.091722
 30
0.0
 11
517.104728
 21
71.340264
 31
0.0
  0
LINE
  5
37B
100
AcDbEntity
  8
0
  6
Continuous
 62
     8
100
AcDbLine
 10
517.104728
 20
85.339673
 30
0.0
 11
517.104728
 21
115.588215
 31
0.0
  0
ENDBLK
  5
37C
100
AcDbEntity
  8
0
100
AcDbBlockEnd
  0
BLOCK
  5
37F
100
AcDbEntity
  8
0
100
AcDbBlockBegin
  2
*B32
 70
     0
 10
0.0
 20
0.0
 30
0.0
  3
*B32
  1

  0
LINE
  5
380
100
AcDbEntity
  8
0
  6
Continuous
 62
     8
100
AcDbLine
 10
390.862212
 20
249.832283
 30
0.0
 11
390.862212
 21
261.331733
 31
0.0
  0
LINE
  5
381
100
AcDbEntity
  8
0
  6
Continuous
 62
     8
100
AcDbLine
 10
390.862212
 20
275.331143
 30
0.0
 11
390.862212
 21
286.830593
 31
0.0
  0
ENDBLK
  5
382
100
AcDbEntity
  8
0
100
AcDbBlockEnd
  0
BLOCK
  5
385
100
AcDbEntity
  8
0
100
AcDbBlockBegin
  2
*B33
 70
     0
 10
0.0
 20
0.0
 30
0.0
  3
*B33
  1

  0
LINE
  5
386
100
AcDbEntity
  8
0
  6
Continuous
 62
     8
100
AcDbLine
 10
517.104728
 20
328.087737
 30
0.0
 11
517.104728
 21
332.08731
 31
0.0
  0
LINE
  5
387
100
AcDbEntity
  8
0
  6
Continuous
 62
     8
100
AcDbLine
 10
517.104728
 20
201.084286
 30
0.0
 11
517.104728
 21
231.332827
 31
0.0
  0
LINE
  5
388
100
AcDbEntity
  8
0
  6
Continuous
 62
     8
100
AcDbLine
 10
517.104728
 20
245.332237
 30
0.0
 11
517.104728
 21
263.584464
 31
0.0
  0
LINE
  5
389
100
AcDbEntity
  8
0
  6
Continuous
 62
     8
100
AcDbLine
 10
517.104728
 20
269.584125
 30
0.0
 11
517.104728
 21
271.584212
 31
0.0
  0
LINE
  5
38A
100
AcDbEntity
  8
0
  6
Continuous
 62
     8
100
AcDbLine
 10
517.104728
 20
277.583873
 30
0.0
 11
517.104728
 21
295.8361
 31
0.0
  0
LINE
  5
38B
100
AcDbEntity
  8
0
  6
Continuous
 62
     8
100
AcDbLine
 10
517.104728
 20
301.835761
 30
0.0
 11
517.104728
 21
303.835849
 31
0.0
  0
LINE
  5
38C
100
AcDbEntity
  8
0
  6
Continuous
 62
     8
100
AcDbLine
 10
517.104728
 20
309.83551
 30
0.0
 11
517.104728
 21
328.087737
 31
0.0
  0
ENDBLK
  5
38D
100
AcDbEntity
  8
0
100
AcDbBlockEnd
  0
BLOCK
  5
390
100
AcDbEntity
  8
0
100
AcDbBlockBegin
  2
*B34
 70
     0
 10
0.0
 20
0.0
 30
0.0
  3
*B34
  1

  0
LINE
  5
391
100
AcDbEntity
  8
0
  6
Continuous
 62
     8
100
AcDbLine
 10
573.975787
 20
104.088764
 30
0.0
 11
573.975787
 21
111.338405
 31
0.0
  0
LINE
  5
392
100
AcDbEntity
  8
0
  6
Continuous
 62
     8
100
AcDbLine
 10
573.975787
 20
125.337814
 30
0.0
 11
573.975787
 21
132.587455
 31
0.0
  0
ENDBLK
  5
393
100
AcDbEntity
  8
0
100
AcDbBlockEnd
  0
BLOCK
  5
396
100
AcDbEntity
  8
0
100
AcDbBlockBegin
  2
*B35
 70
     0
 10
0.0
 20
0.0
 30
0.0
  3
*B35
  1

  0
LINE
  5
397
100
AcDbEntity
  8
0
  6
Continuous
 62
     8
100
AcDbLine
 10
573.975787
 20
304.088491
 30
0.0
 11
573.975787
 21
308.088666
 31
0.0
  0
LINE
  5
398
100
AcDbEntity
  8
0
  6
Continuous
 62
     8
100
AcDbLine
 10
573.975787
 20
184.085046
 30
0.0
 11
573.975787
 21
191.334686
 31
0.0
  0
LINE
  5
399
100
AcDbEntity
  8
0
  6
Continuous
 62
     8
100
AcDbLine
 10
573.975787
 20
205.334096
 30
0.0
 11
573.975787
 21
219.522987
 31
0.0
  0
LINE
  5
39A
100
AcDbEntity
  8
0
  6
Continuous
 62
     8
100
AcDbLine
 10
573.975787
 20
225.52325
 30
0.0
 11
573.975787
 21
227.522736
 31
0.0
  0
LINE
  5
39B
100
AcDbEntity
  8
0
  6
Continuous
 62
     8
100
AcDbLine
 10
573.975787
 20
233.522397
 30
0.0
 11
573.975787
 21
247.71189
 31
0.0
  0
LINE
  5
39C
100
AcDbEntity
  8
0
  6
Continuous
 62
     8
100
AcDbLine
 10
573.975787
 20
253.71155
 30
0.0
 11
573.975787
 21
255.711036
 31
0.0
  0
LINE
  5
39D
100
AcDbEntity
  8
0
  6
Continuous
 62
     8
100
AcDbLine
 10
573.975787
 20
261.711299
 30
0.0
 11
573.975787
 21
275.90019
 31
0.0
  0
LINE
  5
39E
100
AcDbEntity
  8
0
  6
Continuous
 62
     8
100
AcDbLine
 10
573.975787
 20
281.899851
 30
0.0
 11
573.975787
 21
283.899939
 31
0.0
  0
LINE
  5
39F
100
AcDbEntity
  8
0
  6
Continuous
 62
     8
100
AcDbLine
 10
573.975787
 20
289.8996
 30
0.0
 11
573.975787
 21
304.088491
 31
0.0
  0
ENDBLK
  5
3A0
100
AcDbEntity
  8
0
100
AcDbBlockEnd
  0
BLOCK
  5
3A3
100
AcDbEntity
  8
0
100
AcDbBlockBegin
  2
*B36
 70
     0
 10
0.0
 20
0.0
 30
0.0
  3
*B36
  1

  0
LINE
  5
3A4
100
AcDbEntity
  8
0
  6
Continuous
 62
     8
100
AcDbLine
 10
573.975787
 20
353.33636
 30
0.0
 11
573.975787
 21
368.835384
 31
0.0
  0
LINE
  5
3A5
100
AcDbEntity
  8
0
  6
Continuous
 62
     8
100
AcDbLine
 10
573.975787
 20
374.835646
 30
0.0
 11
573.975787
 21
376.835132
 31
0.0
  0
LINE
  5
3A6
100
AcDbEntity
  8
0
  6
Continuous
 62
     8
100
AcDbLine
 10
573.975787
 20
382.834793
 30
0.0
 11
573.975787
 21
398.334419
 31
0.0
  0
LINE
  5
3A7
100
AcDbEntity
  8
0
  6
Continuous
 62
     8
100
AcDbLine
 10
573.975787
 20
404.33408
 30
0.0
 11
573.975787
 21
406.334167
 31
0.0
  0
LINE
  5
3A8
100
AcDbEntity
  8
0
  6
Continuous
 62
     8
100
AcDbLine
 10
573.975787
 20
412.333828
 30
0.0
 11
573.975787
 21
427.832852
 31
0.0
  0
ENDBLK
  5
3A9
100
AcDbEntity
  8
0
100
AcDbBlockEnd
  0
BLOCK
  5
3AC
100
AcDbEntity
  8
0
100
AcDbBlockBegin
  2
*B37
 70
     0
 10
0.0
 20
0.0
 30
0.0
  3
*B37
  1

  0
LINE
  5
3AD
100
AcDbEntity
  8
0
  6
Continuous
 62
     8
100
AcDbLine
 10
208.623262
 20
390.584907
 30
0.0
 11
219.880898
 21
390.584907
 31
0.0
  0
LINE
  5
3AE
100
AcDbEntity
  8
0
  6
Continuous
 62
     8
100
AcDbLine
 10
225.879957
 20
390.584907
 30
0.0
 11
227.880044
 21
390.584907
 31
0.0
  0
LINE
  5
3AF
100
AcDbEntity
  8
0
  6
Continuous
 62
     8
100
AcDbLine
 10
233.879705
 20
390.584907
 30
0.0
 11
245.136739
 21
390.584907
 31
0.0
  0
LINE
  5
3B0
100
AcDbEntity
  8
0
  6
Continuous
 62
     8
100
AcDbLine
 10
251.1364
 20
390.584907
 30
0.0
 11
253.136488
 21
390.584907
 31
0.0
  0
LINE
  5
3B1
100
AcDbEntity
  8
0
  6
Continuous
 62
     8
100
AcDbLine
 10
259.136149
 20
390.584907
 30
0.0
 11
270.393183
 21
390.584907
 31
0.0
  0
LINE
  5
3B2
100
AcDbEntity
  8
0
  6
Continuous
 62
     8
100
AcDbLine
 10
276.392843
 20
390.584907
 30
0.0
 11
278.392931
 21
390.584907
 31
0.0
  0
LINE
  5
3B3
100
AcDbEntity
  8
0
  6
Continuous
 62
     8
100
AcDbLine
 10
284.39199
 20
390.584907
 30
0.0
 11
295.649626
 21
390.584907
 31
0.0
  0
LINE
  5
3B4
100
AcDbEntity
  8
0
  6
Continuous
 62
     8
100
AcDbLine
 10
301.649287
 20
390.584907
 30
0.0
 11
303.648773
 21
390.584907
 31
0.0
  0
LINE
  5
3B5
100
AcDbEntity
  8
0
  6
Continuous
 62
     8
100
AcDbLine
 10
309.648434
 20
390.584907
 30
0.0
 11
320.905468
 21
390.584907
 31
0.0
  0
LINE
  5
3B6
100
AcDbEntity
  8
0
  6
Continuous
 62
     8
100
AcDbLine
 10
326.905128
 20
390.584907
 30
0.0
 11
328.905216
 21
390.584907
 31
0.0
  0
LINE
  5
3B7
100
AcDbEntity
  8
0
  6
Continuous
 62
     8
100
AcDbLine
 10
334.904877
 20
390.584907
 30
0.0
 11
346.161911
 21
390.584907
 31
0.0
  0
LINE
  5
3B8
100
AcDbEntity
  8
0
  6
Continuous
 62
     8
100
AcDbLine
 10
352.161572
 20
390.584907
 30
0.0
 11
354.161659
 21
390.584907
 31
0.0
  0
LINE
  5
3B9
100
AcDbEntity
  8
0
  6
Continuous
 62
     8
100
AcDbLine
 10
360.16132
 20
390.584907
 30
0.0
 11
371.418354
 21
390.584907
 31
0.0
  0
LINE
  5
3BA
100
AcDbEntity
  8
0
  6
Continuous
 62
     8
100
AcDbLine
 10
377.418015
 20
390.584907
 30
0.0
 11
379.417501
 21
390.584907
 31
0.0
  0
LINE
  5
3BB
100
AcDbEntity
  8
0
  6
Continuous
 62
     8
100
AcDbLine
 10
385.417162
 20
390.584907
 30
0.0
 11
396.674196
 21
390.584907
 31
0.0
  0
LINE
  5
3BC
100
AcDbEntity
  8
0
  6
Continuous
 62
     8
100
AcDbLine
 10
402.673857
 20
390.584907
 30
0.0
 11
404.673944
 21
390.584907
 31
0.0
  0
LINE
  5
3BD
100
AcDbEntity
  8
0
  6
Continuous
 62
     8
100
AcDbLine
 10
410.673605
 20
390.584907
 30
0.0
 11
421.930639
 21
390.584907
 31
0.0
  0
LINE
  5
3BE
100
AcDbEntity
  8
0
  6
Continuous
 62
     8
100
AcDbLine
 10
427.9303
 20
390.584907
 30
0.0
 11
429.930387
 21
390.584907
 31
0.0
  0
LINE
  5
3BF
100
AcDbEntity
  8
0
  6
Continuous
 62
     8
100
AcDbLine
 10
435.930048
 20
390.584907
 30
0.0
 11
447.187082
 21
390.584907
 31
0.0
  0
LINE
  5
3C0
100
AcDbEntity
  8
0
  6
Continuous
 62
     8
100
AcDbLine
 10
453.186743
 20
390.584907
 30
0.0
 11
455.186229
 21
390.584907
 31
0.0
  0
LINE
  5
3C1
100
AcDbEntity
  8
0
  6
Continuous
 62
     8
100
AcDbLine
 10
461.18589
 20
390.584907
 30
0.0
 11
472.442924
 21
390.584907
 31
0.0
  0
LINE
  5
3C2
100
AcDbEntity
  8
0
  6
Continuous
 62
     8
100
AcDbLine
 10
478.442585
 20
390.584907
 30
0.0
 11
480.442672
 21
390.584907
 31
0.0
  0
LINE
  5
3C3
100
AcDbEntity
  8
0
  6
Continuous
 62
     8
100
AcDbLine
 10
486.442333
 20
390.584907
 30
0.0
 11
497.699367
 21
390.584907
 31
0.0
  0
LINE
  5
3C4
100
AcDbEntity
  8
0
  6
Continuous
 62
     8
100
AcDbLine
 10
503.699028
 20
390.584907
 30
0.0
 11
505.699116
 21
390.584907
 31
0.0
  0
LINE
  5
3C5
100
AcDbEntity
  8
0
  6
Continuous
 62
     8
100
AcDbLine
 10
511.698777
 20
390.584907
 30
0.0
 11
522.955811
 21
390.584907
 31
0.0
  0
LINE
  5
3C6
100
AcDbEntity
  8
0
  6
Continuous
 62
     8
100
AcDbLine
 10
528.955472
 20
390.584907
 30
0.0
 11
530.954957
 21
390.584907
 31
0.0
  0
LINE
  5
3C7
100
AcDbEntity
  8
0
  6
Continuous
 62
     8
100
AcDbLine
 10
536.954618
 20
390.584907
 30
0.0
 11
548.211652
 21
390.584907
 31
0.0
  0
LINE
  5
3C8
100
AcDbEntity
  8
0
  6
Continuous
 62
     8
100
AcDbLine
 10
554.211915
 20
390.584907
 30
0.0
 11
556.211401
 21
390.584907
 31
0.0
  0
LINE
  5
3C9
100
AcDbEntity
  8
0
  6
Continuous
 62
     8
100
AcDbLine
 10
562.211062
 20
390.584907
 30
0.0
 11
573.468096
 21
390.584907
 31
0.0
  0
LINE
  5
3CA
100
AcDbEntity
  8
0
  6
Continuous
 62
     8
100
AcDbLine
 10
579.467757
 20
390.584907
 30
0.0
 11
581.467844
 21
390.584907
 31
0.0
  0
LINE
  5
3CB
100
AcDbEntity
  8
0
  6
Continuous
 62
     8
100
AcDbLine
 10
587.467505
 20
390.584907
 30
0.0
 11
598.724539
 21
390.584907
 31
0.0
  0
ENDBLK
  5
3CC
100
AcDbEntity
  8
0
100
AcDbBlockEnd
  0
BLOCK
  5
3CF
100
AcDbEntity
  8
0
100
AcDbBlockBegin
  2
*B38
 70
     0
 10
0.0
 20
0.0
 30
0.0
  3
*B38
  1

  0
LINE
  5
3D0
100
AcDbEntity
  8
0
  6
Continuous
 62
     8
100
AcDbLine
 10
397.986734
 20
48.341363
 30
0.0
 11
409.486185
 21
48.341363
 31
0.0
  0
LINE
  5
3D1
100
AcDbEntity
  8
0
  6
Continuous
 62
     8
100
AcDbLine
 10
423.484993
 20
48.341363
 30
0.0
 11
434.984443
 21
48.341363
 31
0.0
  0
ENDBLK
  5
3D2
100
AcDbEntity
  8
0
100
AcDbBlockEnd
  0
BLOCK
  5
3D5
100
AcDbEntity
  8
0
100
AcDbBlockBegin
  2
*B39
 70
     0
 10
0.0
 20
0.0
 30
0.0
  3
*B39
  1

  0
LINE
  5
3D6
100
AcDbEntity
  8
0
  6
Continuous
 62
     8
100
AcDbLine
 10
365.863825
 20
121.088004
 30
0.0
 11
365.863825
 21
151.336545
 31
0.0
  0
LINE
  5
3D7
100
AcDbEntity
  8
0
  6
Continuous
 62
     8
100
AcDbLine
 10
365.863825
 20
165.335955
 30
0.0
 11
365.863825
 21
195.584496
 31
0.0
  0
ENDBLK
  5
3D8
100
AcDbEntity
  8
0
100
AcDbBlockEnd
  0
BLOCK
  5
3DB
100
AcDbEntity
  8
0
100
AcDbBlockBegin
  2
*B40
 70
     0
 10
0.0
 20
0.0
 30
0.0
  3
*B40
  1

  0
LINE
  5
3DC
100
AcDbEntity
  8
0
  6
Continuous
 62
     8
100
AcDbLine
 10
157.990671
 20
78.340269
 30
0.0
 11
161.990245
 21
78.340269
 31
0.0
  0
LINE
  5
3DD
100
AcDbEntity
  8
0
  6
Continuous
 62
     8
100
AcDbLine
 10
161.990245
 20
78.340269
 30
0.0
 11
175.041643
 21
78.340269
 31
0.0
  0
LINE
  5
3DE
100
AcDbEntity
  8
0
  6
Continuous
 62
     8
100
AcDbLine
 10
181.041304
 20
78.340269
 30
0.0
 11
183.041391
 21
78.340269
 31
0.0
  0
LINE
  5
3DF
100
AcDbEntity
  8
0
  6
Continuous
 62
     8
100
AcDbLine
 10
189.041052
 20
78.340269
 30
0.0
 11
202.09245
 21
78.340269
 31
0.0
  0
LINE
  5
3E0
100
AcDbEntity
  8
0
  6
Continuous
 62
     8
100
AcDbLine
 10
208.092111
 20
78.340269
 30
0.0
 11
210.091597
 21
78.340269
 31
0.0
  0
LINE
  5
3E1
100
AcDbEntity
  8
0
  6
Continuous
 62
     8
100
AcDbLine
 10
216.091258
 20
78.340269
 30
0.0
 11
229.142656
 21
78.340269
 31
0.0
  0
LINE
  5
3E2
100
AcDbEntity
  8
0
  6
Continuous
 62
     8
100
AcDbLine
 10
235.142317
 20
78.340269
 30
0.0
 11
237.142405
 21
78.340269
 31
0.0
  0
LINE
  5
3E3
100
AcDbEntity
  8
0
  6
Continuous
 62
     8
100
AcDbLine
 10
243.142066
 20
78.340269
 30
0.0
 11
256.193464
 21
78.340269
 31
0.0
  0
LINE
  5
3E4
100
AcDbEntity
  8
0
  6
Continuous
 62
     8
100
AcDbLine
 10
262.193125
 20
78.340269
 30
0.0
 11
264.192611
 21
78.340269
 31
0.0
  0
LINE
  5
3E5
100
AcDbEntity
  8
0
  6
Continuous
 62
     8
100
AcDbLine
 10
270.192271
 20
78.340269
 30
0.0
 11
283.24367
 21
78.340269
 31
0.0
  0
LINE
  5
3E6
100
AcDbEntity
  8
0
  6
Continuous
 62
     8
100
AcDbLine
 10
297.243079
 20
78.340269
 30
0.0
 11
308.450787
 21
78.340269
 31
0.0
  0
LINE
  5
3E7
100
AcDbEntity
  8
0
  6
Continuous
 62
     8
100
AcDbLine
 10
314.450448
 20
78.340269
 30
0.0
 11
316.449934
 21
78.340269
 31
0.0
  0
LINE
  5
3E8
100
AcDbEntity
  8
0
  6
Continuous
 62
     8
100
AcDbLine
 10
322.449595
 20
78.340269
 30
0.0
 11
333.657304
 21
78.340269
 31
0.0
  0
LINE
  5
3E9
100
AcDbEntity
  8
0
  6
Continuous
 62
     8
100
AcDbLine
 10
339.656965
 20
78.340269
 30
0.0
 11
341.657052
 21
78.340269
 31
0.0
  0
LINE
  5
3EA
100
AcDbEntity
  8
0
  6
Continuous
 62
     8
100
AcDbLine
 10
347.656713
 20
78.340269
 30
0.0
 11
358.864421
 21
78.340269
 31
0.0
  0
LINE
  5
3EB
100
AcDbEntity
  8
0
  6
Continuous
 62
     8
100
AcDbLine
 10
372.863229
 20
78.340269
 30
0.0
 11
384.070938
 21
78.340269
 31
0.0
  0
LINE
  5
3EC
100
AcDbEntity
  8
0
  6
Continuous
 62
     8
100
AcDbLine
 10
390.070599
 20
78.340269
 30
0.0
 11
392.070686
 21
78.340269
 31
0.0
  0
LINE
  5
3ED
100
AcDbEntity
  8
0
  6
Continuous
 62
     8
100
AcDbLine
 10
398.070347
 20
78.340269
 30
0.0
 11
409.278055
 21
78.340269
 31
0.0
  0
LINE
  5
3EE
100
AcDbEntity
  8
0
  6
Continuous
 62
     8
100
AcDbLine
 10
415.277716
 20
78.340269
 30
0.0
 11
417.277202
 21
78.340269
 31
0.0
  0
LINE
  5
3EF
100
AcDbEntity
  8
0
  6
Continuous
 62
     8
100
AcDbLine
 10
423.276863
 20
78.340269
 30
0.0
 11
434.484572
 21
78.340269
 31
0.0
  0
LINE
  5
3F0
100
AcDbEntity
  8
0
  6
Continuous
 62
     8
100
AcDbLine
 10
448.483981
 20
78.340269
 30
0.0
 11
459.691088
 21
78.340269
 31
0.0
  0
LINE
  5
3F1
100
AcDbEntity
  8
0
  6
Continuous
 62
     8
100
AcDbLine
 10
465.690749
 20
78.340269
 30
0.0
 11
467.690836
 21
78.340269
 31
0.0
  0
LINE
  5
3F2
100
AcDbEntity
  8
0
  6
Continuous
 62
     8
100
AcDbLine
 10
473.690497
 20
78.340269
 30
0.0
 11
484.898206
 21
78.340269
 31
0.0
  0
LINE
  5
3F3
100
AcDbEntity
  8
0
  6
Continuous
 62
     8
100
AcDbLine
 10
490.897867
 20
78.340269
 30
0.0
 11
492.897353
 21
78.340269
 31
0.0
  0
LINE
  5
3F4
100
AcDbEntity
  8
0
  6
Continuous
 62
     8
100
AcDbLine
 10
498.897014
 20
78.340269
 30
0.0
 11
510.104722
 21
78.340269
 31
0.0
  0
LINE
  5
3F5
100
AcDbEntity
  8
0
  6
Continuous
 62
     8
100
AcDbLine
 10
524.104131
 20
78.340269
 30
0.0
 11
539.644661
 21
78.340269
 31
0.0
  0
LINE
  5
3F6
100
AcDbEntity
  8
0
  6
Continuous
 62
     8
100
AcDbLine
 10
545.644322
 20
78.340269
 30
0.0
 11
547.644409
 21
78.340269
 31
0.0
  0
LINE
  5
3F7
100
AcDbEntity
  8
0
  6
Continuous
 62
     8
100
AcDbLine
 10
553.64407
 20
78.340269
 30
0.0
 11
569.1846
 21
78.340269
 31
0.0
  0
LINE
  5
3F8
100
AcDbEntity
  8
0
  6
Continuous
 62
     8
100
AcDbLine
 10
575.184261
 20
78.340269
 30
0.0
 11
577.184348
 21
78.340269
 31
0.0
  0
LINE
  5
3F9
100
AcDbEntity
  8
0
  6
Continuous
 62
     8
100
AcDbLine
 10
583.184009
 20
78.340269
 30
0.0
 11
598.724539
 21
78.340269
 31
0.0
  0
ENDBLK
  5
3FA
100
AcDbEntity
  8
0
100
AcDbBlockEnd
  0
BLOCK
  5
3FD
100
AcDbEntity
  8
0
100
AcDbBlockBegin
  2
*B41
 70
     0
 10
0.0
 20
0.0
 30
0.0
  3
*B41
  1

  0
LINE
  5
3FE
100
AcDbEntity
  8
0
  6
Continuous
 62
     8
100
AcDbLine
 10
619.96216
 20
118.33841
 30
0.0
 11
623.961733
 21
118.33841
 31
0.0
  0
LINE
  5
3FF
100
AcDbEntity
  8
0
  6
Continuous
 62
     8
100
AcDbLine
 10
559.726743
 20
118.33841
 30
0.0
 11
566.976383
 21
118.33841
 31
0.0
  0
LINE
  5
400
100
AcDbEntity
  8
0
  6
Continuous
 62
     8
100
AcDbLine
 10
580.975792
 20
118.33841
 30
0.0
 11
593.468971
 21
118.33841
 31
0.0
  0
LINE
  5
401
100
AcDbEntity
  8
0
  6
Continuous
 62
     8
100
AcDbLine
 10
599.468632
 20
118.33841
 30
0.0
 11
601.468719
 21
118.33841
 31
0.0
  0
LINE
  5
402
100
AcDbEntity
  8
0
  6
Continuous
 62
     8
100
AcDbLine
 10
607.46838
 20
118.33841
 30
0.0
 11
619.96216
 21
118.33841
 31
0.0
  0
ENDBLK
  5
403
100
AcDbEntity
  8
0
100
AcDbBlockEnd
  0
BLOCK
  5
406
100
AcDbEntity
  8
0
100
AcDbBlockBegin
  2
*B42
 70
     0
 10
0.0
 20
0.0
 30
0.0
  3
*B42
  1

  0
LINE
  5
407
100
AcDbEntity
  8
0
  6
Continuous
 62
     8
100
AcDbLine
 10
157.990671
 20
158.336551
 30
0.0
 11
161.990245
 21
158.336551
 31
0.0
  0
LINE
  5
408
100
AcDbEntity
  8
0
  6
Continuous
 62
     8
100
AcDbLine
 10
161.990245
 20
158.336551
 30
0.0
 11
175.041643
 21
158.336551
 31
0.0
  0
LINE
  5
409
100
AcDbEntity
  8
0
  6
Continuous
 62
     8
100
AcDbLine
 10
181.041304
 20
158.336551
 30
0.0
 11
183.041391
 21
158.336551
 31
0.0
  0
LINE
  5
40A
100
AcDbEntity
  8
0
  6
Continuous
 62
     8
100
AcDbLine
 10
189.041052
 20
158.336551
 30
0.0
 11
202.09245
 21
158.336551
 31
0.0
  0
LINE
  5
40B
100
AcDbEntity
  8
0
  6
Continuous
 62
     8
100
AcDbLine
 10
208.092111
 20
158.336551
 30
0.0
 11
210.091597
 21
158.336551
 31
0.0
  0
LINE
  5
40C
100
AcDbEntity
  8
0
  6
Continuous
 62
     8
100
AcDbLine
 10
216.091258
 20
158.336551
 30
0.0
 11
229.142656
 21
158.336551
 31
0.0
  0
LINE
  5
40D
100
AcDbEntity
  8
0
  6
Continuous
 62
     8
100
AcDbLine
 10
235.142317
 20
158.336551
 30
0.0
 11
237.142405
 21
158.336551
 31
0.0
  0
LINE
  5
40E
100
AcDbEntity
  8
0
  6
Continuous
 62
     8
100
AcDbLine
 10
243.142066
 20
158.336551
 30
0.0
 11
256.193464
 21
158.336551
 31
0.0
  0
LINE
  5
40F
100
AcDbEntity
  8
0
  6
Continuous
 62
     8
100
AcDbLine
 10
262.193125
 20
158.336551
 30
0.0
 11
264.192611
 21
158.336551
 31
0.0
  0
LINE
  5
410
100
AcDbEntity
  8
0
  6
Continuous
 62
     8
100
AcDbLine
 10
270.192271
 20
158.336551
 30
0.0
 11
283.24367
 21
158.336551
 31
0.0
  0
LINE
  5
411
100
AcDbEntity
  8
0
  6
Continuous
 62
     8
100
AcDbLine
 10
297.243079
 20
158.336551
 30
0.0
 11
308.450787
 21
158.336551
 31
0.0
  0
LINE
  5
412
100
AcDbEntity
  8
0
  6
Continuous
 62
     8
100
AcDbLine
 10
314.450448
 20
158.336551
 30
0.0
 11
316.449934
 21
158.336551
 31
0.0
  0
LINE
  5
413
100
AcDbEntity
  8
0
  6
Continuous
 62
     8
100
AcDbLine
 10
322.449595
 20
158.336551
 30
0.0
 11
333.657304
 21
158.336551
 31
0.0
  0
LINE
  5
414
100
AcDbEntity
  8
0
  6
Continuous
 62
     8
100
AcDbLine
 10
339.656965
 20
158.336551
 30
0.0
 11
341.657052
 21
158.336551
 31
0.0
  0
LINE
  5
415
100
AcDbEntity
  8
0
  6
Continuous
 62
     8
100
AcDbLine
 10
347.656713
 20
158.336551
 30
0.0
 11
358.864421
 21
158.336551
 31
0.0
  0
LINE
  5
416
100
AcDbEntity
  8
0
  6
Continuous
 62
     8
100
AcDbLine
 10
372.863229
 20
158.336551
 30
0.0
 11
384.070938
 21
158.336551
 31
0.0
  0
LINE
  5
417
100
AcDbEntity
  8
0
  6
Continuous
 62
     8
100
AcDbLine
 10
390.070599
 20
158.336551
 30
0.0
 11
392.070686
 21
158.336551
 31
0.0
  0
LINE
  5
418
100
AcDbEntity
  8
0
  6
Continuous
 62
     8
100
AcDbLine
 10
398.070347
 20
158.336551
 30
0.0
 11
409.278055
 21
158.336551
 31
0.0
  0
LINE
  5
419
100
AcDbEntity
  8
0
  6
Continuous
 62
     8
100
AcDbLine
 10
415.277716
 20
158.336551
 30
0.0
 11
417.277202
 21
158.336551
 31
0.0
  0
LINE
  5
41A
100
AcDbEntity
  8
0
  6
Continuous
 62
     8
100
AcDbLine
 10
423.276863
 20
158.336551
 30
0.0
 11
434.484572
 21
158.336551
 31
0.0
  0
LINE
  5
41B
100
AcDbEntity
  8
0
  6
Continuous
 62
     8
100
AcDbLine
 10
448.483981
 20
158.336551
 30
0.0
 11
459.691088
 21
158.336551
 31
0.0
  0
LINE
  5
41C
100
AcDbEntity
  8
0
  6
Continuous
 62
     8
100
AcDbLine
 10
465.690749
 20
158.336551
 30
0.0
 11
467.690836
 21
158.336551
 31
0.0
  0
LINE
  5
41D
100
AcDbEntity
  8
0
  6
Continuous
 62
     8
100
AcDbLine
 10
473.690497
 20
158.336551
 30
0.0
 11
484.898206
 21
158.336551
 31
0.0
  0
LINE
  5
41E
100
AcDbEntity
  8
0
  6
Continuous
 62
     8
100
AcDbLine
 10
490.897867
 20
158.336551
 30
0.0
 11
492.897353
 21
158.336551
 31
0.0
  0
LINE
  5
41F
100
AcDbEntity
  8
0
  6
Continuous
 62
     8
100
AcDbLine
 10
498.897014
 20
158.336551
 30
0.0
 11
510.104722
 21
158.336551
 31
0.0
  0
LINE
  5
420
100
AcDbEntity
  8
0
  6
Continuous
 62
     8
100
AcDbLine
 10
524.104131
 20
158.336551
 30
0.0
 11
539.644661
 21
158.336551
 31
0.0
  0
LINE
  5
421
100
AcDbEntity
  8
0
  6
Continuous
 62
     8
100
AcDbLine
 10
545.644322
 20
158.336551
 30
0.0
 11
547.644409
 21
158.336551
 31
0.0
  0
LINE
  5
422
100
AcDbEntity
  8
0
  6
Continuous
 62
     8
100
AcDbLine
 10
553.64407
 20
158.336551
 30
0.0
 11
569.1846
 21
158.336551
 31
0.0
  0
LINE
  5
423
100
AcDbEntity
  8
0
  6
Continuous
 62
     8
100
AcDbLine
 10
575.184261
 20
158.336551
 30
0.0
 11
577.184348
 21
158.336551
 31
0.0
  0
LINE
  5
424
100
AcDbEntity
  8
0
  6
Continuous
 62
     8
100
AcDbLine
 10
583.184009
 20
158.336551
 30
0.0
 11
598.724539
 21
158.336551
 31
0.0
  0
ENDBLK
  5
425
100
AcDbEntity
  8
0
100
AcDbBlockEnd
  0
BLOCK
  5
428
100
AcDbEntity
  8
0
100
AcDbBlockBegin
  2
*B43
 70
     0
 10
0.0
 20
0.0
 30
0.0
  3
*B43
  1

  0
LINE
  5
429
100
AcDbEntity
  8
0
  6
Continuous
 62
     8
100
AcDbLine
 10
233.372014
 20
304.088491
 30
0.0
 11
233.372014
 21
308.088666
 31
0.0
  0
LINE
  5
42A
100
AcDbEntity
  8
0
  6
Continuous
 62
     8
100
AcDbLine
 10
233.372014
 20
184.085046
 30
0.0
 11
233.372014
 21
191.334686
 31
0.0
  0
LINE
  5
42B
100
AcDbEntity
  8
0
  6
Continuous
 62
     8
100
AcDbLine
 10
233.372014
 20
205.334096
 30
0.0
 11
233.372014
 21
219.522987
 31
0.0
  0
LINE
  5
42C
100
AcDbEntity
  8
0
  6
Continuous
 62
     8
100
AcDbLine
 10
233.372014
 20
225.52325
 30
0.0
 11
233.372014
 21
227.522736
 31
0.0
  0
LINE
  5
42D
100
AcDbEntity
  8
0
  6
Continuous
 62
     8
100
AcDbLine
 10
233.372014
 20
233.522397
 30
0.0
 11
233.372014
 21
247.71189
 31
0.0
  0
LINE
  5
42E
100
AcDbEntity
  8
0
  6
Continuous
 62
     8
100
AcDbLine
 10
233.372014
 20
253.71155
 30
0.0
 11
233.372014
 21
255.711036
 31
0.0
  0
LINE
  5
42F
100
AcDbEntity
  8
0
  6
Continuous
 62
     8
100
AcDbLine
 10
233.372014
 20
261.711299
 30
0.0
 11
233.372014
 21
275.90019
 31
0.0
  0
LINE
  5
430
100
AcDbEntity
  8
0
  6
Continuous
 62
     8
100
AcDbLine
 10
233.372014
 20
281.899851
 30
0.0
 11
233.372014
 21
283.899939
 31
0.0
  0
LINE
  5
431
100
AcDbEntity
  8
0
  6
Continuous
 62
     8
100
AcDbLine
 10
233.372014
 20
289.8996
 30
0.0
 11
233.372014
 21
304.088491
 31
0.0
  0
ENDBLK
  5
432
100
AcDbEntity
  8
0
100
AcDbBlockEnd
  0
BLOCK
  5
435
100
AcDbEntity
  8
0
100
AcDbBlockBegin
  2
*B44
 70
     0
 10
0.0
 20
0.0
 30
0.0
  3
*B44
  1

  0
LINE
  5
436
100
AcDbEntity
  8
0
  6
Continuous
 62
     8
100
AcDbLine
 10
233.372014
 20
353.33636
 30
0.0
 11
233.372014
 21
368.835384
 31
0.0
  0
LINE
  5
437
100
AcDbEntity
  8
0
  6
Continuous
 62
     8
100
AcDbLine
 10
233.372014
 20
374.835646
 30
0.0
 11
233.372014
 21
376.835132
 31
0.0
  0
LINE
  5
438
100
AcDbEntity
  8
0
  6
Continuous
 62
     8
100
AcDbLine
 10
233.372014
 20
382.834793
 30
0.0
 11
233.372014
 21
398.334419
 31
0.0
  0
LINE
  5
439
100
AcDbEntity
  8
0
  6
Continuous
 62
     8
100
AcDbLine
 10
233.372014
 20
404.33408
 30
0.0
 11
233.372014
 21
406.334167
 31
0.0
  0
LINE
  5
43A
100
AcDbEntity
  8
0
  6
Continuous
 62
     8
100
AcDbLine
 10
233.372014
 20
412.333828
 30
0.0
 11
233.372014
 21
427.832852
 31
0.0
  0
ENDBLK
  5
43B
100
AcDbEntity
  8
0
100
AcDbBlockEnd
  0
BLOCK
  5
43E
100
AcDbEntity
  8
0
100
AcDbBlockBegin
  2
*B45
 70
     0
 10
0.0
 20
0.0
 30
0.0
  3
*B45
  1

  0
LINE
  5
43F
100
AcDbEntity
  8
0
  6
Continuous
 62
     8
100
AcDbLine
 10
265.245288
 20
3.102692
 30
0.0
 11
265.245288
 21
7.102266
 31
0.0
  0
LINE
  5
440
100
AcDbEntity
  8
0
  6
Continuous
 62
     8
100
AcDbLine
 10
265.245288
 20
7.102266
 30
0.0
 11
265.245288
 21
41.341959
 31
0.0
  0
LINE
  5
441
100
AcDbEntity
  8
0
  6
Continuous
 62
     8
100
AcDbLine
 10
265.245288
 20
55.341368
 30
0.0
 11
265.245288
 21
66.840819
 31
0.0
  0
ENDBLK
  5
442
100
AcDbEntity
  8
0
100
AcDbBlockEnd
  0
BLOCK
  5
445
100
AcDbEntity
  8
0
100
AcDbBlockBegin
  2
*B46
 70
     0
 10
0.0
 20
0.0
 30
0.0
  3
*B46
  1

  0
LINE
  5
446
100
AcDbEntity
  8
0
  6
Continuous
 62
     8
100
AcDbLine
 10
441.483976
 20
41.091722
 30
0.0
 11
441.483976
 21
71.340264
 31
0.0
  0
LINE
  5
447
100
AcDbEntity
  8
0
  6
Continuous
 62
     8
100
AcDbLine
 10
441.483976
 20
85.339673
 30
0.0
 11
441.483976
 21
115.588215
 31
0.0
  0
ENDBLK
  5
448
100
AcDbEntity
  8
0
100
AcDbBlockEnd
  0
BLOCK
  5
44B
100
AcDbEntity
  8
0
100
AcDbBlockBegin
  2
*B47
 70
     0
 10
0.0
 20
0.0
 30
0.0
  3
*B47
  1

  0
LINE
  5
44C
100
AcDbEntity
  8
0
  6
Continuous
 62
     8
100
AcDbLine
 10
187.988374
 20
181.835323
 30
0.0
 11
208.623262
 21
181.835323
 31
0.0
  0
ENDBLK
  5
44D
100
AcDbEntity
  8
0
100
AcDbBlockEnd
  0
BLOCK
  5
450
100
AcDbEntity
  8
0
100
AcDbBlockBegin
  2
*B48
 70
     0
 10
0.0
 20
0.0
 30
0.0
  3
*B48
  1

  0
LINE
  5
451
100
AcDbEntity
  8
0
  6
Continuous
 62
     8
100
AcDbLine
 10
372.363358
 20
268.331137
 30
0.0
 11
383.862808
 21
268.331137
 31
0.0
  0
LINE
  5
452
100
AcDbEntity
  8
0
  6
Continuous
 62
     8
100
AcDbLine
 10
397.861616
 20
268.331137
 30
0.0
 11
409.361067
 21
268.331137
 31
0.0
  0
ENDBLK
  5
453
100
AcDbEntity
  8
0
100
AcDbBlockEnd
  0
BLOCK
  5
456
100
AcDbEntity
  8
0
100
AcDbBlockBegin
  2
*B49
 70
     0
 10
0.0
 20
0.0
 30
0.0
  3
*B49
  1

  0
LINE
  5
457
100
AcDbEntity
  8
0
  6
Continuous
 62
     8
100
AcDbLine
 10
290.243675
 20
328.087737
 30
0.0
 11
290.243675
 21
332.08731
 31
0.0
  0
LINE
  5
458
100
AcDbEntity
  8
0
  6
Continuous
 62
     8
100
AcDbLine
 10
290.243675
 20
201.084286
 30
0.0
 11
290.243675
 21
231.332827
 31
0.0
  0
LINE
  5
459
100
AcDbEntity
  8
0
  6
Continuous
 62
     8
100
AcDbLine
 10
290.243675
 20
245.332237
 30
0.0
 11
290.243675
 21
263.584464
 31
0.0
  0
LINE
  5
45A
100
AcDbEntity
  8
0
  6
Continuous
 62
     8
100
AcDbLine
 10
290.243675
 20
269.584125
 30
0.0
 11
290.243675
 21
271.584212
 31
0.0
  0
LINE
  5
45B
100
AcDbEntity
  8
0
  6
Continuous
 62
     8
100
AcDbLine
 10
290.243675
 20
277.583873
 30
0.0
 11
290.243675
 21
295.8361
 31
0.0
  0
LINE
  5
45C
100
AcDbEntity
  8
0
  6
Continuous
 62
     8
100
AcDbLine
 10
290.243675
 20
301.835761
 30
0.0
 11
290.243675
 21
303.835849
 31
0.0
  0
LINE
  5
45D
100
AcDbEntity
  8
0
  6
Continuous
 62
     8
100
AcDbLine
 10
290.243675
 20
309.83551
 30
0.0
 11
290.243675
 21
328.087737
 31
0.0
  0
ENDBLK
  5
45E
100
AcDbEntity
  8
0
100
AcDbBlockEnd
  0
BLOCK
  5
461
100
AcDbEntity
  8
0
100
AcDbBlockBegin
  2
*B50
 70
     0
 10
0.0
 20
0.0
 30
0.0
  3
*B50
  1

  0
LINE
  5
462
100
AcDbEntity
  8
0
  6
Continuous
 62
     8
100
AcDbLine
 10
441.483976
 20
121.088004
 30
0.0
 11
441.483976
 21
151.336545
 31
0.0
  0
LINE
  5
463
100
AcDbEntity
  8
0
  6
Continuous
 62
     8
100
AcDbLine
 10
441.483976
 20
165.335955
 30
0.0
 11
441.483976
 21
195.584496
 31
0.0
  0
ENDBLK
  5
464
100
AcDbEntity
  8
0
100
AcDbBlockEnd
  0
BLOCK
  5
467
100
AcDbEntity
  8
0
100
AcDbBlockBegin
  2
*B51
 70
     0
 10
0.0
 20
0.0
 30
0.0
  3
*B51
  1

  0
LINE
  5
468
100
AcDbEntity
  8
0
  6
Continuous
 62
     8
100
AcDbLine
 10
441.483976
 20
328.087737
 30
0.0
 11
441.483976
 21
332.08731
 31
0.0
  0
LINE
  5
469
100
AcDbEntity
  8
0
  6
Continuous
 62
     8
100
AcDbLine
 10
441.483976
 20
201.084286
 30
0.0
 11
441.483976
 21
231.332827
 31
0.0
  0
LINE
  5
46A
100
AcDbEntity
  8
0
  6
Continuous
 62
     8
100
AcDbLine
 10
441.483976
 20
245.332237
 30
0.0
 11
441.483976
 21
263.584464
 31
0.0
  0
LINE
  5
46B
100
AcDbEntity
  8
0
  6
Continuous
 62
     8
100
AcDbLine
 10
441.483976
 20
269.584125
 30
0.0
 11
441.483976
 21
271.584212
 31
0.0
  0
LINE
  5
46C
100
AcDbEntity
  8
0
  6
Continuous
 62
     8
100
AcDbLine
 10
441.483976
 20
277.583873
 30
0.0
 11
441.483976
 21
295.8361
 31
0.0
  0
LINE
  5
46D
100
AcDbEntity
  8
0
  6
Continuous
 62
     8
100
AcDbLine
 10
441.483976
 20
301.835761
 30
0.0
 11
441.483976
 21
303.835849
 31
0.0
  0
LINE
  5
46E
100
AcDbEntity
  8
0
  6
Continuous
 62
     8
100
AcDbLine
 10
441.483976
 20
309.83551
 30
0.0
 11
441.483976
 21
328.087737
 31
0.0
  0
ENDBLK
  5
46F
100
AcDbEntity
  8
0
100
AcDbBlockEnd
  0
BLOCK
  5
472
100
AcDbEntity
  8
0
100
AcDbBlockBegin
  2
*B52
 70
     0
 10
0.0
 20
0.0
 30
0.0
  3
*B52
  1

  0
LINE
  5
473
100
AcDbEntity
  8
0
  6
Continuous
 62
     8
100
AcDbLine
 10
296.743207
 20
268.331137
 30
0.0
 11
308.242056
 21
268.331137
 31
0.0
  0
LINE
  5
474
100
AcDbEntity
  8
0
  6
Continuous
 62
     8
100
AcDbLine
 10
322.241466
 20
268.331137
 30
0.0
 11
333.740916
 21
268.331137
 31
0.0
  0
ENDBLK
  5
475
100
AcDbEntity
  8
0
100
AcDbBlockEnd
  0
BLOCK
  5
478
100
AcDbEntity
  8
0
100
AcDbBlockBegin
  2
*B53
 70
     0
 10
0.0
 20
0.0
 30
0.0
  3
*B53
  1

  0
LINE
  5
479
100
AcDbEntity
  8
0
  6
Continuous
 62
     8
100
AcDbLine
 10
127.992366
 20
283.33029
 30
0.0
 11
208.623262
 21
283.33029
 31
0.0
  0
ENDBLK
  5
47A
100
AcDbEntity
  8
0
100
AcDbBlockEnd
  0
BLOCK
  5
47D
100
AcDbEntity
  8
0
100
AcDbBlockBegin
  2
*B54
 70
     0
 10
0.0
 20
0.0
 30
0.0
  3
*B54
  1

  0
LINE
  5
47E
100
AcDbEntity
  8
0
  6
Continuous
 62
     8
100
AcDbLine
 10
647.960377
 20
48.341363
 30
0.0
 11
651.95995
 21
48.341363
 31
0.0
  0
LINE
  5
47F
100
AcDbEntity
  8
0
  6
Continuous
 62
     8
100
AcDbLine
 10
473.606885
 20
48.341363
 30
0.0
 11
485.106335
 21
48.341363
 31
0.0
  0
LINE
  5
480
100
AcDbEntity
  8
0
  6
Continuous
 62
     8
100
AcDbLine
 10
499.105745
 20
48.341363
 30
0.0
 11
512.248575
 21
48.341363
 31
0.0
  0
LINE
  5
481
100
AcDbEntity
  8
0
  6
Continuous
 62
     8
100
AcDbLine
 10
518.248236
 20
48.341363
 30
0.0
 11
520.248324
 21
48.341363
 31
0.0
  0
LINE
  5
482
100
AcDbEntity
  8
0
  6
Continuous
 62
     8
100
AcDbLine
 10
526.247985
 20
48.341363
 30
0.0
 11
539.390815
 21
48.341363
 31
0.0
  0
LINE
  5
483
100
AcDbEntity
  8
0
  6
Continuous
 62
     8
100
AcDbLine
 10
545.390476
 20
48.341363
 30
0.0
 11
547.390564
 21
48.341363
 31
0.0
  0
LINE
  5
484
100
AcDbEntity
  8
0
  6
Continuous
 62
     8
100
AcDbLine
 10
553.390225
 20
48.341363
 30
0.0
 11
566.533657
 21
48.341363
 31
0.0
  0
LINE
  5
485
100
AcDbEntity
  8
0
  6
Continuous
 62
     8
100
AcDbLine
 10
572.533318
 20
48.341363
 30
0.0
 11
574.532804
 21
48.341363
 31
0.0
  0
LINE
  5
486
100
AcDbEntity
  8
0
  6
Continuous
 62
     8
100
AcDbLine
 10
580.532465
 20
48.341363
 30
0.0
 11
593.675897
 21
48.341363
 31
0.0
  0
LINE
  5
487
100
AcDbEntity
  8
0
  6
Continuous
 62
     8
100
AcDbLine
 10
599.675558
 20
48.341363
 30
0.0
 11
601.675044
 21
48.341363
 31
0.0
  0
LINE
  5
488
100
AcDbEntity
  8
0
  6
Continuous
 62
     8
100
AcDbLine
 10
607.674705
 20
48.341363
 30
0.0
 11
620.818137
 21
48.341363
 31
0.0
  0
LINE
  5
489
100
AcDbEntity
  8
0
  6
Continuous
 62
     8
100
AcDbLine
 10
626.817798
 20
48.341363
 30
0.0
 11
628.817284
 21
48.341363
 31
0.0
  0
LINE
  5
48A
100
AcDbEntity
  8
0
  6
Continuous
 62
     8
100
AcDbLine
 10
634.816945
 20
48.341363
 30
0.0
 11
647.960377
 21
48.341363
 31
0.0
  0
ENDBLK
  5
48B
100
AcDbEntity
  8
0
100
AcDbBlockEnd
  0
BLOCK
  5
48E
100
AcDbEntity
  8
0
100
AcDbBlockBegin
  2
*B55
 70
     0
 10
0.0
 20
0.0
 30
0.0
  3
*B55
  1

  0
LINE
  5
48F
100
AcDbEntity
  8
0
  6
Continuous
 62
     8
100
AcDbLine
 10
365.863825
 20
328.087737
 30
0.0
 11
365.863825
 21
332.08731
 31
0.0
  0
LINE
  5
490
100
AcDbEntity
  8
0
  6
Continuous
 62
     8
100
AcDbLine
 10
365.863825
 20
201.084286
 30
0.0
 11
365.863825
 21
231.332827
 31
0.0
  0
LINE
  5
491
100
AcDbEntity
  8
0
  6
Continuous
 62
     8
100
AcDbLine
 10
365.863825
 20
245.332237
 30
0.0
 11
365.863825
 21
263.584464
 31
0.0
  0
LINE
  5
492
100
AcDbEntity
  8
0
  6
Continuous
 62
     8
100
AcDbLine
 10
365.863825
 20
269.584125
 30
0.0
 11
365.863825
 21
271.584212
 31
0.0
  0
LINE
  5
493
100
AcDbEntity
  8
0
  6
Continuous
 62
     8
100
AcDbLine
 10
365.863825
 20
277.583873
 30
0.0
 11
365.863825
 21
295.8361
 31
0.0
  0
LINE
  5
494
100
AcDbEntity
  8
0
  6
Continuous
 62
     8
100
AcDbLine
 10
365.863825
 20
301.835761
 30
0.0
 11
365.863825
 21
303.835849
 31
0.0
  0
LINE
  5
495
100
AcDbEntity
  8
0
  6
Continuous
 62
     8
100
AcDbLine
 10
365.863825
 20
309.83551
 30
0.0
 11
365.863825
 21
328.087737
 31
0.0
  0
ENDBLK
  5
496
100
AcDbEntity
  8
0
100
AcDbBlockEnd
  0
BLOCK
  5
499
100
AcDbEntity
  8
0
100
AcDbBlockBegin
  2
*B56
 70
     0
 10
0.0
 20
0.0
 30
0.0
  3
*B56
  1

  0
LINE
  5
49A
100
AcDbEntity
  8
0
  6
Continuous
 62
     8
100
AcDbLine
 10
219.12297
 20
118.33841
 30
0.0
 11
226.37261
 21
118.33841
 31
0.0
  0
LINE
  5
49B
100
AcDbEntity
  8
0
  6
Continuous
 62
     8
100
AcDbLine
 10
240.371418
 20
118.33841
 30
0.0
 11
247.621058
 21
118.33841
 31
0.0
  0
ENDBLK
  5
49C
100
AcDbEntity
  8
0
100
AcDbBlockEnd
  0
BLOCK
  5
49F
100
AcDbEntity
  8
0
100
AcDbBlockBegin
  2
*B57
 70
     0
 10
0.0
 20
0.0
 30
0.0
  3
*B57
  1

  0
LINE
  5
4A0
100
AcDbEntity
  8
0
  6
Continuous
 62
     8
100
AcDbLine
 10
233.372014
 20
104.088764
 30
0.0
 11
233.372014
 21
111.338405
 31
0.0
  0
LINE
  5
4A1
100
AcDbEntity
  8
0
  6
Continuous
 62
     8
100
AcDbLine
 10
233.372014
 20
125.337814
 30
0.0
 11
233.372014
 21
132.587455
 31
0.0
  0
ENDBLK
  5
4A2
100
AcDbEntity
  8
0
100
AcDbBlockEnd
  0
BLOCK
  5
4A5
100
AcDbEntity
  8
0
100
AcDbBlockBegin
  2
*B58
 70
     0
 10
0.0
 20
0.0
 30
0.0
  3
*B58
  1

  0
LINE
  5
4A6
100
AcDbEntity
  8
0
  6
Continuous
 62
     8
100
AcDbLine
 10
219.12297
 20
198.334692
 30
0.0
 11
226.37261
 21
198.334692
 31
0.0
  0
LINE
  5
4A7
100
AcDbEntity
  8
0
  6
Continuous
 62
     8
100
AcDbLine
 10
240.371418
 20
198.334692
 30
0.0
 11
247.621058
 21
198.334692
 31
0.0
  0
ENDBLK
  5
4A8
100
AcDbEntity
  8
0
100
AcDbBlockEnd
  0
BLOCK
  5
4AB
100
AcDbEntity
  8
0
100
AcDbBlockBegin
  2
*B59
 70
     0
 10
0.0
 20
0.0
 30
0.0
  3
*B59
  1

  0
LINE
  5
4AC
100
AcDbEntity
  8
0
  6
Continuous
 62
     8
100
AcDbLine
 10
647.960377
 20
268.331137
 30
0.0
 11
651.95995
 21
268.331137
 31
0.0
  0
LINE
  5
4AD
100
AcDbEntity
  8
0
  6
Continuous
 62
     8
100
AcDbLine
 10
523.60426
 20
268.331137
 30
0.0
 11
535.103109
 21
268.331137
 31
0.0
  0
LINE
  5
4AE
100
AcDbEntity
  8
0
  6
Continuous
 62
     8
100
AcDbLine
 10
549.102518
 20
268.331137
 30
0.0
 11
563.317877
 21
268.331137
 31
0.0
  0
LINE
  5
4AF
100
AcDbEntity
  8
0
  6
Continuous
 62
     8
100
AcDbLine
 10
569.317538
 20
268.331137
 30
0.0
 11
571.317024
 21
268.331137
 31
0.0
  0
LINE
  5
4B0
100
AcDbEntity
  8
0
  6
Continuous
 62
     8
100
AcDbLine
 10
577.316685
 20
268.331137
 30
0.0
 11
591.532044
 21
268.331137
 31
0.0
  0
LINE
  5
4B1
100
AcDbEntity
  8
0
  6
Continuous
 62
     8
100
AcDbLine
 10
597.531705
 20
268.331137
 30
0.0
 11
599.531191
 21
268.331137
 31
0.0
  0
LINE
  5
4B2
100
AcDbEntity
  8
0
  6
Continuous
 62
     8
100
AcDbLine
 10
605.530852
 20
268.331137
 30
0.0
 11
619.74621
 21
268.331137
 31
0.0
  0
LINE
  5
4B3
100
AcDbEntity
  8
0
  6
Continuous
 62
     8
100
AcDbLine
 10
625.745871
 20
268.331137
 30
0.0
 11
627.745357
 21
268.331137
 31
0.0
  0
LINE
  5
4B4
100
AcDbEntity
  8
0
  6
Continuous
 62
     8
100
AcDbLine
 10
633.745018
 20
268.331137
 30
0.0
 11
647.960377
 21
268.331137
 31
0.0
  0
ENDBLK
  5
4B5
100
AcDbEntity
  8
0
100
AcDbBlockEnd
  0
BLOCK
  5
4B8
100
AcDbEntity
  8
0
100
AcDbBlockBegin
  2
*B60
 70
     0
 10
0.0
 20
0.0
 30
0.0
  3
*B60
  1

  0
LINE
  5
4B9
100
AcDbEntity
  8
0
  6
Continuous
 62
     8
100
AcDbLine
 10
441.483976
 20
589.531355
 30
0.0
 11
441.483976
 21
593.530928
 31
0.0
  0
LINE
  5
4BA
100
AcDbEntity
  8
0
  6
Continuous
 62
     8
100
AcDbLine
 10
441.483976
 20
415.83353
 30
0.0
 11
441.483976
 21
428.647925
 31
0.0
  0
LINE
  5
4BB
100
AcDbEntity
  8
0
  6
Continuous
 62
     8
100
AcDbLine
 10
441.483976
 20
434.647586
 30
0.0
 11
441.483976
 21
436.647674
 31
0.0
  0
LINE
  5
4BC
100
AcDbEntity
  8
0
  6
Continuous
 62
     8
100
AcDbLine
 10
441.483976
 20
442.647335
 30
0.0
 11
441.483976
 21
455.46173
 31
0.0
  0
LINE
  5
4BD
100
AcDbEntity
  8
0
  6
Continuous
 62
     8
100
AcDbLine
 10
441.483976
 20
461.461391
 30
0.0
 11
441.483976
 21
463.461478
 31
0.0
  0
LINE
  5
4BE
100
AcDbEntity
  8
0
  6
Continuous
 62
     8
100
AcDbLine
 10
441.483976
 20
469.461139
 30
0.0
 11
441.483976
 21
482.275535
 31
0.0
  0
LINE
  5
4BF
100
AcDbEntity
  8
0
  6
Continuous
 62
     8
100
AcDbLine
 10
441.483976
 20
488.275196
 30
0.0
 11
441.483976
 21
490.275283
 31
0.0
  0
LINE
  5
4C0
100
AcDbEntity
  8
0
  6
Continuous
 62
     8
100
AcDbLine
 10
441.483976
 20
496.274944
 30
0.0
 11
441.483976
 21
509.089339
 31
0.0
  0
LINE
  5
4C1
100
AcDbEntity
  8
0
  6
Continuous
 62
     8
100
AcDbLine
 10
441.483976
 20
515.089602
 30
0.0
 11
441.483976
 21
517.089088
 31
0.0
  0
LINE
  5
4C2
100
AcDbEntity
  8
0
  6
Continuous
 62
     8
100
AcDbLine
 10
441.483976
 20
523.088749
 30
0.0
 11
441.483976
 21
535.903745
 31
0.0
  0
LINE
  5
4C3
100
AcDbEntity
  8
0
  6
Continuous
 62
     8
100
AcDbLine
 10
441.483976
 20
541.903406
 30
0.0
 11
441.483976
 21
543.902892
 31
0.0
  0
LINE
  5
4C4
100
AcDbEntity
  8
0
  6
Continuous
 62
     8
100
AcDbLine
 10
441.483976
 20
549.903155
 30
0.0
 11
441.483976
 21
562.71755
 31
0.0
  0
LINE
  5
4C5
100
AcDbEntity
  8
0
  6
Continuous
 62
     8
100
AcDbLine
 10
441.483976
 20
568.717211
 30
0.0
 11
441.483976
 21
570.716697
 31
0.0
  0
LINE
  5
4C6
100
AcDbEntity
  8
0
  6
Continuous
 62
     8
100
AcDbLine
 10
441.483976
 20
576.716959
 30
0.0
 11
441.483976
 21
589.531355
 31
0.0
  0
ENDBLK
  5
4C7
100
AcDbEntity
  8
0
100
AcDbBlockEnd
  0
BLOCK
  5
4CA
100
AcDbEntity
  8
0
100
AcDbBlockBegin
  2
*B61
 70
     0
 10
0.0
 20
0.0
 30
0.0
  3
*B61
  1

  0
LINE
  5
4CB
100
AcDbEntity
  8
0
  6
Continuous
 62
     8
100
AcDbLine
 10
565.726403
 20
427.832852
 30
0.0
 11
565.726403
 21
462.081568
 31
0.0
  0
ENDBLK
  5
4CC
100
AcDbEntity
  8
0
100
AcDbBlockEnd
  0
BLOCK
  5
4CF
100
AcDbEntity
  8
0
100
AcDbBlockBegin
  2
*B62
 70
     0
 10
0.0
 20
0.0
 30
0.0
  3
*B62
  1

  0
LINE
  5
4D0
100
AcDbEntity
  8
0
  6
Continuous
 62
     8
100
AcDbLine
 10
365.863825
 20
41.091722
 30
0.0
 11
365.863825
 21
71.340264
 31
0.0
  0
LINE
  5
4D1
100
AcDbEntity
  8
0
  6
Continuous
 62
     8
100
AcDbLine
 10
365.863825
 20
85.339673
 30
0.0
 11
365.863825
 21
115.588215
 31
0.0
  0
ENDBLK
  5
4D2
100
AcDbEntity
  8
0
100
AcDbBlockEnd
  0
BLOCK
  5
4D5
100
AcDbEntity
  8
0
100
AcDbBlockBegin
  2
*B63
 70
     0
 10
0.0
 20
0.0
 30
0.0
  3
*B63
  1

  0
LINE
  5
4D6
100
AcDbEntity
  8
0
  6
Continuous
 62
     8
100
AcDbLine
 10
492.105739
 20
29.842509
 30
0.0
 11
492.105739
 21
41.341959
 31
0.0
  0
LINE
  5
4D7
100
AcDbEntity
  8
0
  6
Continuous
 62
     8
100
AcDbLine
 10
492.105739
 20
55.341368
 30
0.0
 11
492.105739
 21
66.840819
 31
0.0
  0
ENDBLK
  5
4D8
100
AcDbEntity
  8
0
100
AcDbBlockEnd
  0
BLOCK
  5
4DB
100
AcDbEntity
  8
0
100
AcDbBlockBegin
  2
*B64
 70
     0
 10
0.0
 20
0.0
 30
0.0
  3
*B64
  1

  0
LINE
  5
4DC
100
AcDbEntity
  8
0
  6
Continuous
 62
     8
100
AcDbLine
 10
542.103114
 20
249.832283
 30
0.0
 11
542.103114
 21
261.331733
 31
0.0
  0
LINE
  5
4DD
100
AcDbEntity
  8
0
  6
Continuous
 62
     8
100
AcDbLine
 10
542.103114
 20
275.331143
 30
0.0
 11
542.103114
 21
286.830593
 31
0.0
  0
ENDBLK
  5
4DE
100
AcDbEntity
  8
0
100
AcDbBlockEnd
  0
BLOCK
  5
4E1
100
AcDbEntity
  8
0
100
AcDbBlockBegin
  2
*B65
 70
     0
 10
0.0
 20
0.0
 30
0.0
  3
*B65
  1

  0
LINE
  5
4E2
100
AcDbEntity
  8
0
  6
Continuous
 62
     8
100
AcDbLine
 10
187.988374
 20
421.833191
 30
0.0
 11
208.623262
 21
421.833191
 31
0.0
  0
ENDBLK
  5
4E3
100
AcDbEntity
  8
0
100
AcDbBlockEnd
  0
BLOCK
  5
4E6
100
AcDbEntity
  8
0
100
AcDbBlockBegin
  2
*B66
 70
     0
 10
0.0
 20
0.0
 30
0.0
  3
*B66
  1

  0
LINE
  5
4E7
100
AcDbEntity
  8
0
  6
Continuous
 62
     8
100
AcDbLine
 10
416.485589
 20
29.842509
 30
0.0
 11
416.485589
 21
41.341959
 31
0.0
  0
LINE
  5
4E8
100
AcDbEntity
  8
0
  6
Continuous
 62
     8
100
AcDbLine
 10
416.485589
 20
55.341368
 30
0.0
 11
416.485589
 21
66.840819
 31
0.0
  0
ENDBLK
  5
4E9
100
AcDbEntity
  8
0
100
AcDbBlockEnd
  0
BLOCK
  5
4EC
100
AcDbEntity
  8
0
100
AcDbBlockBegin
  2
*B67
 70
     0
 10
0.0
 20
0.0
 30
0.0
  3
*B67
  1

  0
LINE
  5
4ED
100
AcDbEntity
  8
0
  6
Continuous
 62
     8
100
AcDbLine
 10
290.243675
 20
41.091722
 30
0.0
 11
290.243675
 21
71.340264
 31
0.0
  0
LINE
  5
4EE
100
AcDbEntity
  8
0
  6
Continuous
 62
     8
100
AcDbLine
 10
290.243675
 20
85.339673
 30
0.0
 11
290.243675
 21
115.588215
 31
0.0
  0
ENDBLK
  5
4EF
100
AcDbEntity
  8
0
100
AcDbBlockEnd
  0
BLOCK
  5
4F2
100
AcDbEntity
  8
0
100
AcDbBlockBegin
  2
*B68
 70
     0
 10
0.0
 20
0.0
 30
0.0
  3
*B68
  1

  0
LINE
  5
4F3
100
AcDbEntity
  8
0
  6
Continuous
 62
     8
100
AcDbLine
 10
187.988374
 20
571.825918
 30
0.0
 11
246.746434
 21
571.825918
 31
0.0
  0
ENDBLK
  5
4F4
100
AcDbEntity
  8
0
100
AcDbBlockEnd
  0
BLOCK
  5
4F7
100
AcDbEntity
  8
0
100
AcDbBlockBegin
  2
*B69
 70
     0
 10
0.0
 20
0.0
 30
0.0
  3
*B69
  1

  0
LINE
  5
4F8
100
AcDbEntity
  8
0
  6
Continuous
 62
     8
100
AcDbLine
 10
592.724878
 20
289.329951
 30
0.0
 11
592.724878
 21
332.08731
 31
0.0
  0
ENDBLK
  5
4F9
100
AcDbEntity
  8
0
100
AcDbBlockEnd
  0
BLOCK
  5
4FC
100
AcDbEntity
  8
0
100
AcDbBlockBegin
  2
*B70
 70
     0
 10
0.0
 20
0.0
 30
0.0
  3
*B70
  1

  0
LINE
  5
4FD
100
AcDbEntity
  8
0
  6
Continuous
 62
     8
100
AcDbLine
 10
315.242062
 20
3.102692
 30
0.0
 11
315.242062
 21
7.102266
 31
0.0
  0
LINE
  5
4FE
100
AcDbEntity
  8
0
  6
Continuous
 62
     8
100
AcDbLine
 10
315.242062
 20
7.102266
 30
0.0
 11
315.242062
 21
17.487682
 31
0.0
  0
LINE
  5
4FF
100
AcDbEntity
  8
0
  6
Continuous
 62
     8
100
AcDbLine
 10
315.242062
 20
23.487343
 30
0.0
 11
315.242062
 21
25.487431
 31
0.0
  0
LINE
  5
500
100
AcDbEntity
  8
0
  6
Continuous
 62
     8
100
AcDbLine
 10
315.242062
 20
31.487092
 30
0.0
 11
315.242062
 21
41.871907
 31
0.0
  0
LINE
  5
501
100
AcDbEntity
  8
0
  6
Continuous
 62
     8
100
AcDbLine
 10
315.242062
 20
47.871568
 30
0.0
 11
315.242062
 21
49.871655
 31
0.0
  0
LINE
  5
502
100
AcDbEntity
  8
0
  6
Continuous
 62
     8
100
AcDbLine
 10
315.242062
 20
55.871316
 30
0.0
 11
315.242062
 21
66.256132
 31
0.0
  0
LINE
  5
503
100
AcDbEntity
  8
0
  6
Continuous
 62
     8
100
AcDbLine
 10
315.242062
 20
72.255793
 30
0.0
 11
315.242062
 21
74.25588
 31
0.0
  0
LINE
  5
504
100
AcDbEntity
  8
0
  6
Continuous
 62
     8
100
AcDbLine
 10
315.242062
 20
80.255541
 30
0.0
 11
315.242062
 21
90.640958
 31
0.0
  0
LINE
  5
505
100
AcDbEntity
  8
0
  6
Continuous
 62
     8
100
AcDbLine
 10
315.242062
 20
96.640619
 30
0.0
 11
315.242062
 21
98.640105
 31
0.0
  0
LINE
  5
506
100
AcDbEntity
  8
0
  6
Continuous
 62
     8
100
AcDbLine
 10
315.242062
 20
104.640367
 30
0.0
 11
315.242062
 21
115.025182
 31
0.0
  0
LINE
  5
507
100
AcDbEntity
  8
0
  6
Continuous
 62
     8
100
AcDbLine
 10
315.242062
 20
121.024843
 30
0.0
 11
315.242062
 21
123.024931
 31
0.0
  0
LINE
  5
508
100
AcDbEntity
  8
0
  6
Continuous
 62
     8
100
AcDbLine
 10
315.242062
 20
129.024592
 30
0.0
 11
315.242062
 21
139.409407
 31
0.0
  0
LINE
  5
509
100
AcDbEntity
  8
0
  6
Continuous
 62
     8
100
AcDbLine
 10
315.242062
 20
145.409068
 30
0.0
 11
315.242062
 21
147.409156
 31
0.0
  0
LINE
  5
50A
100
AcDbEntity
  8
0
  6
Continuous
 62
     8
100
AcDbLine
 10
315.242062
 20
153.408817
 30
0.0
 11
315.242062
 21
163.793632
 31
0.0
  0
LINE
  5
50B
100
AcDbEntity
  8
0
  6
Continuous
 62
     8
100
AcDbLine
 10
315.242062
 20
169.793894
 30
0.0
 11
315.242062
 21
171.79338
 31
0.0
  0
LINE
  5
50C
100
AcDbEntity
  8
0
  6
Continuous
 62
     8
100
AcDbLine
 10
315.242062
 20
177.793041
 30
0.0
 11
315.242062
 21
188.178458
 31
0.0
  0
LINE
  5
50D
100
AcDbEntity
  8
0
  6
Continuous
 62
     8
100
AcDbLine
 10
315.242062
 20
194.178119
 30
0.0
 11
315.242062
 21
196.178206
 31
0.0
  0
LINE
  5
50E
100
AcDbEntity
  8
0
  6
Continuous
 62
     8
100
AcDbLine
 10
315.242062
 20
202.177867
 30
0.0
 11
315.242062
 21
212.562683
 31
0.0
  0
LINE
  5
50F
100
AcDbEntity
  8
0
  6
Continuous
 62
     8
100
AcDbLine
 10
315.242062
 20
218.562344
 30
0.0
 11
315.242062
 21
220.562431
 31
0.0
  0
LINE
  5
510
100
AcDbEntity
  8
0
  6
Continuous
 62
     8
100
AcDbLine
 10
315.242062
 20
226.562092
 30
0.0
 11
315.242062
 21
236.946907
 31
0.0
  0
LINE
  5
511
100
AcDbEntity
  8
0
  6
Continuous
 62
     8
100
AcDbLine
 10
315.242062
 20
242.946568
 30
0.0
 11
315.242062
 21
244.946656
 31
0.0
  0
LINE
  5
512
100
AcDbEntity
  8
0
  6
Continuous
 62
     8
100
AcDbLine
 10
315.242062
 20
250.946317
 30
0.0
 11
315.242062
 21
261.331733
 31
0.0
  0
LINE
  5
513
100
AcDbEntity
  8
0
  6
Continuous
 62
     8
100
AcDbLine
 10
315.242062
 20
275.331143
 30
0.0
 11
315.242062
 21
286.830593
 31
0.0
  0
ENDBLK
  5
514
100
AcDbEntity
  8
0
100
AcDbBlockEnd
  0
BLOCK
  5
517
100
AcDbEntity
  8
0
100
AcDbBlockBegin
  2
*B71
 70
     0
 10
0.0
 20
0.0
 30
0.0
  3
*B71
  1

  0
LINE
  5
518
100
AcDbEntity
  8
0
  6
Continuous
 62
     8
100
AcDbLine
 10
157.990671
 20
238.332833
 30
0.0
 11
161.990245
 21
238.332833
 31
0.0
  0
LINE
  5
519
100
AcDbEntity
  8
0
  6
Continuous
 62
     8
100
AcDbLine
 10
161.990245
 20
238.332833
 30
0.0
 11
175.041643
 21
238.332833
 31
0.0
  0
LINE
  5
51A
100
AcDbEntity
  8
0
  6
Continuous
 62
     8
100
AcDbLine
 10
181.041304
 20
238.332833
 30
0.0
 11
183.041391
 21
238.332833
 31
0.0
  0
LINE
  5
51B
100
AcDbEntity
  8
0
  6
Continuous
 62
     8
100
AcDbLine
 10
189.041052
 20
238.332833
 30
0.0
 11
202.09245
 21
238.332833
 31
0.0
  0
LINE
  5
51C
100
AcDbEntity
  8
0
  6
Continuous
 62
     8
100
AcDbLine
 10
208.092111
 20
238.332833
 30
0.0
 11
210.091597
 21
238.332833
 31
0.0
  0
LINE
  5
51D
100
AcDbEntity
  8
0
  6
Continuous
 62
     8
100
AcDbLine
 10
216.091258
 20
238.332833
 30
0.0
 11
229.142656
 21
238.332833
 31
0.0
  0
LINE
  5
51E
100
AcDbEntity
  8
0
  6
Continuous
 62
     8
100
AcDbLine
 10
235.142317
 20
238.332833
 30
0.0
 11
237.142405
 21
238.332833
 31
0.0
  0
LINE
  5
51F
100
AcDbEntity
  8
0
  6
Continuous
 62
     8
100
AcDbLine
 10
243.142066
 20
238.332833
 30
0.0
 11
256.193464
 21
238.332833
 31
0.0
  0
LINE
  5
520
100
AcDbEntity
  8
0
  6
Continuous
 62
     8
100
AcDbLine
 10
262.193125
 20
238.332833
 30
0.0
 11
264.192611
 21
238.332833
 31
0.0
  0
LINE
  5
521
100
AcDbEntity
  8
0
  6
Continuous
 62
     8
100
AcDbLine
 10
270.192271
 20
238.332833
 30
0.0
 11
283.24367
 21
238.332833
 31
0.0
  0
LINE
  5
522
100
AcDbEntity
  8
0
  6
Continuous
 62
     8
100
AcDbLine
 10
297.243079
 20
238.332833
 30
0.0
 11
308.450787
 21
238.332833
 31
0.0
  0
LINE
  5
523
100
AcDbEntity
  8
0
  6
Continuous
 62
     8
100
AcDbLine
 10
314.450448
 20
238.332833
 30
0.0
 11
316.449934
 21
238.332833
 31
0.0
  0
LINE
  5
524
100
AcDbEntity
  8
0
  6
Continuous
 62
     8
100
AcDbLine
 10
322.449595
 20
238.332833
 30
0.0
 11
333.657304
 21
238.332833
 31
0.0
  0
LINE
  5
525
100
AcDbEntity
  8
0
  6
Continuous
 62
     8
100
AcDbLine
 10
339.656965
 20
238.332833
 30
0.0
 11
341.657052
 21
238.332833
 31
0.0
  0
LINE
  5
526
100
AcDbEntity
  8
0
  6
Continuous
 62
     8
100
AcDbLine
 10
347.656713
 20
238.332833
 30
0.0
 11
358.864421
 21
238.332833
 31
0.0
  0
LINE
  5
527
100
AcDbEntity
  8
0
  6
Continuous
 62
     8
100
AcDbLine
 10
372.863229
 20
238.332833
 30
0.0
 11
384.070938
 21
238.332833
 31
0.0
  0
LINE
  5
528
100
AcDbEntity
  8
0
  6
Continuous
 62
     8
100
AcDbLine
 10
390.070599
 20
238.332833
 30
0.0
 11
392.070686
 21
238.332833
 31
0.0
  0
LINE
  5
529
100
AcDbEntity
  8
0
  6
Continuous
 62
     8
100
AcDbLine
 10
398.070347
 20
238.332833
 30
0.0
 11
409.278055
 21
238.332833
 31
0.0
  0
LINE
  5
52A
100
AcDbEntity
  8
0
  6
Continuous
 62
     8
100
AcDbLine
 10
415.277716
 20
238.332833
 30
0.0
 11
417.277202
 21
238.332833
 31
0.0
  0
LINE
  5
52B
100
AcDbEntity
  8
0
  6
Continuous
 62
     8
100
AcDbLine
 10
423.276863
 20
238.332833
 30
0.0
 11
434.484572
 21
238.332833
 31
0.0
  0
LINE
  5
52C
100
AcDbEntity
  8
0
  6
Continuous
 62
     8
100
AcDbLine
 10
448.483981
 20
238.332833
 30
0.0
 11
459.691088
 21
238.332833
 31
0.0
  0
LINE
  5
52D
100
AcDbEntity
  8
0
  6
Continuous
 62
     8
100
AcDbLine
 10
465.690749
 20
238.332833
 30
0.0
 11
467.690836
 21
238.332833
 31
0.0
  0
LINE
  5
52E
100
AcDbEntity
  8
0
  6
Continuous
 62
     8
100
AcDbLine
 10
473.690497
 20
238.332833
 30
0.0
 11
484.898206
 21
238.332833
 31
0.0
  0
LINE
  5
52F
100
AcDbEntity
  8
0
  6
Continuous
 62
     8
100
AcDbLine
 10
490.897867
 20
238.332833
 30
0.0
 11
492.897353
 21
238.332833
 31
0.0
  0
LINE
  5
530
100
AcDbEntity
  8
0
  6
Continuous
 62
     8
100
AcDbLine
 10
498.897014
 20
238.332833
 30
0.0
 11
510.104722
 21
238.332833
 31
0.0
  0
LINE
  5
531
100
AcDbEntity
  8
0
  6
Continuous
 62
     8
100
AcDbLine
 10
524.104131
 20
238.332833
 30
0.0
 11
539.644661
 21
238.332833
 31
0.0
  0
LINE
  5
532
100
AcDbEntity
  8
0
  6
Continuous
 62
     8
100
AcDbLine
 10
545.644322
 20
238.332833
 30
0.0
 11
547.644409
 21
238.332833
 31
0.0
  0
LINE
  5
533
100
AcDbEntity
  8
0
  6
Continuous
 62
     8
100
AcDbLine
 10
553.64407
 20
238.332833
 30
0.0
 11
569.1846
 21
238.332833
 31
0.0
  0
LINE
  5
534
100
AcDbEntity
  8
0
  6
Continuous
 62
     8
100
AcDbLine
 10
575.184261
 20
238.332833
 30
0.0
 11
577.184348
 21
238.332833
 31
0.0
  0
LINE
  5
535
100
AcDbEntity
  8
0
  6
Continuous
 62
     8
100
AcDbLine
 10
583.184009
 20
238.332833
 30
0.0
 11
598.724539
 21
238.332833
 31
0.0
  0
ENDBLK
  5
536
100
AcDbEntity
  8
0
100
AcDbBlockEnd
  0
BLOCK
  5
539
100
AcDbEntity
  8
0
100
AcDbBlockBegin
  2
*B72
 70
     0
 10
0.0
 20
0.0
 30
0.0
  3
*B72
  1

  0
LINE
  5
53A
100
AcDbEntity
  8
0
  6
Continuous
 62
     8
100
AcDbLine
 10
447.983508
 20
268.331137
 30
0.0
 11
459.482959
 21
268.331137
 31
0.0
  0
LINE
  5
53B
100
AcDbEntity
  8
0
  6
Continuous
 62
     8
100
AcDbLine
 10
473.482368
 20
268.331137
 30
0.0
 11
484.981217
 21
268.331137
 31
0.0
  0
ENDBLK
  5
53C
100
AcDbEntity
  8
0
100
AcDbBlockEnd
  0
BLOCK
  5
53F
100
AcDbEntity
  8
0
100
AcDbBlockBegin
  2
*B73
 70
     0
 10
0.0
 20
0.0
 30
0.0
  3
*B73
  1

  0
LINE
  5
540
100
AcDbEntity
  8
0
  6
Continuous
 62
     8
100
AcDbLine
 10
290.243675
 20
589.531355
 30
0.0
 11
290.243675
 21
593.530928
 31
0.0
  0
LINE
  5
541
100
AcDbEntity
  8
0
  6
Continuous
 62
     8
100
AcDbLine
 10
290.243675
 20
415.83353
 30
0.0
 11
290.243675
 21
428.647925
 31
0.0
  0
LINE
  5
542
100
AcDbEntity
  8
0
  6
Continuous
 62
     8
100
AcDbLine
 10
290.243675
 20
434.647586
 30
0.0
 11
290.243675
 21
436.647674
 31
0.0
  0
LINE
  5
543
100
AcDbEntity
  8
0
  6
Continuous
 62
     8
100
AcDbLine
 10
290.243675
 20
442.647335
 30
0.0
 11
290.243675
 21
455.46173
 31
0.0
  0
LINE
  5
544
100
AcDbEntity
  8
0
  6
Continuous
 62
     8
100
AcDbLine
 10
290.243675
 20
461.461391
 30
0.0
 11
290.243675
 21
463.461478
 31
0.0
  0
LINE
  5
545
100
AcDbEntity
  8
0
  6
Continuous
 62
     8
100
AcDbLine
 10
290.243675
 20
469.461139
 30
0.0
 11
290.243675
 21
482.275535
 31
0.0
  0
LINE
  5
546
100
AcDbEntity
  8
0
  6
Continuous
 62
     8
100
AcDbLine
 10
290.243675
 20
488.275196
 30
0.0
 11
290.243675
 21
490.275283
 31
0.0
  0
LINE
  5
547
100
AcDbEntity
  8
0
  6
Continuous
 62
     8
100
AcDbLine
 10
290.243675
 20
496.274944
 30
0.0
 11
290.243675
 21
509.089339
 31
0.0
  0
LINE
  5
548
100
AcDbEntity
  8
0
  6
Continuous
 62
     8
100
AcDbLine
 10
290.243675
 20
515.089602
 30
0.0
 11
290.243675
 21
517.089088
 31
0.0
  0
LINE
  5
549
100
AcDbEntity
  8
0
  6
Continuous
 62
     8
100
AcDbLine
 10
290.243675
 20
523.088749
 30
0.0
 11
290.243675
 21
535.903745
 31
0.0
  0
LINE
  5
54A
100
AcDbEntity
  8
0
  6
Continuous
 62
     8
100
AcDbLine
 10
290.243675
 20
541.903406
 30
0.0
 11
290.243675
 21
543.902892
 31
0.0
  0
LINE
  5
54B
100
AcDbEntity
  8
0
  6
Continuous
 62
     8
100
AcDbLine
 10
290.243675
 20
549.903155
 30
0.0
 11
290.243675
 21
562.71755
 31
0.0
  0
LINE
  5
54C
100
AcDbEntity
  8
0
  6
Continuous
 62
     8
100
AcDbLine
 10
290.243675
 20
568.717211
 30
0.0
 11
290.243675
 21
570.716697
 31
0.0
  0
LINE
  5
54D
100
AcDbEntity
  8
0
  6
Continuous
 62
     8
100
AcDbLine
 10
290.243675
 20
576.716959
 30
0.0
 11
290.243675
 21
589.531355
 31
0.0
  0
ENDBLK
  5
54E
100
AcDbEntity
  8
0
100
AcDbBlockEnd
  0
BLOCK
  5
551
100
AcDbEntity
  8
0
100
AcDbBlockBegin
  2
*B74
 70
     0
 10
0.0
 20
0.0
 30
0.0
  3
*B74
  1

  0
LINE
  5
552
100
AcDbEntity
  8
0
  6
Continuous
 62
     8
100
AcDbLine
 10
466.482363
 20
249.832283
 30
0.0
 11
466.482363
 21
261.331733
 31
0.0
  0
LINE
  5
553
100
AcDbEntity
  8
0
  6
Continuous
 62
     8
100
AcDbLine
 10
466.482363
 20
275.331143
 30
0.0
 11
466.482363
 21
286.830593
 31
0.0
  0
ENDBLK
  5
554
100
AcDbEntity
  8
0
100
AcDbBlockEnd
  0
BLOCK
  5
557
100
AcDbEntity
  8
0
100
AcDbBlockBegin
  2
*B75
 70
     0
 10
0.0
 20
0.0
 30
0.0
  3
*B75
  1

  0
LINE
  5
558
100
AcDbEntity
  8
0
  6
Continuous
 62
     8
100
AcDbLine
 10
582.225772
 20
427.832852
 30
0.0
 11
582.225772
 21
462.081568
 31
0.0
  0
ENDBLK
  5
559
100
AcDbEntity
  8
0
100
AcDbBlockEnd
  0
BLOCK
  5
55C
100
AcDbEntity
  8
0
100
AcDbBlockBegin
  2
*B76
 70
     0
 10
0.0
 20
0.0
 30
0.0
  3
*B76
  1

  0
LINE
  5
55D
100
AcDbEntity
  8
0
  6
Continuous
 62
     8
100
AcDbLine
 10
322.366584
 20
48.341363
 30
0.0
 11
333.866035
 21
48.341363
 31
0.0
  0
LINE
  5
55E
100
AcDbEntity
  8
0
  6
Continuous
 62
     8
100
AcDbLine
 10
347.864842
 20
48.341363
 30
0.0
 11
359.364293
 21
48.341363
 31
0.0
  0
ENDBLK
  5
55F
100
AcDbEntity
  8
0
100
AcDbBlockEnd
  0
BLOCK
  5
562
100
AcDbEntity
  8
0
100
AcDbBlockBegin
  2
*B77
 70
     0
 10
0.0
 20
0.0
 30
0.0
  3
*B77
  1

  0
LINE
  5
563
100
AcDbEntity
  8
0
  6
Continuous
 62
     8
100
AcDbLine
 10
246.746434
 20
48.341363
 30
0.0
 11
258.245283
 21
48.341363
 31
0.0
  0
LINE
  5
564
100
AcDbEntity
  8
0
  6
Continuous
 62
     8
100
AcDbLine
 10
272.244692
 20
48.341363
 30
0.0
 11
283.744143
 21
48.341363
 31
0.0
  0
ENDBLK
  5
565
100
AcDbEntity
  8
0
100
AcDbBlockEnd
  0
BLOCK
  5
568
100
AcDbEntity
  8
0
100
AcDbBlockBegin
  2
*B78
 70
     0
 10
0.0
 20
0.0
 30
0.0
  3
*B78
  1

  0
LINE
  5
569
100
AcDbEntity
  8
0
  6
Continuous
 62
     8
100
AcDbLine
 10
365.863825
 20
589.531355
 30
0.0
 11
365.863825
 21
593.530928
 31
0.0
  0
LINE
  5
56A
100
AcDbEntity
  8
0
  6
Continuous
 62
     8
100
AcDbLine
 10
365.863825
 20
415.83353
 30
0.0
 11
365.863825
 21
428.647925
 31
0.0
  0
LINE
  5
56B
100
AcDbEntity
  8
0
  6
Continuous
 62
     8
100
AcDbLine
 10
365.863825
 20
434.647586
 30
0.0
 11
365.863825
 21
436.647674
 31
0.0
  0
LINE
  5
56C
100
AcDbEntity
  8
0
  6
Continuous
 62
     8
100
AcDbLine
 10
365.863825
 20
442.647335
 30
0.0
 11
365.863825
 21
455.46173
 31
0.0
  0
LINE
  5
56D
100
AcDbEntity
  8
0
  6
Continuous
 62
     8
100
AcDbLine
 10
365.863825
 20
461.461391
 30
0.0
 11
365.863825
 21
463.461478
 31
0.0
  0
LINE
  5
56E
100
AcDbEntity
  8
0
  6
Continuous
 62
     8
100
AcDbLine
 10
365.863825
 20
469.461139
 30
0.0
 11
365.863825
 21
482.275535
 31
0.0
  0
LINE
  5
56F
100
AcDbEntity
  8
0
  6
Continuous
 62
     8
100
AcDbLine
 10
365.863825
 20
488.275196
 30
0.0
 11
365.863825
 21
490.275283
 31
0.0
  0
LINE
  5
570
100
AcDbEntity
  8
0
  6
Continuous
 62
     8
100
AcDbLine
 10
365.863825
 20
496.274944
 30
0.0
 11
365.863825
 21
509.089339
 31
0.0
  0
LINE
  5
571
100
AcDbEntity
  8
0
  6
Continuous
 62
     8
100
AcDbLine
 10
365.863825
 20
515.089602
 30
0.0
 11
365.863825
 21
517.089088
 31
0.0
  0
LINE
  5
572
100
AcDbEntity
  8
0
  6
Continuous
 62
     8
100
AcDbLine
 10
365.863825
 20
523.088749
 30
0.0
 11
365.863825
 21
535.903745
 31
0.0
  0
LINE
  5
573
100
AcDbEntity
  8
0
  6
Continuous
 62
     8
100
AcDbLine
 10
365.863825
 20
541.903406
 30
0.0
 11
365.863825
 21
543.902892
 31
0.0
  0
LINE
  5
574
100
AcDbEntity
  8
0
  6
Continuous
 62
     8
100
AcDbLine
 10
365.863825
 20
549.903155
 30
0.0
 11
365.863825
 21
562.71755
 31
0.0
  0
LINE
  5
575
100
AcDbEntity
  8
0
  6
Continuous
 62
     8
100
AcDbLine
 10
365.863825
 20
568.717211
 30
0.0
 11
365.863825
 21
570.716697
 31
0.0
  0
LINE
  5
576
100
AcDbEntity
  8
0
  6
Continuous
 62
     8
100
AcDbLine
 10
365.863825
 20
576.716959
 30
0.0
 11
365.863825
 21
589.531355
 31
0.0
  0
ENDBLK
  5
577
100
AcDbEntity
  8
0
100
AcDbBlockEnd
  0
BLOCK
  5
57A
100
AcDbEntity
  8
0
100
AcDbBlockBegin
  2
*B79
 70
     0
 10
0.0
 20
0.0
 30
0.0
  3
*B79
  1

  0
LINE
  5
57B
100
AcDbEntity
  8
0
  6
Continuous
 62
     8
100
AcDbLine
 10
619.96216
 20
198.334692
 30
0.0
 11
623.961733
 21
198.334692
 31
0.0
  0
LINE
  5
57C
100
AcDbEntity
  8
0
  6
Continuous
 62
     8
100
AcDbLine
 10
559.726743
 20
198.334692
 30
0.0
 11
566.976383
 21
198.334692
 31
0.0
  0
LINE
  5
57D
100
AcDbEntity
  8
0
  6
Continuous
 62
     8
100
AcDbLine
 10
580.975792
 20
198.334692
 30
0.0
 11
593.468971
 21
198.334692
 31
0.0
  0
LINE
  5
57E
100
AcDbEntity
  8
0
  6
Continuous
 62
     8
100
AcDbLine
 10
599.468632
 20
198.334692
 30
0.0
 11
601.468719
 21
198.334692
 31
0.0
  0
LINE
  5
57F
100
AcDbEntity
  8
0
  6
Continuous
 62
     8
100
AcDbLine
 10
607.46838
 20
198.334692
 30
0.0
 11
619.96216
 21
198.334692
 31
0.0
  0
ENDBLK
  5
580
100
AcDbEntity
  8
0
100
AcDbBlockEnd
  0
BLOCK
  5
583
100
AcDbEntity
  8
0
100
AcDbBlockBegin
  2
*B80
 70
     0
 10
0.0
 20
0.0
 30
0.0
  3
*B80
  1

  0
LINE
  5
584
100
AcDbEntity
  8
0
  6
Continuous
 62
     8
100
AcDbLine
 10
290.243675
 20
121.088004
 30
0.0
 11
290.243675
 21
151.336545
 31
0.0
  0
LINE
  5
585
100
AcDbEntity
  8
0
  6
Continuous
 62
     8
100
AcDbLine
 10
290.243675
 20
165.335955
 30
0.0
 11
290.243675
 21
195.584496
 31
0.0
  0
ENDBLK
  5
586
100
AcDbEntity
  8
0
100
AcDbBlockEnd
  0
BLOCK
  5
589
100
AcDbEntity
  8
0
100
AcDbBlockBegin
  2
*B81
 70
     0
 10
0.0
 20
0.0
 30
0.0
  3
*B81
  1

  0
LINE
  5
58A
100
AcDbEntity
  8
0
  6
Continuous
 62
     8
100
AcDbLine
 10
187.988374
 20
359.336021
 30
0.0
 11
208.623262
 21
359.336021
 31
0.0
  0
ENDBLK
  5
58B
100
AcDbEntity
  8
0
100
AcDbBlockEnd
  0
BLOCK
  5
58E
100
AcDbEntity
  8
0
100
AcDbBlockBegin
  2
*B82
 70
     0
 10
0.0
 20
0.0
 30
0.0
  3
*B82
  1

  0
LINE
  5
58F
100
AcDbEntity
  8
0
  6
Continuous
 62
     6
100
AcDbLine
 10
365.863825
 20
237.332488
 30
0.0
 11
365.863825
 21
239.332576
 31
0.0
  0
LINE
  5
590
100
AcDbEntity
  8
0
  6
Continuous
 62
     6
100
AcDbLine
 10
364.864082
 20
238.332833
 30
0.0
 11
366.863568
 21
238.332833
 31
0.0
  0
ENDBLK
  5
591
100
AcDbEntity
  8
0
100
AcDbBlockEnd
  0
BLOCK
  5
594
100
AcDbEntity
  8
0
100
AcDbBlockBegin
  2
*B83
 70
     0
 10
0.0
 20
0.0
 30
0.0
  3
*B83
  1

  0
LINE
  5
595
100
AcDbEntity
  8
0
  6
Continuous
 62
     6
100
AcDbLine
 10
265.245288
 20
47.34162
 30
0.0
 11
265.245288
 21
49.341106
 31
0.0
  0
LINE
  5
596
100
AcDbEntity
  8
0
  6
Continuous
 62
     6
100
AcDbLine
 10
264.244944
 20
48.341363
 30
0.0
 11
266.245031
 21
48.341363
 31
0.0
  0
ENDBLK
  5
597
100
AcDbEntity
  8
0
100
AcDbBlockEnd
  0
BLOCK
  5
59A
100
AcDbEntity
  8
0
100
AcDbBlockBegin
  2
*B84
 70
     0
 10
0.0
 20
0.0
 30
0.0
  3
*B84
  1

  0
LINE
  5
59B
100
AcDbEntity
  8
0
  6
Continuous
 62
     6
100
AcDbLine
 10
315.242062
 20
267.331394
 30
0.0
 11
315.242062
 21
269.33088
 31
0.0
  0
LINE
  5
59C
100
AcDbEntity
  8
0
  6
Continuous
 62
     6
100
AcDbLine
 10
314.241717
 20
268.331137
 30
0.0
 11
316.241805
 21
268.331137
 31
0.0
  0
ENDBLK
  5
59D
100
AcDbEntity
  8
0
100
AcDbBlockEnd
  0
BLOCK
  5
5A0
100
AcDbEntity
  8
0
100
AcDbBlockBegin
  2
*B85
 70
     0
 10
0.0
 20
0.0
 30
0.0
  3
*B85
  1

  0
LINE
  5
5A1
100
AcDbEntity
  8
0
  6
Continuous
 62
     6
100
AcDbLine
 10
290.243675
 20
77.339925
 30
0.0
 11
290.243675
 21
79.340012
 31
0.0
  0
LINE
  5
5A2
100
AcDbEntity
  8
0
  6
Continuous
 62
     6
100
AcDbLine
 10
289.24333
 20
78.340269
 30
0.0
 11
291.243418
 21
78.340269
 31
0.0
  0
ENDBLK
  5
5A3
100
AcDbEntity
  8
0
100
AcDbBlockEnd
  0
BLOCK
  5
5A6
100
AcDbEntity
  8
0
100
AcDbBlockBegin
  2
*B86
 70
     0
 10
0.0
 20
0.0
 30
0.0
  3
*B86
  1

  0
LINE
  5
5A7
100
AcDbEntity
  8
0
  6
Continuous
 62
     6
100
AcDbLine
 10
491.105996
 20
48.341363
 30
0.0
 11
493.106084
 21
48.341363
 31
0.0
  0
LINE
  5
5A8
100
AcDbEntity
  8
0
  6
Continuous
 62
     6
100
AcDbLine
 10
492.105739
 20
47.34162
 30
0.0
 11
492.105739
 21
49.341106
 31
0.0
  0
ENDBLK
  5
5A9
100
AcDbEntity
  8
0
100
AcDbBlockEnd
  0
BLOCK
  5
5AC
100
AcDbEntity
  8
0
100
AcDbBlockBegin
  2
*B87
 70
     0
 10
0.0
 20
0.0
 30
0.0
  3
*B87
  1

  0
LINE
  5
5AD
100
AcDbEntity
  8
0
  6
Continuous
 62
     6
100
AcDbLine
 10
573.975787
 20
197.334347
 30
0.0
 11
573.975787
 21
199.334435
 31
0.0
  0
LINE
  5
5AE
100
AcDbEntity
  8
0
  6
Continuous
 62
     6
100
AcDbLine
 10
572.976044
 20
198.334692
 30
0.0
 11
574.976131
 21
198.334692
 31
0.0
  0
ENDBLK
  5
5AF
100
AcDbEntity
  8
0
100
AcDbBlockEnd
  0
BLOCK
  5
5B2
100
AcDbEntity
  8
0
100
AcDbBlockBegin
  2
*B88
 70
     0
 10
0.0
 20
0.0
 30
0.0
  3
*B88
  1

  0
LINE
  5
5B3
100
AcDbEntity
  8
0
  6
Continuous
 62
     6
100
AcDbLine
 10
290.243675
 20
237.332488
 30
0.0
 11
290.243675
 21
239.332576
 31
0.0
  0
LINE
  5
5B4
100
AcDbEntity
  8
0
  6
Continuous
 62
     6
100
AcDbLine
 10
289.24333
 20
238.332833
 30
0.0
 11
291.243418
 21
238.332833
 31
0.0
  0
ENDBLK
  5
5B5
100
AcDbEntity
  8
0
100
AcDbBlockEnd
  0
BLOCK
  5
5B8
100
AcDbEntity
  8
0
100
AcDbBlockBegin
  2
*B89
 70
     0
 10
0.0
 20
0.0
 30
0.0
  3
*B89
  1

  0
LINE
  5
5B9
100
AcDbEntity
  8
0
  6
Continuous
 62
     6
100
AcDbLine
 10
441.483976
 20
77.339925
 30
0.0
 11
441.483976
 21
79.340012
 31
0.0
  0
LINE
  5
5BA
100
AcDbEntity
  8
0
  6
Continuous
 62
     6
100
AcDbLine
 10
440.484233
 20
78.340269
 30
0.0
 11
442.48432
 21
78.340269
 31
0.0
  0
ENDBLK
  5
5BB
100
AcDbEntity
  8
0
100
AcDbBlockEnd
  0
BLOCK
  5
5BE
100
AcDbEntity
  8
0
100
AcDbBlockBegin
  2
*B90
 70
     0
 10
0.0
 20
0.0
 30
0.0
  3
*B90
  1

  0
LINE
  5
5BF
100
AcDbEntity
  8
0
  6
Continuous
 62
     6
100
AcDbLine
 10
415.485846
 20
48.341363
 30
0.0
 11
417.485332
 21
48.341363
 31
0.0
  0
LINE
  5
5C0
100
AcDbEntity
  8
0
  6
Continuous
 62
     6
100
AcDbLine
 10
416.485589
 20
47.34162
 30
0.0
 11
416.485589
 21
49.341106
 31
0.0
  0
ENDBLK
  5
5C1
100
AcDbEntity
  8
0
100
AcDbBlockEnd
  0
BLOCK
  5
5C4
100
AcDbEntity
  8
0
100
AcDbBlockBegin
  2
*B91
 70
     0
 10
0.0
 20
0.0
 30
0.0
  3
*B91
  1

  0
LINE
  5
5C5
100
AcDbEntity
  8
0
  6
Continuous
 62
     6
100
AcDbLine
 10
441.483976
 20
157.336206
 30
0.0
 11
441.483976
 21
159.336294
 31
0.0
  0
LINE
  5
5C6
100
AcDbEntity
  8
0
  6
Continuous
 62
     6
100
AcDbLine
 10
440.484233
 20
158.336551
 30
0.0
 11
442.48432
 21
158.336551
 31
0.0
  0
ENDBLK
  5
5C7
100
AcDbEntity
  8
0
100
AcDbBlockEnd
  0
BLOCK
  5
5CA
100
AcDbEntity
  8
0
100
AcDbBlockBegin
  2
*B92
 70
     0
 10
0.0
 20
0.0
 30
0.0
  3
*B92
  1

  0
LINE
  5
5CB
100
AcDbEntity
  8
0
  6
Continuous
 62
     6
100
AcDbLine
 10
517.104728
 20
77.339925
 30
0.0
 11
517.104728
 21
79.340012
 31
0.0
  0
LINE
  5
5CC
100
AcDbEntity
  8
0
  6
Continuous
 62
     6
100
AcDbLine
 10
516.104383
 20
78.340269
 30
0.0
 11
518.10447
 21
78.340269
 31
0.0
  0
ENDBLK
  5
5CD
100
AcDbEntity
  8
0
100
AcDbBlockEnd
  0
BLOCK
  5
5D0
100
AcDbEntity
  8
0
100
AcDbBlockBegin
  2
*B93
 70
     0
 10
0.0
 20
0.0
 30
0.0
  3
*B93
  1

  0
LINE
  5
5D1
100
AcDbEntity
  8
0
  6
Continuous
 62
     6
100
AcDbLine
 10
232.372271
 20
118.33841
 30
0.0
 11
234.371757
 21
118.33841
 31
0.0
  0
LINE
  5
5D2
100
AcDbEntity
  8
0
  6
Continuous
 62
     6
100
AcDbLine
 10
233.372014
 20
117.338066
 30
0.0
 11
233.372014
 21
119.338153
 31
0.0
  0
ENDBLK
  5
5D3
100
AcDbEntity
  8
0
100
AcDbBlockEnd
  0
BLOCK
  5
5D6
100
AcDbEntity
  8
0
100
AcDbBlockBegin
  2
*B94
 70
     0
 10
0.0
 20
0.0
 30
0.0
  3
*B94
  1

  0
LINE
  5
5D7
100
AcDbEntity
  8
0
  6
Continuous
 62
     6
100
AcDbLine
 10
465.48262
 20
268.331137
 30
0.0
 11
467.482707
 21
268.331137
 31
0.0
  0
LINE
  5
5D8
100
AcDbEntity
  8
0
  6
Continuous
 62
     6
100
AcDbLine
 10
466.482363
 20
267.331394
 30
0.0
 11
466.482363
 21
269.33088
 31
0.0
  0
ENDBLK
  5
5D9
100
AcDbEntity
  8
0
100
AcDbBlockEnd
  0
BLOCK
  5
5DC
100
AcDbEntity
  8
0
100
AcDbBlockBegin
  2
*B95
 70
     0
 10
0.0
 20
0.0
 30
0.0
  3
*B95
  1

  0
LINE
  5
5DD
100
AcDbEntity
  8
0
  6
Continuous
 62
     6
100
AcDbLine
 10
365.863825
 20
77.339925
 30
0.0
 11
365.863825
 21
79.340012
 31
0.0
  0
LINE
  5
5DE
100
AcDbEntity
  8
0
  6
Continuous
 62
     6
100
AcDbLine
 10
364.864082
 20
78.340269
 30
0.0
 11
366.863568
 21
78.340269
 31
0.0
  0
ENDBLK
  5
5DF
100
AcDbEntity
  8
0
100
AcDbBlockEnd
  0
BLOCK
  5
5E2
100
AcDbEntity
  8
0
100
AcDbBlockBegin
  2
*B96
 70
     0
 10
0.0
 20
0.0
 30
0.0
  3
*B96
  1

  0
LINE
  5
5E3
100
AcDbEntity
  8
0
  6
Continuous
 62
     6
100
AcDbLine
 10
289.24333
 20
158.336551
 30
0.0
 11
291.243418
 21
158.336551
 31
0.0
  0
LINE
  5
5E4
100
AcDbEntity
  8
0
  6
Continuous
 62
     6
100
AcDbLine
 10
290.243675
 20
157.336206
 30
0.0
 11
290.243675
 21
159.336294
 31
0.0
  0
ENDBLK
  5
5E5
100
AcDbEntity
  8
0
100
AcDbBlockEnd
  0
BLOCK
  5
5E8
100
AcDbEntity
  8
0
100
AcDbBlockBegin
  2
*B97
 70
     0
 10
0.0
 20
0.0
 30
0.0
  3
*B97
  1

  0
LINE
  5
5E9
100
AcDbEntity
  8
0
  6
Continuous
 62
     6
100
AcDbLine
 10
365.863825
 20
157.336206
 30
0.0
 11
365.863825
 21
159.336294
 31
0.0
  0
LINE
  5
5EA
100
AcDbEntity
  8
0
  6
Continuous
 62
     6
100
AcDbLine
 10
364.864082
 20
158.336551
 30
0.0
 11
366.863568
 21
158.336551
 31
0.0
  0
ENDBLK
  5
5EB
100
AcDbEntity
  8
0
100
AcDbBlockEnd
  0
BLOCK
  5
5EE
100
AcDbEntity
  8
0
100
AcDbBlockBegin
  2
*B98
 70
     0
 10
0.0
 20
0.0
 30
0.0
  3
*B98
  1

  0
LINE
  5
5EF
100
AcDbEntity
  8
0
  6
Continuous
 62
     6
100
AcDbLine
 10
542.103114
 20
267.331394
 30
0.0
 11
542.103114
 21
269.33088
 31
0.0
  0
LINE
  5
5F0
100
AcDbEntity
  8
0
  6
Continuous
 62
     6
100
AcDbLine
 10
541.10277
 20
268.331137
 30
0.0
 11
543.102857
 21
268.331137
 31
0.0
  0
ENDBLK
  5
5F1
100
AcDbEntity
  8
0
100
AcDbBlockEnd
  0
BLOCK
  5
5F4
100
AcDbEntity
  8
0
100
AcDbBlockBegin
  2
*B99
 70
     0
 10
0.0
 20
0.0
 30
0.0
  3
*B99
  1

  0
LINE
  5
5F5
100
AcDbEntity
  8
0
  6
Continuous
 62
     6
100
AcDbLine
 10
233.372014
 20
197.334347
 30
0.0
 11
233.372014
 21
199.334435
 31
0.0
  0
LINE
  5
5F6
100
AcDbEntity
  8
0
  6
Continuous
 62
     6
100
AcDbLine
 10
232.372271
 20
198.334692
 30
0.0
 11
234.371757
 21
198.334692
 31
0.0
  0
ENDBLK
  5
5F7
100
AcDbEntity
  8
0
100
AcDbBlockEnd
  0
BLOCK
  5
5FA
100
AcDbEntity
  8
0
100
AcDbBlockBegin
  2
*B100
 70
     0
 10
0.0
 20
0.0
 30
0.0
  3
*B100
  1

  0
LINE
  5
5FB
100
AcDbEntity
  8
0
  6
Continuous
 62
     6
100
AcDbLine
 10
340.865438
 20
47.34162
 30
0.0
 11
340.865438
 21
49.341106
 31
0.0
  0
LINE
  5
5FC
100
AcDbEntity
  8
0
  6
Continuous
 62
     6
100
AcDbLine
 10
339.865695
 20
48.341363
 30
0.0
 11
341.865181
 21
48.341363
 31
0.0
  0
ENDBLK
  5
5FD
100
AcDbEntity
  8
0
100
AcDbBlockEnd
  0
BLOCK
  5
600
100
AcDbEntity
  8
0
100
AcDbBlockBegin
  2
*B101
 70
     0
 10
0.0
 20
0.0
 30
0.0
  3
*B101
  1

  0
LINE
  5
601
100
AcDbEntity
  8
0
  6
Continuous
 62
     6
100
AcDbLine
 10
390.862212
 20
267.331394
 30
0.0
 11
390.862212
 21
269.33088
 31
0.0
  0
LINE
  5
602
100
AcDbEntity
  8
0
  6
Continuous
 62
     6
100
AcDbLine
 10
389.862469
 20
268.331137
 30
0.0
 11
391.861955
 21
268.331137
 31
0.0
  0
ENDBLK
  5
603
100
AcDbEntity
  8
0
100
AcDbBlockEnd
  0
BLOCK
  5
606
100
AcDbEntity
  8
0
100
AcDbBlockBegin
  2
*B102
 70
     0
 10
0.0
 20
0.0
 30
0.0
  3
*B102
  1

  0
LINE
  5
607
100
AcDbEntity
  8
0
  6
Continuous
 62
     6
100
AcDbLine
 10
441.483976
 20
237.332488
 30
0.0
 11
441.483976
 21
239.332576
 31
0.0
  0
LINE
  5
608
100
AcDbEntity
  8
0
  6
Continuous
 62
     6
100
AcDbLine
 10
440.484233
 20
238.332833
 30
0.0
 11
442.48432
 21
238.332833
 31
0.0
  0
ENDBLK
  5
609
100
AcDbEntity
  8
0
100
AcDbBlockEnd
  0
BLOCK
  5
60C
100
AcDbEntity
  8
0
100
AcDbBlockBegin
  2
*B103
 70
     0
 10
0.0
 20
0.0
 30
0.0
  3
*B103
  1

  0
LINE
  5
60D
100
AcDbEntity
  8
0
  6
Continuous
 62
     6
100
AcDbLine
 10
517.104728
 20
157.336206
 30
0.0
 11
517.104728
 21
159.336294
 31
0.0
  0
LINE
  5
60E
100
AcDbEntity
  8
0
  6
Continuous
 62
     6
100
AcDbLine
 10
516.104383
 20
158.336551
 30
0.0
 11
518.10447
 21
158.336551
 31
0.0
  0
ENDBLK
  5
60F
100
AcDbEntity
  8
0
100
AcDbBlockEnd
  0
BLOCK
  5
612
100
AcDbEntity
  8
0
100
AcDbBlockBegin
  2
*B104
 70
     0
 10
0.0
 20
0.0
 30
0.0
  3
*B104
  1

  0
LINE
  5
613
100
AcDbEntity
  8
0
  6
Continuous
 62
     6
100
AcDbLine
 10
573.975787
 20
117.338066
 30
0.0
 11
573.975787
 21
119.338153
 31
0.0
  0
LINE
  5
614
100
AcDbEntity
  8
0
  6
Continuous
 62
     6
100
AcDbLine
 10
572.976044
 20
118.33841
 30
0.0
 11
574.976131
 21
118.33841
 31
0.0
  0
ENDBLK
  5
615
100
AcDbEntity
  8
0
100
AcDbBlockEnd
  0
BLOCK
  5
618
100
AcDbEntity
  8
0
100
AcDbBlockBegin
  2
*B105
 70
     0
 10
0.0
 20
0.0
 30
0.0
  3
*B105
  1

  0
LINE
  5
619
100
AcDbEntity
  8
0
  6
Continuous
 62
     6
100
AcDbLine
 10
517.104728
 20
237.332488
 30
0.0
 11
517.104728
 21
239.332576
 31
0.0
  0
LINE
  5
61A
100
AcDbEntity
  8
0
  6
Continuous
 62
     6
100
AcDbLine
 10
516.104383
 20
238.332833
 30
0.0
 11
518.10447
 21
238.332833
 31
0.0
  0
ENDBLK
  5
61B
100
AcDbEntity
  8
0
100
AcDbBlockEnd
  0
BLOCK
  5
61E
100
AcDbEntity
  8
0
100
AcDbBlockBegin
  2
*B106
 70
     0
 10
0.0
 20
0.0
 30
0.0
  3
*B106
  1

  0
LINE
  5
61F
100
AcDbEntity
  8
0
  6
Continuous
 62
     0
100
AcDbLine
 10
359.85454
 20
5.10278
 30
0.0
 11
393.099904
 21
5.10278
 31
0.0
  0
LINE
  5
620
100
AcDbEntity
  8
0
  6
Continuous
 62
     0
100
AcDbLine
 10
393.099904
 20
5.10278
 30
0.0
 11
413.21507
 21
42.294783
 31
0.0
  0
SOLID
  5
621
100
AcDbEntity
  8
0
  6
Continuous
 62
     0
100
AcDbTrace
 10
409.705743
 20
30.550509
 30
0.0
 11
413.21507
 21
42.294783
 31
0.0
 12
405.307957
 22
32.928959
 32
0.0
 13
405.307957
 23
32.928959
 33
0.0
  0
ENDBLK
  5
622
100
AcDbEntity
  8
0
100
AcDbBlockEnd
  0
BLOCK
  5
625
100
AcDbEntity
  8
0
100
AcDbBlockBegin
  2
*B107
 70
     0
 10
0.0
 20
0.0
 30
0.0
  3
*B107
  1

  0
LINE
  5
626
100
AcDbEntity
  8
0
  6
Continuous
 62
     0
100
AcDbLine
 10
456.753215
 20
5.10278
 30
0.0
 11
486.189089
 21
5.10278
 31
0.0
  0
LINE
  5
627
100
AcDbEntity
  8
0
  6
Continuous
 62
     0
100
AcDbLine
 10
486.189089
 20
5.10278
 30
0.0
 11
511.271089
 21
64.521319
 31
0.0
  0
SOLID
  5
628
100
AcDbEntity
  8
0
  6
Continuous
 62
     0
100
AcDbTrace
 10
508.907677
 20
52.494327
 30
0.0
 11
511.271089
 21
64.521319
 31
0.0
 12
504.301761
 22
54.439073
 32
0.0
 13
504.301761
 23
54.439073
 33
0.0
  0
ENDBLK
  5
629
100
AcDbEntity
  8
0
100
AcDbBlockEnd
  0
BLOCK
  5
62C
100
AcDbEntity
  8
0
100
AcDbBlockBegin
  2
*B108
 70
     0
 10
0.0
 20
0.0
 30
0.0
  3
*B108
  1

  0
LINE
  5
62D
100
AcDbEntity
  8
0
  6
Continuous
 62
     0
100
AcDbLine
 10
593.182642
 20
5.10278
 30
0.0
 11
563.746166
 21
5.10278
 31
0.0
  0
LINE
  5
62E
100
AcDbEntity
  8
0
  6
Continuous
 62
     0
100
AcDbLine
 10
563.746166
 20
5.10278
 30
0.0
 11
533.890424
 21
51.983026
 31
0.0
  0
SOLID
  5
62F
100
AcDbEntity
  8
0
  6
Continuous
 62
     0
100
AcDbTrace
 10
542.444783
 20
43.204898
 30
0.0
 11
533.890424
 21
51.983026
 31
0.0
 12
538.227456
 22
40.519066
 32
0.0
 13
538.227456
 23
40.519066
 33
0.0
  0
ENDBLK
  5
630
100
AcDbEntity
  8
0
100
AcDbBlockEnd
  0
BLOCK
  5
633
100
AcDbEntity
  8
0
100
AcDbBlockBegin
  2
*B109
 70
     0
 10
0.0
 20
0.0
 30
0.0
  3
*B109
  1

  0
TEXT
  5
634
100
AcDbEntity
  8
TEXT
  6
Continuous
 62
     0
100
AcDbText
 10
359.87619
 20
11.0
 30
0.0
 40
8.0
  1
%%c5,5
100
AcDbText
  0
ENDBLK
  5
635
100
AcDbEntity
  8
0
100
AcDbBlockEnd
  0
BLOCK
  5
638
100
AcDbEntity
  8
0
100
AcDbBlockBegin
  2
*B110
 70
     0
 10
0.0
 20
0.0
 30
0.0
  3
*B110
  1

  0
TEXT
  5
639
100
AcDbEntity
  8
TEXT
  6
Continuous
 62
     0
100
AcDbText
 10
456.780952
 20
11.0
 30
0.0
 40
8.0
  1
%%c12
100
AcDbText
  0
ENDBLK
  5
63A
100
AcDbEntity
  8
0
100
AcDbBlockEnd
  0
BLOCK
  5
63D
100
AcDbEntity
  8
0
100
AcDbBlockBegin
  2
*B111
 70
     0
 10
0.0
 20
0.0
 30
0.0
  3
*B111
  1

  0
TEXT
  5
63E
100
AcDbEntity
  8
TEXT
  6
Continuous
 62
     0
100
AcDbText
 10
566.780952
 20
11.0
 30
0.0
 40
8.0
  1
%%c25
100
AcDbText
  0
ENDBLK
  5
63F
100
AcDbEntity
  8
0
100
AcDbBlockEnd
  0
BLOCK
  5
642
100
AcDbEntity
  8
0
100
AcDbBlockBegin
  2
*B112
 70
     0
 10
0.0
 20
0.0
 30
0.0
  3
*B112
  1

  0
TEXT
  5
643
100
AcDbEntity
  8
TEXT
  6
Continuous
 62
     0
100
AcDbText
 10
169.532926
 20
310.0
 30
0.0
 40
8.0
  1
7,5
100
AcDbText
  0
ENDBLK
  5
644
100
AcDbEntity
  8
0
100
AcDbBlockEnd
  0
BLOCK
  5
647
100
AcDbEntity
  8
0
100
AcDbBlockBegin
  2
*B113
 70
     0
 10
0.0
 20
0.0
 30
0.0
  3
*B113
  1

  0
TEXT
  5
648
100
AcDbEntity
  8
TEXT
  6
Continuous
 62
     0
100
AcDbText
 10
619.532926
 20
310.0
 30
0.0
 40
8.0
  1
7,5
100
AcDbText
  0
ENDBLK
  5
649
100
AcDbEntity
  8
0
100
AcDbBlockEnd
  0
BLOCK
  5
64C
100
AcDbEntity
  8
0
100
AcDbBlockBegin
  2
*B114
 70
     0
 10
0.0
 20
0.0
 30
0.0
  3
*B114
  1

  0
TEXT
  5
64D
100
AcDbEntity
  8
TEXT
  6
Continuous
 62
     0
100
AcDbText
 10
235.305772
 20
334.0
 30
0.0
 40
8.0
  1
30,25
100
AcDbText
  0
ENDBLK
  5
64E
100
AcDbEntity
  8
0
100
AcDbBlockEnd
  0
BLOCK
  5
651
100
AcDbEntity
  8
0
100
AcDbBlockBegin
  2
*B115
 70
     0
 10
0.0
 20
0.0
 30
0.0
  3
*B115
  1

  0
TEXT
  5
652
100
AcDbEntity
  8
TEXT
  6
Continuous
 62
     0
100
AcDbText
 10
310.930772
 20
334.0
 30
0.0
 40
8.0
  1
30,25
100
AcDbText
  0
ENDBLK
  5
653
100
AcDbEntity
  8
0
100
AcDbBlockEnd
  0
BLOCK
  5
656
100
AcDbEntity
  8
0
100
AcDbBlockBegin
  2
*B116
 70
     0
 10
0.0
 20
0.0
 30
0.0
  3
*B116
  1

  0
TEXT
  5
657
100
AcDbEntity
  8
TEXT
  6
Continuous
 62
     0
100
AcDbText
 10
386.555772
 20
334.0
 30
0.0
 40
8.0
  1
30,25
100
AcDbText
  0
ENDBLK
  5
658
100
AcDbEntity
  8
0
100
AcDbBlockEnd
  0
BLOCK
  5
65B
100
AcDbEntity
  8
0
100
AcDbBlockBegin
  2
*B117
 70
     0
 10
0.0
 20
0.0
 30
0.0
  3
*B117
  1

  0
TEXT
  5
65C
100
AcDbEntity
  8
TEXT
  6
Continuous
 62
     0
100
AcDbText
 10
462.180772
 20
334.0
 30
0.0
 40
8.0
  1
30,25
100
AcDbText
  0
ENDBLK
  5
65D
100
AcDbEntity
  8
0
100
AcDbBlockEnd
  0
BLOCK
  5
660
100
AcDbEntity
  8
0
100
AcDbBlockBegin
  2
*B118
 70
     0
 10
0.0
 20
0.0
 30
0.0
  3
*B118
  1

  0
TEXT
  5
661
100
AcDbEntity
  8
TEXT
  6
Continuous
 62
     0
100
AcDbText
 10
537.805772
 20
334.0
 30
0.0
 40
8.0
  1
30,25
100
AcDbText
  0
ENDBLK
  5
662
100
AcDbEntity
  8
0
100
AcDbBlockEnd
  0
BLOCK
  5
665
100
AcDbEntity
  8
0
100
AcDbBlockBegin
  2
*B119
 70
     0
 10
0.0
 20
0.0
 30
0.0
  3
*B119
  1

  0
TEXT
  5
666
100
AcDbEntity
  8
TEXT
  6
Continuous
 62
     0
100
AcDbText
 10
186.0
 20
200.095238
 30
0.0
 40
8.0
  1
G 1/2"
 50
90.0
100
AcDbText
  0
ENDBLK
  5
667
100
AcDbEntity
  8
0
100
AcDbBlockEnd
  0
BLOCK
  5
66A
100
AcDbEntity
  8
0
100
AcDbBlockBegin
  2
*B120
 70
     0
 10
0.0
 20
0.0
 30
0.0
  3
*B120
  1

  0
TEXT
  5
66B
100
AcDbEntity
  8
TEXT
  6
Continuous
 62
     0
100
AcDbText
 10
156.0
 20
190.621785
 30
0.0
 40
8.0
  1
32
 50
90.0
100
AcDbText
  0
ENDBLK
  5
66C
100
AcDbEntity
  8
0
100
AcDbBlockEnd
  0
BLOCK
  5
66F
100
AcDbEntity
  8
0
100
AcDbBlockBegin
  2
*B121
 70
     0
 10
0.0
 20
0.0
 30
0.0
  3
*B121
  1

  0
TEXT
  5
670
100
AcDbEntity
  8
TEXT
  6
Continuous
 62
     0
100
AcDbText
 10
156.0
 20
110.621785
 30
0.0
 40
8.0
  1
32
 50
90.0
100
AcDbText
  0
ENDBLK
  5
671
100
AcDbEntity
  8
0
100
AcDbBlockEnd
  0
BLOCK
  5
674
100
AcDbEntity
  8
0
100
AcDbBlockBegin
  2
*B122
 70
     0
 10
0.0
 20
0.0
 30
0.0
  3
*B122
  1

  0
TEXT
  5
675
100
AcDbEntity
  8
TEXT
  6
Continuous
 62
     0
100
AcDbText
 10
126.0
 20
146.812261
 30
0.0
 40
8.0
  1
100
 50
90.0
100
AcDbText
  0
ENDBLK
  5
676
100
AcDbEntity
  8
0
100
AcDbBlockEnd
  0
BLOCK
  5
679
100
AcDbEntity
  8
0
100
AcDbBlockBegin
  2
*B123
 70
     0
 10
0.0
 20
0.0
 30
0.0
  3
*B123
  1

  0
TEXT
  5
67A
100
AcDbEntity
  8
TEXT
  6
Continuous
 62
     0
100
AcDbText
 10
186.0
 20
382.880998
 30
0.0
 40
8.0
  1
25
 50
90.0
100
AcDbText
  0
ENDBLK
  5
67B
100
AcDbEntity
  8
0
100
AcDbBlockEnd
  0
BLOCK
  5
67E
100
AcDbEntity
  8
0
100
AcDbBlockBegin
  2
*B124
 70
     0
 10
0.0
 20
0.0
 30
0.0
  3
*B124
  1

  0
TEXT
  5
67F
100
AcDbEntity
  8
TEXT
  6
Continuous
 62
     0
100
AcDbText
 10
618.0
 20
150.621785
 30
0.0
 40
8.0
  1
32
 50
90.0
100
AcDbText
  0
ENDBLK
  5
680
100
AcDbEntity
  8
0
100
AcDbBlockEnd
  0
BLOCK
  5
683
100
AcDbEntity
  8
0
100
AcDbBlockBegin
  2
*B125
 70
     0
 10
0.0
 20
0.0
 30
0.0
  3
*B125
  1

  0
TEXT
  5
684
100
AcDbEntity
  8
TEXT
  6
Continuous
 62
     0
100
AcDbText
 10
310.930772
 20
595.455884
 30
0.0
 40
8.0
  1
30,25
100
AcDbText
  0
ENDBLK
  5
685
100
AcDbEntity
  8
0
100
AcDbBlockEnd
  0
BLOCK
  5
688
100
AcDbEntity
  8
0
100
AcDbBlockBegin
  2
*B126
 70
     0
 10
0.0
 20
0.0
 30
0.0
  3
*B126
  1

  0
TEXT
  5
689
100
AcDbEntity
  8
TEXT
  6
Continuous
 62
     0
100
AcDbText
 10
386.555772
 20
595.455884
 30
0.0
 40
8.0
  1
30,25
100
AcDbText
  0
ENDBLK
  5
68A
100
AcDbEntity
  8
0
100
AcDbBlockEnd
  0
BLOCK
  5
68D
100
AcDbEntity
  8
0
100
AcDbBlockBegin
  2
*B127
 70
     0
 10
0.0
 20
0.0
 30
0.0
  3
*B127
  1

  0
TEXT
  5
68E
100
AcDbEntity
  8
TEXT
  6
Continuous
 62
     0
100
AcDbText
 10
186.0
 20
489.130998
 30
0.0
 40
8.0
  1
60
 50
90.0
100
AcDbText
  0
ENDBLK
  5
68F
100
AcDbEntity
  8
0
100
AcDbBlockEnd
  0
BLOCK
  5
692
100
AcDbEntity
  8
0
100
AcDbBlockBegin
  2
*B128
 70
     0
 10
0.0
 20
0.0
 30
0.0
  3
*B128
  1

  0
TEXT
  5
693
100
AcDbEntity
  8
TEXT
  6
Continuous
 62
     0
100
AcDbText
 10
282.642082
 20
9.0
 30
0.0
 40
8.0
  1
20
100
AcDbText
  0
ENDBLK
  5
694
100
AcDbEntity
  8
0
100
AcDbBlockEnd
  0
BLOCK
  5
697
100
AcDbEntity
  8
0
100
AcDbBlockBegin
  2
*B129
 70
     0
 10
0.0
 20
0.0
 30
0.0
  3
*B129
  1

  0
TEXT
  5
698
100
AcDbEntity
  8
TEXT
  6
Continuous
 62
     0
100
AcDbText
 10
599.87619
 20
464.0
 30
0.0
 40
8.0
  1
%%c6,6
100
AcDbText
  0
ENDBLK
  5
699
100
AcDbEntity
  8
0
100
AcDbBlockEnd
  0
BLOCK
  5
69C
100
AcDbEntity
  8
0
100
AcDbBlockBegin
  2
*B130
 70
     0
 10
0.0
 20
0.0
 30
0.0
  3
*B130
  1

  0
TEXT
  5
69D
100
AcDbEntity
  8
TEXT
  6
Continuous
 62
     0
100
AcDbText
 10
462.180772
 20
595.455884
 30
0.0
 40
8.0
  1
30,25
100
AcDbText
  0
ENDBLK
  5
69E
100
AcDbEntity
  8
0
100
AcDbBlockEnd
  0
BLOCK
  5
6A1
100
AcDbEntity
  8
0
100
AcDbBlockBegin
  2
*B131
 70
     0
 10
0.0
 20
0.0
 30
0.0
  3
*B131
  1

  0
TEXT
  5
6A2
100
AcDbEntity
  8
TEXT
  6
Continuous
 62
     0
100
AcDbText
 10
646.0
 20
150.621785
 30
0.0
 40
8.0
  1
88
 50
90.0
100
AcDbText
  0
ENDBLK
  5
6A3
100
AcDbEntity
  8
0
100
AcDbBlockEnd
  0
ENDSEC
  0
SECTION
  2
ENTITIES
  0
INSERT
  5
1C6
100
AcDbEntity
  8
0
  6
HIDDEN
 62
   174
100
AcDbBlockReference
  2
*B2
 10
0.0
 20
0.0
 30
0.0
  0
INSERT
  5
1DA
100
AcDbEntity
  8
0
  6
HIDDEN
 62
   232
100
AcDbBlockReference
  2
*B3
 10
0.0
 20
0.0
 30
0.0
  0
INSERT
  5
2BE
100
AcDbEntity
  8
0
  6
HIDDEN
 62
   174
100
AcDbBlockReference
  2
*B4
 10
0.0
 20
0.0
 30
0.0
  0
INSERT
  5
2C5
100
AcDbEntity
  8
0
  6
Continuous
 62
     0
100
AcDbBlockReference
  2
*B5
 10
0.0
 20
0.0
 30
0.0
  0
INSERT
  5
2CC
100
AcDbEntity
  8
0
  6
Continuous
 62
     0
100
AcDbBlockReference
  2
*B6
 10
0.0
 20
0.0
 30
0.0
  0
INSERT
  5
2D3
100
AcDbEntity
  8
0
  6
Continuous
 62
     0
100
AcDbBlockReference
  2
*B7
 10
0.0
 20
0.0
 30
0.0
  0
INSERT
  5
2DA
100
AcDbEntity
  8
0
  6
Continuous
 62
     0
100
AcDbBlockReference
  2
*B8
 10
0.0
 20
0.0
 30
0.0
  0
INSERT
  5
2E1
100
AcDbEntity
  8
0
  6
Continuous
 62
     0
100
AcDbBlockReference
  2
*B9
 10
0.0
 20
0.0
 30
0.0
  0
INSERT
  5
2E8
100
AcDbEntity
  8
0
  6
Continuous
 62
     0
100
AcDbBlockReference
  2
*B10
 10
0.0
 20
0.0
 30
0.0
  0
INSERT
  5
2EF
100
AcDbEntity
  8
0
  6
Continuous
 62
     0
100
AcDbBlockReference
  2
*B11
 10
0.0
 20
0.0
 30
0.0
  0
INSERT
  5
2F6
100
AcDbEntity
  8
0
  6
Continuous
 62
     0
100
AcDbBlockReference
  2
*B12
 10
0.0
 20
0.0
 30
0.0
  0
INSERT
  5
2FD
100
AcDbEntity
  8
0
  6
Continuous
 62
     0
100
AcDbBlockReference
  2
*B13
 10
0.0
 20
0.0
 30
0.0
  0
INSERT
  5
304
100
AcDbEntity
  8
0
  6
Continuous
 62
     0
100
AcDbBlockReference
  2
*B14
 10
0.0
 20
0.0
 30
0.0
  0
INSERT
  5
30B
100
AcDbEntity
  8
0
  6
Continuous
 62
     0
100
AcDbBlockReference
  2
*B15
 10
0.0
 20
0.0
 30
0.0
  0
INSERT
  5
312
100
AcDbEntity
  8
0
  6
Continuous
 62
     0
100
AcDbBlockReference
  2
*B16
 10
0.0
 20
0.0
 30
0.0
  0
INSERT
  5
319
100
AcDbEntity
  8
0
  6
Continuous
 62
     0
100
AcDbBlockReference
  2
*B17
 10
0.0
 20
0.0
 30
0.0
  0
INSERT
  5
320
100
AcDbEntity
  8
0
  6
Continuous
 62
     0
100
AcDbBlockReference
  2
*B18
 10
0.0
 20
0.0
 30
0.0
  0
INSERT
  5
327
100
AcDbEntity
  8
0
  6
Continuous
 62
     0
100
AcDbBlockReference
  2
*B19
 10
0.0
 20
0.0
 30
0.0
  0
INSERT
  5
32E
100
AcDbEntity
  8
0
  6
Continuous
 62
     0
100
AcDbBlockReference
  2
*B20
 10
0.0
 20
0.0
 30
0.0
  0
INSERT
  5
335
100
AcDbEntity
  8
0
  6
Continuous
 62
     0
100
AcDbBlockReference
  2
*B21
 10
0.0
 20
0.0
 30
0.0
  0
INSERT
  5
33C
100
AcDbEntity
  8
0
  6
Continuous
 62
     0
100
AcDbBlockReference
  2
*B22
 10
0.0
 20
0.0
 30
0.0
  0
INSERT
  5
343
100
AcDbEntity
  8
0
  6
Continuous
 62
     0
100
AcDbBlockReference
  2
*B23
 10
0.0
 20
0.0
 30
0.0
  0
INSERT
  5
34A
100
AcDbEntity
  8
0
  6
Continuous
 62
     0
100
AcDbBlockReference
  2
*B24
 10
0.0
 20
0.0
 30
0.0
  0
INSERT
  5
34F
100
AcDbEntity
  8
0
  6
Continuous
 62
     8
100
AcDbBlockReference
  2
*B25
 10
0.0
 20
0.0
 30
0.0
  0
INSERT
  5
354
100
AcDbEntity
  8
0
  6
Continuous
 62
     8
100
AcDbBlockReference
  2
*B26
 10
0.0
 20
0.0
 30
0.0
  0
INSERT
  5
359
100
AcDbEntity
  8
0
  6
Continuous
 62
     8
100
AcDbBlockReference
  2
*B27
 10
0.0
 20
0.0
 30
0.0
  0
INSERT
  5
35F
100
AcDbEntity
  8
0
  6
Continuous
 62
     8
100
AcDbBlockReference
  2
*B28
 10
0.0
 20
0.0
 30
0.0
  0
INSERT
  5
371
100
AcDbEntity
  8
0
  6
Continuous
 62
     8
100
AcDbBlockReference
  2
*B29
 10
0.0
 20
0.0
 30
0.0
  0
INSERT
  5
377
100
AcDbEntity
  8
0
  6
Continuous
 62
     8
100
AcDbBlockReference
  2
*B30
 10
0.0
 20
0.0
 30
0.0
  0
INSERT
  5
37D
100
AcDbEntity
  8
0
  6
Continuous
 62
     8
100
AcDbBlockReference
  2
*B31
 10
0.0
 20
0.0
 30
0.0
  0
INSERT
  5
383
100
AcDbEntity
  8
0
  6
Continuous
 62
     8
100
AcDbBlockReference
  2
*B32
 10
0.0
 20
0.0
 30
0.0
  0
INSERT
  5
38E
100
AcDbEntity
  8
0
  6
Continuous
 62
     8
100
AcDbBlockReference
  2
*B33
 10
0.0
 20
0.0
 30
0.0
  0
INSERT
  5
394
100
AcDbEntity
  8
0
  6
Continuous
 62
     8
100
AcDbBlockReference
  2
*B34
 10
0.0
 20
0.0
 30
0.0
  0
INSERT
  5
3A1
100
AcDbEntity
  8
0
  6
Continuous
 62
     8
100
AcDbBlockReference
  2
*B35
 10
0.0
 20
0.0
 30
0.0
  0
INSERT
  5
3AA
100
AcDbEntity
  8
0
  6
Continuous
 62
     8
100
AcDbBlockReference
  2
*B36
 10
0.0
 20
0.0
 30
0.0
  0
INSERT
  5
3CD
100
AcDbEntity
  8
0
  6
Continuous
 62
     8
100
AcDbBlockReference
  2
*B37
 10
0.0
 20
0.0
 30
0.0
  0
INSERT
  5
3D3
100
AcDbEntity
  8
0
  6
Continuous
 62
     8
100
AcDbBlockReference
  2
*B38
 10
0.0
 20
0.0
 30
0.0
  0
INSERT
  5
3D9
100
AcDbEntity
  8
0
  6
Continuous
 62
     8
100
AcDbBlockReference
  2
*B39
 10
0.0
 20
0.0
 30
0.0
  0
INSERT
  5
3FB
100
AcDbEntity
  8
0
  6
Continuous
 62
     8
100
AcDbBlockReference
  2
*B40
 10
0.0
 20
0.0
 30
0.0
  0
INSERT
  5
404
100
AcDbEntity
  8
0
  6
Continuous
 62
     8
100
AcDbBlockReference
  2
*B41
 10
0.0
 20
0.0
 30
0.0
  0
INSERT
  5
426
100
AcDbEntity
  8
0
  6
Continuous
 62
     8
100
AcDbBlockReference
  2
*B42
 10
0.0
 20
0.0
 30
0.0
  0
INSERT
  5
433
100
AcDbEntity
  8
0
  6
Continuous
 62
     8
100
AcDbBlockReference
  2
*B43
 10
0.0
 20
0.0
 30
0.0
  0
INSERT
  5
43C
100
AcDbEntity
  8
0
  6
Continuous
 62
     8
100
AcDbBlockReference
  2
*B44
 10
0.0
 20
0.0
 30
0.0
  0
INSERT
  5
443
100
AcDbEntity
  8
0
  6
Continuous
 62
     8
100
AcDbBlockReference
  2
*B45
 10
0.0
 20
0.0
 30
0.0
  0
INSERT
  5
449
100
AcDbEntity
  8
0
  6
Continuous
 62
     8
100
AcDbBlockReference
  2
*B46
 10
0.0
 20
0.0
 30
0.0
  0
INSERT
  5
44E
100
AcDbEntity
  8
0
  6
Continuous
 62
     8
100
AcDbBlockReference
  2
*B47
 10
0.0
 20
0.0
 30
0.0
  0
INSERT
  5
454
100
AcDbEntity
  8
0
  6
Continuous
 62
     8
100
AcDbBlockReference
  2
*B48
 10
0.0
 20
0.0
 30
0.0
  0
INSERT
  5
45F
100
AcDbEntity
  8
0
  6
Continuous
 62
     8
100
AcDbBlockReference
  2
*B49
 10
0.0
 20
0.0
 30
0.0
  0
INSERT
  5
465
100
AcDbEntity
  8
0
  6
Continuous
 62
     8
100
AcDbBlockReference
  2
*B50
 10
0.0
 20
0.0
 30
0.0
  0
INSERT
  5
470
100
AcDbEntity
  8
0
  6
Continuous
 62
     8
100
AcDbBlockReference
  2
*B51
 10
0.0
 20
0.0
 30
0.0
  0
INSERT
  5
476
100
AcDbEntity
  8
0
  6
Continuous
 62
     8
100
AcDbBlockReference
  2
*B52
 10
0.0
 20
0.0
 30
0.0
  0
INSERT
  5
47B
100
AcDbEntity
  8
0
  6
Continuous
 62
     8
100
AcDbBlockReference
  2
*B53
 10
0.0
 20
0.0
 30
0.0
  0
INSERT
  5
48C
100
AcDbEntity
  8
0
  6
Continuous
 62
     8
100
AcDbBlockReference
  2
*B54
 10
0.0
 20
0.0
 30
0.0
  0
INSERT
  5
497
100
AcDbEntity
  8
0
  6
Continuous
 62
     8
100
AcDbBlockReference
  2
*B55
 10
0.0
 20
0.0
 30
0.0
  0
INSERT
  5
49D
100
AcDbEntity
  8
0
  6
Continuous
 62
     8
100
AcDbBlockReference
  2
*B56
 10
0.0
 20
0.0
 30
0.0
  0
INSERT
  5
4A3
100
AcDbEntity
  8
0
  6
Continuous
 62
     8
100
AcDbBlockReference
  2
*B57
 10
0.0
 20
0.0
 30
0.0
  0
INSERT
  5
4A9
100
AcDbEntity
  8
0
  6
Continuous
 62
     8
100
AcDbBlockReference
  2
*B58
 10
0.0
 20
0.0
 30
0.0
  0
INSERT
  5
4B6
100
AcDbEntity
  8
0
  6
Continuous
 62
     8
100
AcDbBlockReference
  2
*B59
 10
0.0
 20
0.0
 30
0.0
  0
INSERT
  5
4C8
100
AcDbEntity
  8
0
  6
Continuous
 62
     8
100
AcDbBlockReference
  2
*B60
 10
0.0
 20
0.0
 30
0.0
  0
INSERT
  5
4CD
100
AcDbEntity
  8
0
  6
Continuous
 62
     8
100
AcDbBlockReference
  2
*B61
 10
0.0
 20
0.0
 30
0.0
  0
INSERT
  5
4D3
100
AcDbEntity
  8
0
  6
Continuous
 62
     8
100
AcDbBlockReference
  2
*B62
 10
0.0
 20
0.0
 30
0.0
  0
INSERT
  5
4D9
100
AcDbEntity
  8
0
  6
Continuous
 62
     8
100
AcDbBlockReference
  2
*B63
 10
0.0
 20
0.0
 30
0.0
  0
INSERT
  5
4DF
100
AcDbEntity
  8
0
  6
Continuous
 62
     8
100
AcDbBlockReference
  2
*B64
 10
0.0
 20
0.0
 30
0.0
  0
INSERT
  5
4E4
100
AcDbEntity
  8
0
  6
Continuous
 62
     8
100
AcDbBlockReference
  2
*B65
 10
0.0
 20
0.0
 30
0.0
  0
INSERT
  5
4EA
100
AcDbEntity
  8
0
  6
Continuous
 62
     8
100
AcDbBlockReference
  2
*B66
 10
0.0
 20
0.0
 30
0.0
  0
INSERT
  5
4F0
100
AcDbEntity
  8
0
  6
Continuous
 62
     8
100
AcDbBlockReference
  2
*B67
 10
0.0
 20
0.0
 30
0.0
  0
INSERT
  5
4F5
100
AcDbEntity
  8
0
  6
Continuous
 62
     8
100
AcDbBlockReference
  2
*B68
 10
0.0
 20
0.0
 30
0.0
  0
INSERT
  5
4FA
100
AcDbEntity
  8
0
  6
Continuous
 62
     8
100
AcDbBlockReference
  2
*B69
 10
0.0
 20
0.0
 30
0.0
  0
INSERT
  5
515
100
AcDbEntity
  8
0
  6
Continuous
 62
     8
100
AcDbBlockReference
  2
*B70
 10
0.0
 20
0.0
 30
0.0
  0
INSERT
  5
537
100
AcDbEntity
  8
0
  6
Continuous
 62
     8
100
AcDbBlockReference
  2
*B71
 10
0.0
 20
0.0
 30
0.0
  0
INSERT
  5
53D
100
AcDbEntity
  8
0
  6
Continuous
 62
     8
100
AcDbBlockReference
  2
*B72
 10
0.0
 20
0.0
 30
0.0
  0
INSERT
  5
54F
100
AcDbEntity
  8
0
  6
Continuous
 62
     8
100
AcDbBlockReference
  2
*B73
 10
0.0
 20
0.0
 30
0.0
  0
INSERT
  5
555
100
AcDbEntity
  8
0
  6
Continuous
 62
     8
100
AcDbBlockReference
  2
*B74
 10
0.0
 20
0.0
 30
0.0
  0
INSERT
  5
55A
100
AcDbEntity
  8
0
  6
Continuous
 62
     8
100
AcDbBlockReference
  2
*B75
 10
0.0
 20
0.0
 30
0.0
  0
INSERT
  5
560
100
AcDbEntity
  8
0
  6
Continuous
 62
     8
100
AcDbBlockReference
  2
*B76
 10
0.0
 20
0.0
 30
0.0
  0
INSERT
  5
566
100
AcDbEntity
  8
0
  6
Continuous
 62
     8
100
AcDbBlockReference
  2
*B77
 10
0.0
 20
0.0
 30
0.0
  0
INSERT
  5
578
100
AcDbEntity
  8
0
  6
Continuous
 62
     8
100
AcDbBlockReference
  2
*B78
 10
0.0
 20
0.0
 30
0.0
  0
INSERT
  5
581
100
AcDbEntity
  8
0
  6
Continuous
 62
     8
100
AcDbBlockReference
  2
*B79
 10
0.0
 20
0.0
 30
0.0
  0
INSERT
  5
587
100
AcDbEntity
  8
0
  6
Continuous
 62
     8
100
AcDbBlockReference
  2
*B80
 10
0.0
 20
0.0
 30
0.0
  0
INSERT
  5
58C
100
AcDbEntity
  8
0
  6
Continuous
 62
     8
100
AcDbBlockReference
  2
*B81
 10
0.0
 20
0.0
 30
0.0
  0
INSERT
  5
592
100
AcDbEntity
  8
0
  6
Continuous
 62
     6
100
AcDbBlockReference
  2
*B82
 10
0.0
 20
0.0
 30
0.0
  0
INSERT
  5
598
100
AcDbEntity
  8
0
  6
Continuous
 62
     6
100
AcDbBlockReference
  2
*B83
 10
0.0
 20
0.0
 30
0.0
  0
INSERT
  5
59E
100
AcDbEntity
  8
0
  6
Continuous
 62
     6
100
AcDbBlockReference
  2
*B84
 10
0.0
 20
0.0
 30
0.0
  0
INSERT
  5
5A4
100
AcDbEntity
  8
0
  6
Continuous
 62
     6
100
AcDbBlockReference
  2
*B85
 10
0.0
 20
0.0
 30
0.0
  0
INSERT
  5
5AA
100
AcDbEntity
  8
0
  6
Continuous
 62
     6
100
AcDbBlockReference
  2
*B86
 10
0.0
 20
0.0
 30
0.0
  0
INSERT
  5
5B0
100
AcDbEntity
  8
0
  6
Continuous
 62
     6
100
AcDbBlockReference
  2
*B87
 10
0.0
 20
0.0
 30
0.0
  0
INSERT
  5
5B6
100
AcDbEntity
  8
0
  6
Continuous
 62
     6
100
AcDbBlockReference
  2
*B88
 10
0.0
 20
0.0
 30
0.0
  0
INSERT
  5
5BC
100
AcDbEntity
  8
0
  6
Continuous
 62
     6
100
AcDbBlockReference
  2
*B89
 10
0.0
 20
0.0
 30
0.0
  0
INSERT
  5
5C2
100
AcDbEntity
  8
0
  6
Continuous
 62
     6
100
AcDbBlockReference
  2
*B90
 10
0.0
 20
0.0
 30
0.0
  0
INSERT
  5
5C8
100
AcDbEntity
  8
0
  6
Continuous
 62
     6
100
AcDbBlockReference
  2
*B91
 10
0.0
 20
0.0
 30
0.0
  0
INSERT
  5
5CE
100
AcDbEntity
  8
0
  6
Continuous
 62
     6
100
AcDbBlockReference
  2
*B92
 10
0.0
 20
0.0
 30
0.0
  0
INSERT
  5
5D4
100
AcDbEntity
  8
0
  6
Continuous
 62
     6
100
AcDbBlockReference
  2
*B93
 10
0.0
 20
0.0
 30
0.0
  0
INSERT
  5
5DA
100
AcDbEntity
  8
0
  6
Continuous
 62
     6
100
AcDbBlockReference
  2
*B94
 10
0.0
 20
0.0
 30
0.0
  0
INSERT
  5
5E0
100
AcDbEntity
  8
0
  6
Continuous
 62
     6
100
AcDbBlockReference
  2
*B95
 10
0.0
 20
0.0
 30
0.0
  0
INSERT
  5
5E6
100
AcDbEntity
  8
0
  6
Continuous
 62
     6
100
AcDbBlockReference
  2
*B96
 10
0.0
 20
0.0
 30
0.0
  0
INSERT
  5
5EC
100
AcDbEntity
  8
0
  6
Continuous
 62
     6
100
AcDbBlockReference
  2
*B97
 10
0.0
 20
0.0
 30
0.0
  0
INSERT
  5
5F2
100
AcDbEntity
  8
0
  6
Continuous
 62
     6
100
AcDbBlockReference
  2
*B98
 10
0.0
 20
0.0
 30
0.0
  0
INSERT
  5
5F8
100
AcDbEntity
  8
0
  6
Continuous
 62
     6
100
AcDbBlockReference
  2
*B99
 10
0.0
 20
0.0
 30
0.0
  0
INSERT
  5
5FE
100
AcDbEntity
  8
0
  6
Continuous
 62
     6
100
AcDbBlockReference
  2
*B100
 10
0.0
 20
0.0
 30
0.0
  0
INSERT
  5
604
100
AcDbEntity
  8
0
  6
Continuous
 62
     6
100
AcDbBlockReference
  2
*B101
 10
0.0
 20
0.0
 30
0.0
  0
INSERT
  5
60A
100
AcDbEntity
  8
0
  6
Continuous
 62
     6
100
AcDbBlockReference
  2
*B102
 10
0.0
 20
0.0
 30
0.0
  0
INSERT
  5
610
100
AcDbEntity
  8
0
  6
Continuous
 62
     6
100
AcDbBlockReference
  2
*B103
 10
0.0
 20
0.0
 30
0.0
  0
INSERT
  5
616
100
AcDbEntity
  8
0
  6
Continuous
 62
     6
100
AcDbBlockReference
  2
*B104
 10
0.0
 20
0.0
 30
0.0
  0
INSERT
  5
61C
100
AcDbEntity
  8
0
  6
Continuous
 62
     6
100
AcDbBlockReference
  2
*B105
 10
0.0
 20
0.0
 30
0.0
  0
INSERT
  5
623
100
AcDbEntity
  8
0
  6
Continuous
 62
     0
100
AcDbBlockReference
  2
*B106
 10
0.0
 20
0.0
 30
0.0
  0
INSERT
  5
62A
100
AcDbEntity
  8
0
  6
Continuous
 62
     0
100
AcDbBlockReference
  2
*B107
 10
0.0
 20
0.0
 30
0.0
  0
INSERT
  5
631
100
AcDbEntity
  8
0
  6
Continuous
 62
     0
100
AcDbBlockReference
  2
*B108
 10
0.0
 20
0.0
 30
0.0
  0
INSERT
  5
636
100
AcDbEntity
  8
TEXT
  6
Continuous
 62
     0
100
AcDbBlockReference
  2
*B109
 10
0.0
 20
0.0
 30
0.0
  0
INSERT
  5
63B
100
AcDbEntity
  8
TEXT
  6
Continuous
 62
     0
100
AcDbBlockReference
  2
*B110
 10
0.0
 20
0.0
 30
0.0
  0
INSERT
  5
640
100
AcDbEntity
  8
TEXT
  6
Continuous
 62
     0
100
AcDbBlockReference
  2
*B111
 10
0.0
 20
0.0
 30
0.0
  0
INSERT
  5
645
100
AcDbEntity
  8
TEXT
  6
Continuous
 62
     0
100
AcDbBlockReference
  2
*B112
 10
0.0
 20
0.0
 30
0.0
  0
INSERT
  5
64A
100
AcDbEntity
  8
TEXT
  6
Continuous
 62
     0
100
AcDbBlockReference
  2
*B113
 10
0.0
 20
0.0
 30
0.0
  0
INSERT
  5
64F
100
AcDbEntity
  8
TEXT
  6
Continuous
 62
     0
100
AcDbBlockReference
  2
*B114
 10
0.0
 20
0.0
 30
0.0
  0
INSERT
  5
654
100
AcDbEntity
  8
TEXT
  6
Continuous
 62
     0
100
AcDbBlockReference
  2
*B115
 10
0.0
 20
0.0
 30
0.0
  0
INSERT
  5
659
100
AcDbEntity
  8
TEXT
  6
Continuous
 62
     0
100
AcDbBlockReference
  2
*B116
 10
0.0
 20
0.0
 30
0.0
  0
INSERT
  5
65E
100
AcDbEntity
  8
TEXT
  6
Continuous
 62
     0
100
AcDbBlockReference
  2
*B117
 10
0.0
 20
0.0
 30
0.0
  0
INSERT
  5
663
100
AcDbEntity
  8
TEXT
  6
Continuous
 62
     0
100
AcDbBlockReference
  2
*B118
 10
0.0
 20
0.0
 30
0.0
  0
INSERT
  5
668
100
AcDbEntity
  8
TEXT
  6
Continuous
 62
     0
100
AcDbBlockReference
  2
*B119
 10
0.0
 20
0.0
 30
0.0
  0
INSERT
  5
66D
100
AcDbEntity
  8
TEXT
  6
Continuous
 62
     0
100
AcDbBlockReference
  2
*B120
 10
0.0
 20
0.0
 30
0.0
  0
INSERT
  5
672
100
AcDbEntity
  8
TEXT
  6
Continuous
 62
     0
100
AcDbBlockReference
  2
*B121
 10
0.0
 20
0.0
 30
0.0
  0
INSERT
  5
677
100
AcDbEntity
  8
TEXT
  6
Continuous
 62
     0
100
AcDbBlockReference
  2
*B122
 10
0.0
 20
0.0
 30
0.0
  0
INSERT
  5
67C
100
AcDbEntity
  8
TEXT
  6
Continuous
 62
     0
100
AcDbBlockReference
  2
*B123
 10
0.0
 20
0.0
 30
0.0
  0
INSERT
  5
681
100
AcDbEntity
  8
TEXT
  6
Continuous
 62
     0
100
AcDbBlockReference
  2
*B124
 10
0.0
 20
0.0
 30
0.0
  0
INSERT
  5
686
100
AcDbEntity
  8
TEXT
  6
Continuous
 62
     0
100
AcDbBlockReference
  2
*B125
 10
0.0
 20
0.0
 30
0.0
  0
INSERT
  5
68B
100
AcDbEntity
  8
TEXT
  6
Continuous
 62
     0
100
AcDbBlockReference
  2
*B126
 10
0.0
 20
0.0
 30
0.0
  0
INSERT
  5
690
100
AcDbEntity
  8
TEXT
  6
Continuous
 62
     0
100
AcDbBlockReference
  2
*B127
 10
0.0
 20
0.0
 30
0.0
  0
INSERT
  5
695
100
AcDbEntity
  8
TEXT
  6
Continuous
 62
     0
100
AcDbBlockReference
  2
*B128
 10
0.0
 20
0.0
 30
0.0
  0
INSERT
  5
69A
100
AcDbEntity
  8
TEXT
  6
Continuous
 62
     0
100
AcDbBlockReference
  2
*B129
 10
0.0
 20
0.0
 30
0.0
  0
INSERT
  5
69F
100
AcDbEntity
  8
TEXT
  6
Continuous
 62
     0
100
AcDbBlockReference
  2
*B130
 10
0.0
 20
0.0
 30
0.0
  0
INSERT
  5
6A4
100
AcDbEntity
  8
TEXT
  6
Continuous
 62
     0
100
AcDbBlockReference
  2
*B131
 10
0.0
 20
0.0
 30
0.0
  0
ENDSEC
  0
SECTION
  2
OBJECTS
  0
DICTIONARY
  5
19
100
AcDbDictionary
280
     0
281
     1
  3
ACAD_GROUP
350
1A
  3
ACAD_MLINESTYLE
350
1B
  3
ACAD_LAYOUT
350
1E
  3
ACAD_PLOTSETTINGS
350
22
  3
ACAD_PLOTSTYLENAME
350
1F
  3
ACAD_WIPEOUT_VARS
350
23
  0
DICTIONARY
  5
1A
102
{ACAD_REACTORS
330
19
102
}
100
AcDbDictionary
280
     0
281
     1
  0
DICTIONARY
  5
1B
102
{ACAD_REACTORS
330
19
102
}
100
AcDbDictionary
280
     0
281
     1
  3
Standard
350
1C
  0
MLINESTYLE
  5
1C
102
{ACAD_REACTORS
330
1B
102
}
100
AcDbMlineStyle
  2
Standard
 70
     0
  3

 62
     0
 51
90.0
 52
90.0
 71
     2
 49
0.5
 62
   256
  6
BYLAYER
 49
-0.5
 62
   256
  6
BYLAYER
  0
ACDBDICTIONARYWDFLT
  5
1F
102
{ACAD_REACTORS
330
19
102
}
100
AcDbDictionary
281
     1
  3
Normal
350
1D
100
AcDbDictionaryWithDefault
340
1D
  0
ACDBPLACEHOLDER
  5
1D
102
{ACAD_REACTORS
330
1F
102
}
  0
LAYOUT
  5
20
102
{ACAD_REACTORS
330
1E
102
}
100
AcDbPlotSettings
  1

  2

  4

  6

 40
0.0
 41
0.0
 42
0.0
 43
0.0
 44
0.0
 45
0.0
 46
0.0
 47
0.0
 48
0.0
 49
0.0
140
0.0
141
0.0
142
1.0
143
1.0
 70
     0
 72
     0
 73
     0
 74
     0
  7

 75
     0
147
1.0
148
0.0
149
0.0
100
AcDbLayout
  1
Model
 70
     0
 71
     0
 10
0.0
 20
0.0
 11
0.0
 21
0.0
 12
0.0
 22
0.0
 32
0.0
 14
0.0
 24
0.0
 34
0.0
 15
0.0
 25
0.0
 35
0.0
146
0.0
 13
0.0
 23
0.0
 33
0.0
 16
0.0
 26
0.0
 36
0.0
 17
0.0
 27
0.0
 37
0.0
 76
     0
330
A
331
0
345
0
346
0
  0
LAYOUT
  5
21
102
{ACAD_REACTORS
330
1E
102
}
100
AcDbPlotSettings
  1

  2

  4

  6

 40
0.0
 41
0.0
 42
0.0
 43
0.0
 44
0.0
 45
0.0
 46
0.0
 47
0.0
 48
0.0
 49
0.0
140
0.0
141
0.0
142
1.0
143
1.0
 70
     0
 72
     0
 73
     0
 74
     0
  7

 75
     0
147
1.0
148
0.0
149
0.0
100
AcDbLayout
  1
Layout1
 70
     0
 71
     0
 10
0.0
 20
0.0
 11
0.0
 21
0.0
 12
0.0
 22
0.0
 32
0.0
 14
0.0
 24
0.0
 34
0.0
 15
0.0
 25
0.0
 35
0.0
146
0.0
 13
0.0
 23
0.0
 33
0.0
 16
0.0
 26
0.0
 36
0.0
 17
0.0
 27
0.0
 37
0.0
 76
     0
330
B
331
0
345
0
346
0
  0
DICTIONARY
  5
1E
102
{ACAD_REACTORS
330
19
102
}
100
AcDbDictionary
280
     0
281
     1
  3
Layout1
350
21
  3
Model
350
20
  0
DICTIONARY
  5
22
102
{ACAD_REACTORS
330
19
102
}
100
AcDbDictionary
280
     0
281
     1
  0
WIPEOUTVARIABLES
  5
23
100
AcDbWipeoutVariables
 70
     1
  0
ENDSEC
  0
EOF
