  0
SECTION
  2
HEADER
  9
$ACADVER
  1
AC1015
  9
$ACADMAINTVER
 70
     6
  9
$DWGCODEPAGE
  3
DOS850
  9
$INSBASE
 10
0.0
 20
0.0
 30
0.0
  9
$EXTMIN
 10
0.0
 20
0.0
 30
0.0
  9
$EXTMAX
 10
841.0
 20
595.0
 30
0.0
  9
$LIMMIN
 10
0.0
 20
0.0
  9
$LIMMAX
 10
841.0
 20
595.0
  9
$ORTHOMODE
 70
     0
  9
$REGENMODE
 70
     1
  9
$FILLMODE
 70
     1
  9
$QTEXTMODE
 70
     0
  9
$MIRRTEXT
 70
     1
  9
$LTSCALE
 40
25.4
  9
$ATTMODE
 70
     1
  9
$TEXTSIZE
 40
3.5
  9
$TRACEWID
 40
0.05
  9
$TEXTSTYLE
  7
Standard
  9
$CLAYER
  8
0
  9
$CELTYPE
  6
Continuous
  9
$CECOLOR
 62
   256
  9
$CELTSCALE
 40
1.0
  9
$DISPSILH
 70
     0
  9
$DIMSCALE
 40
1.0
  9
$DIMASZ
 40
5.0
  9
$DIMEXO
 40
3.0
  9
$DIMDLI
 40
0.38
  9
$DIMRND
 40
0.0
  9
$DIMDLE
 40
0.0
  9
$DIMEXE
 40
2.0
  9
$DIMTP
 40
0.0
  9
$DIMTM
 40
0.0
  9
$DIMTXT
 40
3.5
  9
$DIMCEN
 40
4.0
  9
$DIMTSZ
 40
0.0
  9
$DIMTOL
 70
     0
  9
$DIMLIM
 70
     0
  9
$DIMTIH
 70
     1
  9
$DIMTOH
 70
     1
  9
$DIMSE1
 70
     0
  9
$DIMSE2
 70
     0
  9
$DIMTAD
 70
     0
  9
$DIMZIN
 70
     0
  9
$DIMBLK
  1

  9
$DIMASO
 70
     1
  9
$DIMSHO
 70
     1
  9
$DIMPOST
  1

  9
$DIMAPOST
  1

  9
$DIMALT
 70
     0
  9
$DIMALTD
 70
     2
  9
$DIMALTF
 40
25.4
  9
$DIMLFAC
 40
1.0
  9
$DIMTOFL
 70
     0
  9
$DIMTVP
 40
0.0
  9
$DIMTIX
 70
     0
  9
$DIMSOXD
 70
     0
  9
$DIMSAH
 70
     0
  9
$DIMBLK1
  1

  9
$DIMBLK2
  1

  9
$DIMSTYLE
  2
Standard
  9
$DIMCLRD
 70
     0
  9
$DIMCLRE
 70
     0
  9
$DIMCLRT
 70
     0
  9
$DIMTFAC
 40
1.0
  9
$DIMGAP
 40
1.0
  9
$DIMJUST
 70
     0
  9
$DIMSD1
 70
     0
  9
$DIMSD2
 70
     0
  9
$DIMTOLJ
 70
     1
  9
$DIMTZIN
 70
     0
  9
$DIMALTZ
 70
     0
  9
$DIMALTTZ
 70
     0
  9
$DIMUPT
 70
     0
  9
$DIMDEC
 70
     4
  9
$DIMTDEC
 70
     4
  9
$DIMALTU
 70
     2
  9
$DIMALTTD
 70
     2
  9
$DIMTXSTY
  7
Standard
  9
$DIMAUNIT
 70
     0
  9
$DIMADEC
 70
     0
  9
$DIMALTRND
 40
0.0
  9
$DIMAZIN
 70
     0
  9
$DIMDSEP
 70
     0
  9
$DIMATFIT
 70
     3
  9
$DIMFRAC
 70
     0
  9
$DIMLDRBLK
  1

  9
$DIMLUNIT
 70
     2
  9
$DIMLWD
 70
     0
  9
$DIMLWE
 70
     0
  9
$DIMTMOVE
 70
     0
  9
$LUNITS
 70
     2
  9
$LUPREC
 70
     4
  9
$SKETCHINC
 40
0.1
  9
$FILLETRAD
 40
0.0
  9
$AUNITS
 70
     0
  9
$AUPREC
 70
     0
  9
$MENU
  1
acad
  9
$ELEVATION
 40
0.0
  9
$PELEVATION
 40
0.0
  9
$THICKNESS
 40
0.0
  9
$LIMCHECK
 70
     0
  9
$CHAMFERA
 40
0.0
  9
$CHAMFERB
 40
0.0
  9
$CHAMFERC
 40
0.0
  9
$CHAMFERD
 40
0.0
  9
$SKPOLY
 70
     0
  9
$TDCREATE
 40
0.000000000
  9
$TDUCREATE
 40
0.000000000
  9
$TDUPDATE
 40
0.000000000
  9
$TDUUPDATE
 40
0.000000000
  9
$TDINDWG
 40
0.0000000000
  9
$TDUSRTIMER
 40
0.0000000000
  9
$USRTIMER
 70
     1
  9
$ANGBASE
 50
0.0
  9
$ANGDIR
 70
     0
  9
$PDMODE
 70
     0
  9
$PDSIZE
 40
0.0
  9
$PLINEWID
 40
0.0
  9
$SPLFRAME
 70
     0
  9
$SPLINETYPE
 70
     6
  9
$SPLINESEGS
 70
     8
  9
$HANDSEED
  5
713
  9
$SURFTAB1
 70
     6
  9
$SURFTAB2
 70
     6
  9
$SURFTYPE
 70
     6
  9
$SURFU
 70
     6
  9
$SURFV
 70
     6
  9
$UCSBASE
  2

  9
$UCSNAME
  2

  9
$UCSORG
 10
0.0
 20
0.0
 30
0.0
  9
$UCSXDIR
 10
1.0
 20
0.0
 30
0.0
  9
$UCSYDIR
 10
0.0
 20
1.0
 30
0.0
  9
$UCSORTHOREF
  2

  9
$UCSORTHOVIEW
 70
     0
  9
$UCSORGTOP
 10
0.0
 20
0.0
 30
0.0
  9
$UCSORGBOTTOM
 10
0.0
 20
0.0
 30
0.0
  9
$UCSORGLEFT
 10
0.0
 20
0.0
 30
0.0
  9
$UCSORGRIGHT
 10
0.0
 20
0.0
 30
0.0
  9
$UCSORGFRONT
 10
0.0
 20
0.0
 30
0.0
  9
$UCSORGBACK
 10
0.0
 20
0.0
 30
0.0
  9
$PUCSBASE
  2

  9
$PUCSNAME
  2

  9
$PUCSORG
 10
0.0
 20
0.0
 30
0.0
  9
$PUCSXDIR
 10
1.0
 20
0.0
 30
0.0
  9
$PUCSYDIR
 10
0.0
 20
1.0
 30
0.0
  9
$PUCSORTHOREF
  2

  9
$PUCSORTHOVIEW
 70
     0
  9
$PUCSORGTOP
 10
0.0
 20
0.0
 30
0.0
  9
$PUCSORGBOTTOM
 10
0.0
 20
0.0
 30
0.0
  9
$PUCSORGLEFT
 10
0.0
 20
0.0
 30
0.0
  9
$PUCSORGRIGHT
 10
0.0
 20
0.0
 30
0.0
  9
$PUCSORGFRONT
 10
0.0
 20
0.0
 30
0.0
  9
$PUCSORGBACK
 10
0.0
 20
0.0
 30
0.0
  9
$USERI1
 70
     0
  9
$USERI2
 70
     0
  9
$USERI3
 70
     0
  9
$USERI4
 70
     0
  9
$USERI5
 70
     0
  9
$USERR1
 40
0.0
  9
$USERR2
 40
0.0
  9
$USERR3
 40
0.0
  9
$USERR4
 40
0.0
  9
$USERR5
 40
0.0
  9
$WORLDVIEW
 70
     1
  9
$SHADEDGE
 70
     3
  9
$SHADEDIF
 70
    70
  9
$TILEMODE
 70
     1
  9
$MAXACTVP
 70
    16
  9
$PINSBASE
 10
0.0
 20
0.0
 30
0.0
  9
$PLIMCHECK
 70
     0
  9
$PEXTMIN
 10
1.000000E+20
 20
1.000000E+20
 30
1.000000E+20
  9
$PEXTMAX
 10
-1.000000E+20
 20
-1.000000E+20
 30
-1.000000E+20
  9
$PLIMMIN
 10
0.0
 20
0.0
  9
$PLIMMAX
 10
841.0
 20
595.0
  9
$UNITMODE
 70
     0
  9
$VISRETAIN
 70
     0
  9
$PLINEGEN
 70
     1
  9
$PSLTSCALE
 70
     0
  9
$TREEDEPTH
 70
  3020
  9
$CMLSTYLE
  2
Standard
  9
$CMLJUST
 70
     0
  9
$CMLSCALE
 40
1.0
  9
$PROXYGRAPHICS
 70
     0
  9
$MEASUREMENT
 70
     0
  9
$CELWEIGHT
370
     0
  9
$ENDCAPS
280
     0
  9
$JOINSTYLE
280
     0
  9
$LWDISPLAY
290
     0
  9
$INSUNITS
 70
     0
  9
$HYPERLINKBASE
  1

  9
$XEDIT
290
     1
  9
$CEPSNTYPE
380
     0
  9
$PSTYLEMODE
290
     0
  9
$FINGERPRINTGUID
  2

  9
$VERSIONGUID
  2

  9
$EXTNAMES
290
     1
  9
$PSVPSCALE
 40
0.0
  0
ENDSEC
  0
SECTION
  2
CLASSES
  0
CLASS
  1
LWPOLYLINE
  2
AcDbPolyline
  3
"AutoCAD"
 90
        0
280
     0
281
     1
  0
CLASS
  1
IMAGE
  2
AcDbRasterImage
  3
ISM
 90
      127
280
     0
281
     1
  0
CLASS
  1
OLE2FRAME
  2
AcDbOle2Frame
  3
""
 90
        0
280
     0
281
     1
  0
CLASS
  1
HATCH
  2
AcDbHatch
  3
"ACAD_SEDONA"
 90
        0
280
     0
281
     1
  0
CLASS
  1
DICTIONARYVAR
  2
AcDbDictionaryVar
  3
"AutoCAD"
 90
        0
280
     0
281
     0
  0
CLASS
  1
RASTERVARIABLES
  2
AcDbRasterVariables
  3
ISM
 90
        0
280
     0
281
     0
  0
CLASS
  1
IMAGEDEF
  2
AcDbRasterImageDef
  3
ISM
 90
        0
280
     0
281
     0
  0
CLASS
  1
IMAGEDEF_REACTOR
  2
AcDbRasterImageDefReactor
  3
ISM
 90
        1
280
     0
281
     0
  0
CLASS
  1
IDBUFFER
  2
AcDbIdBuffer
  3
"Acad"
 90
        0
280
     0
281
     0
  0
CLASS
  1
SPATIAL_FILTER
  2
AcDbSpatialFilter
  3
"Acad"
 90
        0
280
     0
281
     0
  0
CLASS
  1
XRECORD
  2
AcDbXrecord
  3
"<Built In>"
 90
        0
280
     0
281
     0
  0
CLASS
  1
SORTENTSTABLE
  2
AcDbSortentsTable
  3
"AutoCAD"
 90
        0
280
     0
281
     0
  0
CLASS
  1
LAYER_INDEX
  2
AcDbLayerIndex
  3
"Acad"
 90
        0
280
     0
281
     0
  0
CLASS
  1
SPATIAL_INDEX
  2
AcDbSpatialIndex
  3
"Acad"
 90
        0
280
     0
281
     0
  0
CLASS
  1
OBJECT_PTR
  2
CAseDLPNTableRecord
  3
"ASE-LPNTableRecord"
 90
        1
280
     0
281
     0
  0
CLASS
  1
LAYOUT
  2
AcDbLayout
  3
"AutoCAD 2000"
 90
        1
280
     0
281
     0
  0
CLASS
  1
PLOTSETTINGS
  2
AcDbPlotSettings
  3
"AutoCAD 2000"
 90
        1
280
     0
281
     0
  0
CLASS
  1
ACDBDICTIONARYWDFLT
  2
AcDbDictionaryWithDefault
  3
"AutoCAD 2000"
 90
        1
280
     0
281
     0
  0
CLASS
  1
ACDBPLACEHOLDER
  2
AcDbPlaceHolder
  3
"AutoCAD 2000"
 90
        1
280
     0
281
     0
  0
CLASS
  1
VBA_PROJECT
  2
AcDbVbaProject
  3
"acadvba"
 90
        1
280
     0
281
     0
  0
CLASS
  1
WIPEOUT
  2
AcDbWipeout
  3
WipeOut|AutoCAD Express Tool|expresstools@autodesk.com
 90
      127
280
     0
281
     1
  0
CLASS
  1
WIPEOUTVARIABLES
  2
AcDbWipeoutVariables
  3
WipeOut|AutoCAD Express Tool|expresstools@autodesk.com
 90
        0
280
     0
281
     0
  0
CLASS
  1
RTEXT
  2
RText
  3
RText|AutoCAD Express Tool|expresstools@autodesk.com
 90
        0
280
     0
281
     1
  0
CLASS
  1
ARCALIGNEDTEXT
  2
AcDbArcAlignedText
  3
ATEXT|AutoCAD Express Tool|expresstools@autodesk.com
 90
        0
280
     0
281
     1
  0
ENDSEC
  0
SECTION
  2
TABLES
  0
TABLE
  2
VPORT
  5
7
100
AcDbSymbolTable
 70
     1
  0
VPORT
  5
15
100
AcDbSymbolTableRecord
100
AcDbViewportTableRecord
  2
*ACTIVE
 70
     0
 10
0.0
 20
0.0
 11
1.0
 21
1.0
 12
6.591288
 22
4.579184
 13
0.0
 23
0.0
 14
1.0
 24
1.0
 15
0.0
 25
0.0
 16
0.0
 26
0.0
 36
1.0
 17
0.0
 27
0.0
 37
0.0
 40
9.158369
 41
0.688564
 42
50.0
 43
0.0
 44
0.0
 50
0.0
 51
0.0
 71
     0
 72
   100
 73
     1
 74
     1
 75
     0
 76
     0
 77
     0
 78
     0
281
     0
 65
     0
110
0.0
120
0.0
130
0.0
111
1.0
121
0.0
131
0.0
112
0.0
122
1.0
132
0.0
345
0
346
0
 79
     0
146
0.0
  0
ENDTAB
  0
TABLE
  2
LTYPE
  5
4
100
AcDbSymbolTable
 70
     7
  0
LTYPE
  5
11
100
AcDbSymbolTableRecord
100
AcDbLinetypeTableRecord
  2
ByBlock
 70
    64
  3

 72
    65
 73
     0
 40
0.0
  0
LTYPE
  5
12
100
AcDbSymbolTableRecord
100
AcDbLinetypeTableRecord
  2
ByLayer
 70
    64
  3

 72
    65
 73
     0
 40
0.0
  0
LTYPE
  5
13
100
AcDbSymbolTableRecord
100
AcDbLinetypeTableRecord
  2
Continuous
 70
    64
  3
Solid line
 72
    65
 73
     0
 40
0.0
  0
LTYPE
  5
24
100
AcDbSymbolTableRecord
100
AcDbLinetypeTableRecord
  2
HIDDEN
 70
    64
  3
_ _ _ _ _ _ _ _ _ _ _ _ _ _ _ _ _ _ _ _ _ _ _ _
 72
    65
 73
     2
 40
0.1875
 49
0.125
 74
     0
 49
-0.0625
 74
     0
  0
LTYPE
  5
25
100
AcDbSymbolTableRecord
100
AcDbLinetypeTableRecord
  2
DOTTED
 70
    64
  3
...............................................
 72
    65
 73
     2
 40
0.125
 49
0.0
 74
     0
 49
-0.125
 74
     0
  0
LTYPE
  5
26
100
AcDbSymbolTableRecord
100
AcDbLinetypeTableRecord
  2
CENTER
 70
    64
  3
____ _ ____ _ ____ _ ____ _ ____ _ ____ _ ____ 
 72
    65
 73
     4
 40
1.125
 49
0.75
 74
     0
 49
-0.125
 74
     0
 49
0.125
 74
     0
 49
-0.125
 74
     0
  0
LTYPE
  5
27
100
AcDbSymbolTableRecord
100
AcDbLinetypeTableRecord
  2
PHANTOM
 70
    64
  3
______  __  __  ______  __  __  ______  __  __ 
 72
    65
 73
     6
 40
1.25
 49
0.625
 74
     0
 49
-0.125
 74
     0
 49
0.125
 74
     0
 49
-0.125
 74
     0
 49
0.125
 74
     0
 49
-0.125
 74
     0
  0
ENDTAB
  0
TABLE
  2
LAYER
  5
2
100
AcDbSymbolTable
 70
     2
  0
LAYER
  5
14
100
AcDbSymbolTableRecord
100
AcDbLayerTableRecord
  2
0
 70
     0
 62
     7
  6
Continuous
290
     1
370
    -3
390
1D
  0
LAYER
  5
28
100
AcDbSymbolTableRecord
100
AcDbLayerTableRecord
  2
TEXT
 70
     0
 62
     8
  6
Continuous
290
     1
370
    -3
390
1F
  0
ENDTAB
  0
TABLE
  2
STYLE
  5
3
100
AcDbSymbolTable
 70
     1
  0
STYLE
  5
17
100
AcDbSymbolTableRecord
100
AcDbTextStyleTableRecord
  2
Standard
 70
     0
 40
0.0
 41
1.0
 50
0.0
 71
     0
 42
0.0
  3
txt
  4

  0
ENDTAB
  0
TABLE
  2
VIEW
  5
5
100
AcDbSymbolTable
 70
     0
  0
ENDTAB
  0
TABLE
  2
UCS
  5
6
100
AcDbSymbolTable
 70
     0
  0
ENDTAB
  0
TABLE
  2
APPID
  5
8
100
AcDbSymbolTable
 70
     1
  0
APPID
  5
16
100
AcDbSymbolTableRecord
100
AcDbRegAppTableRecord
  2
ACAD
 70
     0
  0
ENDTAB
  0
TABLE
  2
DIMSTYLE
  5
9
100
AcDbSymbolTable
 70
     1
100
AcDbDimStyleTable
 71
     0
  0
DIMSTYLE
105
18
100
AcDbSymbolTableRecord
100
AcDbDimStyleTableRecord
  2
Standard
 70
     0
  3

  4

 40
1.0
 41
0.18
 42
0.0625
 43
0.38
 44
0.18
 45
0.0
 46
0.0
 47
0.0
 48
0.0
 71
     0
 72
     0
 73
     1
 74
     1
 75
     0
 76
     0
 77
     0
 78
     0
 79
     0
140
0.18
141
0.09
142
0.0
143
25.4
144
1.0
145
0.0
146
1.0
147
0.09
148
0.0
170
     0
171
     2
172
     0
173
     0
174
     0
175
     0
176
     0
177
     0
178
     0
179
     0
271
     4
272
     4
273
     2
274
     2
275
     0
276
     0
277
     2
278
    46
279
     0
280
     0
281
     0
282
     0
283
     1
284
     0
285
     0
286
     0
288
     0
340
17
341
0
342
0
343
0
344
0
371
    -2
372
    -2
  0
ENDTAB
  0
TABLE
  2
BLOCK_RECORD
  5
1
100
AcDbSymbolTable
 70
   127
  0
BLOCK_RECORD
  5
A
100
AcDbSymbolTableRecord
100
AcDbBlockTableRecord
  2
*MODEL_SPACE
340
20
  0
BLOCK_RECORD
  5
B
100
AcDbSymbolTableRecord
100
AcDbBlockTableRecord
  2
*PAPER_SPACE
340
21
  0
BLOCK_RECORD
  5
29
100
AcDbSymbolTableRecord
100
AcDbBlockTableRecord
  2
*B0
340
0
  0
BLOCK_RECORD
  5
2C
100
AcDbSymbolTableRecord
100
AcDbBlockTableRecord
  2
*B1
340
0
  0
BLOCK_RECORD
  5
134
100
AcDbSymbolTableRecord
100
AcDbBlockTableRecord
  2
*B2
340
0
  0
BLOCK_RECORD
  5
2C8
100
AcDbSymbolTableRecord
100
AcDbBlockTableRecord
  2
*B3
340
0
  0
BLOCK_RECORD
  5
2DC
100
AcDbSymbolTableRecord
100
AcDbBlockTableRecord
  2
*B4
340
0
  0
BLOCK_RECORD
  5
2E3
100
AcDbSymbolTableRecord
100
AcDbBlockTableRecord
  2
*B5
340
0
  0
BLOCK_RECORD
  5
2EA
100
AcDbSymbolTableRecord
100
AcDbBlockTableRecord
  2
*B6
340
0
  0
BLOCK_RECORD
  5
2F1
100
AcDbSymbolTableRecord
100
AcDbBlockTableRecord
  2
*B7
340
0
  0
BLOCK_RECORD
  5
2F8
100
AcDbSymbolTableRecord
100
AcDbBlockTableRecord
  2
*B8
340
0
  0
BLOCK_RECORD
  5
2FF
100
AcDbSymbolTableRecord
100
AcDbBlockTableRecord
  2
*B9
340
0
  0
BLOCK_RECORD
  5
306
100
AcDbSymbolTableRecord
100
AcDbBlockTableRecord
  2
*B10
340
0
  0
BLOCK_RECORD
  5
30D
100
AcDbSymbolTableRecord
100
AcDbBlockTableRecord
  2
*B11
340
0
  0
BLOCK_RECORD
  5
314
100
AcDbSymbolTableRecord
100
AcDbBlockTableRecord
  2
*B12
340
0
  0
BLOCK_RECORD
  5
31B
100
AcDbSymbolTableRecord
100
AcDbBlockTableRecord
  2
*B13
340
0
  0
BLOCK_RECORD
  5
322
100
AcDbSymbolTableRecord
100
AcDbBlockTableRecord
  2
*B14
340
0
  0
BLOCK_RECORD
  5
329
100
AcDbSymbolTableRecord
100
AcDbBlockTableRecord
  2
*B15
340
0
  0
BLOCK_RECORD
  5
330
100
AcDbSymbolTableRecord
100
AcDbBlockTableRecord
  2
*B16
340
0
  0
BLOCK_RECORD
  5
337
100
AcDbSymbolTableRecord
100
AcDbBlockTableRecord
  2
*B17
340
0
  0
BLOCK_RECORD
  5
33E
100
AcDbSymbolTableRecord
100
AcDbBlockTableRecord
  2
*B18
340
0
  0
BLOCK_RECORD
  5
345
100
AcDbSymbolTableRecord
100
AcDbBlockTableRecord
  2
*B19
340
0
  0
BLOCK_RECORD
  5
34C
100
AcDbSymbolTableRecord
100
AcDbBlockTableRecord
  2
*B20
340
0
  0
BLOCK_RECORD
  5
353
100
AcDbSymbolTableRecord
100
AcDbBlockTableRecord
  2
*B21
340
0
  0
BLOCK_RECORD
  5
35A
100
AcDbSymbolTableRecord
100
AcDbBlockTableRecord
  2
*B22
340
0
  0
BLOCK_RECORD
  5
361
100
AcDbSymbolTableRecord
100
AcDbBlockTableRecord
  2
*B23
340
0
  0
BLOCK_RECORD
  5
368
100
AcDbSymbolTableRecord
100
AcDbBlockTableRecord
  2
*B24
340
0
  0
BLOCK_RECORD
  5
36F
100
AcDbSymbolTableRecord
100
AcDbBlockTableRecord
  2
*B25
340
0
  0
BLOCK_RECORD
  5
376
100
AcDbSymbolTableRecord
100
AcDbBlockTableRecord
  2
*B26
340
0
  0
BLOCK_RECORD
  5
37B
100
AcDbSymbolTableRecord
100
AcDbBlockTableRecord
  2
*B27
340
0
  0
BLOCK_RECORD
  5
380
100
AcDbSymbolTableRecord
100
AcDbBlockTableRecord
  2
*B28
340
0
  0
BLOCK_RECORD
  5
386
100
AcDbSymbolTableRecord
100
AcDbBlockTableRecord
  2
*B29
340
0
  0
BLOCK_RECORD
  5
3A5
100
AcDbSymbolTableRecord
100
AcDbBlockTableRecord
  2
*B30
340
0
  0
BLOCK_RECORD
  5
3AA
100
AcDbSymbolTableRecord
100
AcDbBlockTableRecord
  2
*B31
340
0
  0
BLOCK_RECORD
  5
3BD
100
AcDbSymbolTableRecord
100
AcDbBlockTableRecord
  2
*B32
340
0
  0
BLOCK_RECORD
  5
3CD
100
AcDbSymbolTableRecord
100
AcDbBlockTableRecord
  2
*B33
340
0
  0
BLOCK_RECORD
  5
3D3
100
AcDbSymbolTableRecord
100
AcDbBlockTableRecord
  2
*B34
340
0
  0
BLOCK_RECORD
  5
3D9
100
AcDbSymbolTableRecord
100
AcDbBlockTableRecord
  2
*B35
340
0
  0
BLOCK_RECORD
  5
3F9
100
AcDbSymbolTableRecord
100
AcDbBlockTableRecord
  2
*B36
340
0
  0
BLOCK_RECORD
  5
40C
100
AcDbSymbolTableRecord
100
AcDbBlockTableRecord
  2
*B37
340
0
  0
BLOCK_RECORD
  5
41C
100
AcDbSymbolTableRecord
100
AcDbBlockTableRecord
  2
*B38
340
0
  0
BLOCK_RECORD
  5
422
100
AcDbSymbolTableRecord
100
AcDbBlockTableRecord
  2
*B39
340
0
  0
BLOCK_RECORD
  5
42B
100
AcDbSymbolTableRecord
100
AcDbBlockTableRecord
  2
*B40
340
0
  0
BLOCK_RECORD
  5
430
100
AcDbSymbolTableRecord
100
AcDbBlockTableRecord
  2
*B41
340
0
  0
BLOCK_RECORD
  5
435
100
AcDbSymbolTableRecord
100
AcDbBlockTableRecord
  2
*B42
340
0
  0
BLOCK_RECORD
  5
43A
100
AcDbSymbolTableRecord
100
AcDbBlockTableRecord
  2
*B43
340
0
  0
BLOCK_RECORD
  5
43F
100
AcDbSymbolTableRecord
100
AcDbBlockTableRecord
  2
*B44
340
0
  0
BLOCK_RECORD
  5
445
100
AcDbSymbolTableRecord
100
AcDbBlockTableRecord
  2
*B45
340
0
  0
BLOCK_RECORD
  5
466
100
AcDbSymbolTableRecord
100
AcDbBlockTableRecord
  2
*B46
340
0
  0
BLOCK_RECORD
  5
47F
100
AcDbSymbolTableRecord
100
AcDbBlockTableRecord
  2
*B47
340
0
  0
BLOCK_RECORD
  5
484
100
AcDbSymbolTableRecord
100
AcDbBlockTableRecord
  2
*B48
340
0
  0
BLOCK_RECORD
  5
494
100
AcDbSymbolTableRecord
100
AcDbBlockTableRecord
  2
*B49
340
0
  0
BLOCK_RECORD
  5
4A6
100
AcDbSymbolTableRecord
100
AcDbBlockTableRecord
  2
*B50
340
0
  0
BLOCK_RECORD
  5
4BB
100
AcDbSymbolTableRecord
100
AcDbBlockTableRecord
  2
*B51
340
0
  0
BLOCK_RECORD
  5
4C4
100
AcDbSymbolTableRecord
100
AcDbBlockTableRecord
  2
*B52
340
0
  0
BLOCK_RECORD
  5
4CA
100
AcDbSymbolTableRecord
100
AcDbBlockTableRecord
  2
*B53
340
0
  0
BLOCK_RECORD
  5
4DD
100
AcDbSymbolTableRecord
100
AcDbBlockTableRecord
  2
*B54
340
0
  0
BLOCK_RECORD
  5
4E3
100
AcDbSymbolTableRecord
100
AcDbBlockTableRecord
  2
*B55
340
0
  0
BLOCK_RECORD
  5
4F6
100
AcDbSymbolTableRecord
100
AcDbBlockTableRecord
  2
*B56
340
0
  0
BLOCK_RECORD
  5
50B
100
AcDbSymbolTableRecord
100
AcDbBlockTableRecord
  2
*B57
340
0
  0
BLOCK_RECORD
  5
516
100
AcDbSymbolTableRecord
100
AcDbBlockTableRecord
  2
*B58
340
0
  0
BLOCK_RECORD
  5
51C
100
AcDbSymbolTableRecord
100
AcDbBlockTableRecord
  2
*B59
340
0
  0
BLOCK_RECORD
  5
52C
100
AcDbSymbolTableRecord
100
AcDbBlockTableRecord
  2
*B60
340
0
  0
BLOCK_RECORD
  5
532
100
AcDbSymbolTableRecord
100
AcDbBlockTableRecord
  2
*B61
340
0
  0
BLOCK_RECORD
  5
538
100
AcDbSymbolTableRecord
100
AcDbBlockTableRecord
  2
*B62
340
0
  0
BLOCK_RECORD
  5
53E
100
AcDbSymbolTableRecord
100
AcDbBlockTableRecord
  2
*B63
340
0
  0
BLOCK_RECORD
  5
544
100
AcDbSymbolTableRecord
100
AcDbBlockTableRecord
  2
*B64
340
0
  0
BLOCK_RECORD
  5
56A
100
AcDbSymbolTableRecord
100
AcDbBlockTableRecord
  2
*B65
340
0
  0
BLOCK_RECORD
  5
573
100
AcDbSymbolTableRecord
100
AcDbBlockTableRecord
  2
*B66
340
0
  0
BLOCK_RECORD
  5
579
100
AcDbSymbolTableRecord
100
AcDbBlockTableRecord
  2
*B67
340
0
  0
BLOCK_RECORD
  5
57E
100
AcDbSymbolTableRecord
100
AcDbBlockTableRecord
  2
*B68
340
0
  0
BLOCK_RECORD
  5
584
100
AcDbSymbolTableRecord
100
AcDbBlockTableRecord
  2
*B69
340
0
  0
BLOCK_RECORD
  5
5AA
100
AcDbSymbolTableRecord
100
AcDbBlockTableRecord
  2
*B70
340
0
  0
BLOCK_RECORD
  5
5AF
100
AcDbSymbolTableRecord
100
AcDbBlockTableRecord
  2
*B71
340
0
  0
BLOCK_RECORD
  5
5C1
100
AcDbSymbolTableRecord
100
AcDbBlockTableRecord
  2
*B72
340
0
  0
BLOCK_RECORD
  5
5C6
100
AcDbSymbolTableRecord
100
AcDbBlockTableRecord
  2
*B73
340
0
  0
BLOCK_RECORD
  5
5E6
100
AcDbSymbolTableRecord
100
AcDbBlockTableRecord
  2
*B74
340
0
  0
BLOCK_RECORD
  5
5F1
100
AcDbSymbolTableRecord
100
AcDbBlockTableRecord
  2
*B75
340
0
  0
BLOCK_RECORD
  5
5F7
100
AcDbSymbolTableRecord
100
AcDbBlockTableRecord
  2
*B76
340
0
  0
BLOCK_RECORD
  5
5FD
100
AcDbSymbolTableRecord
100
AcDbBlockTableRecord
  2
*B77
340
0
  0
BLOCK_RECORD
  5
603
100
AcDbSymbolTableRecord
100
AcDbBlockTableRecord
  2
*B78
340
0
  0
BLOCK_RECORD
  5
609
100
AcDbSymbolTableRecord
100
AcDbBlockTableRecord
  2
*B79
340
0
  0
BLOCK_RECORD
  5
60F
100
AcDbSymbolTableRecord
100
AcDbBlockTableRecord
  2
*B80
340
0
  0
BLOCK_RECORD
  5
615
100
AcDbSymbolTableRecord
100
AcDbBlockTableRecord
  2
*B81
340
0
  0
BLOCK_RECORD
  5
61B
100
AcDbSymbolTableRecord
100
AcDbBlockTableRecord
  2
*B82
340
0
  0
BLOCK_RECORD
  5
621
100
AcDbSymbolTableRecord
100
AcDbBlockTableRecord
  2
*B83
340
0
  0
BLOCK_RECORD
  5
627
100
AcDbSymbolTableRecord
100
AcDbBlockTableRecord
  2
*B84
340
0
  0
BLOCK_RECORD
  5
62D
100
AcDbSymbolTableRecord
100
AcDbBlockTableRecord
  2
*B85
340
0
  0
BLOCK_RECORD
  5
633
100
AcDbSymbolTableRecord
100
AcDbBlockTableRecord
  2
*B86
340
0
  0
BLOCK_RECORD
  5
639
100
AcDbSymbolTableRecord
100
AcDbBlockTableRecord
  2
*B87
340
0
  0
BLOCK_RECORD
  5
63F
100
AcDbSymbolTableRecord
100
AcDbBlockTableRecord
  2
*B88
340
0
  0
BLOCK_RECORD
  5
645
100
AcDbSymbolTableRecord
100
AcDbBlockTableRecord
  2
*B89
340
0
  0
BLOCK_RECORD
  5
64B
100
AcDbSymbolTableRecord
100
AcDbBlockTableRecord
  2
*B90
340
0
  0
BLOCK_RECORD
  5
651
100
AcDbSymbolTableRecord
100
AcDbBlockTableRecord
  2
*B91
340
0
  0
BLOCK_RECORD
  5
657
100
AcDbSymbolTableRecord
100
AcDbBlockTableRecord
  2
*B92
340
0
  0
BLOCK_RECORD
  5
65D
100
AcDbSymbolTableRecord
100
AcDbBlockTableRecord
  2
*B93
340
0
  0
BLOCK_RECORD
  5
663
100
AcDbSymbolTableRecord
100
AcDbBlockTableRecord
  2
*B94
340
0
  0
BLOCK_RECORD
  5
669
100
AcDbSymbolTableRecord
100
AcDbBlockTableRecord
  2
*B95
340
0
  0
BLOCK_RECORD
  5
66F
100
AcDbSymbolTableRecord
100
AcDbBlockTableRecord
  2
*B96
340
0
  0
BLOCK_RECORD
  5
675
100
AcDbSymbolTableRecord
100
AcDbBlockTableRecord
  2
*B97
340
0
  0
BLOCK_RECORD
  5
67B
100
AcDbSymbolTableRecord
100
AcDbBlockTableRecord
  2
*B98
340
0
  0
BLOCK_RECORD
  5
681
100
AcDbSymbolTableRecord
100
AcDbBlockTableRecord
  2
*B99
340
0
  0
BLOCK_RECORD
  5
688
100
AcDbSymbolTableRecord
100
AcDbBlockTableRecord
  2
*B100
340
0
  0
BLOCK_RECORD
  5
68F
100
AcDbSymbolTableRecord
100
AcDbBlockTableRecord
  2
*B101
340
0
  0
BLOCK_RECORD
  5
696
100
AcDbSymbolTableRecord
100
AcDbBlockTableRecord
  2
*B102
340
0
  0
BLOCK_RECORD
  5
69B
100
AcDbSymbolTableRecord
100
AcDbBlockTableRecord
  2
*B103
340
0
  0
BLOCK_RECORD
  5
6A0
100
AcDbSymbolTableRecord
100
AcDbBlockTableRecord
  2
*B104
340
0
  0
BLOCK_RECORD
  5
6A5
100
AcDbSymbolTableRecord
100
AcDbBlockTableRecord
  2
*B105
340
0
  0
BLOCK_RECORD
  5
6AA
100
AcDbSymbolTableRecord
100
AcDbBlockTableRecord
  2
*B106
340
0
  0
BLOCK_RECORD
  5
6AF
100
AcDbSymbolTableRecord
100
AcDbBlockTableRecord
  2
*B107
340
0
  0
BLOCK_RECORD
  5
6B4
100
AcDbSymbolTableRecord
100
AcDbBlockTableRecord
  2
*B108
340
0
  0
BLOCK_RECORD
  5
6B9
100
AcDbSymbolTableRecord
100
AcDbBlockTableRecord
  2
*B109
340
0
  0
BLOCK_RECORD
  5
6BE
100
AcDbSymbolTableRecord
100
AcDbBlockTableRecord
  2
*B110
340
0
  0
BLOCK_RECORD
  5
6C3
100
AcDbSymbolTableRecord
100
AcDbBlockTableRecord
  2
*B111
340
0
  0
BLOCK_RECORD
  5
6C8
100
AcDbSymbolTableRecord
100
AcDbBlockTableRecord
  2
*B112
340
0
  0
BLOCK_RECORD
  5
6CD
100
AcDbSymbolTableRecord
100
AcDbBlockTableRecord
  2
*B113
340
0
  0
BLOCK_RECORD
  5
6D2
100
AcDbSymbolTableRecord
100
AcDbBlockTableRecord
  2
*B114
340
0
  0
BLOCK_RECORD
  5
6D7
100
AcDbSymbolTableRecord
100
AcDbBlockTableRecord
  2
*B115
340
0
  0
BLOCK_RECORD
  5
6DC
100
AcDbSymbolTableRecord
100
AcDbBlockTableRecord
  2
*B116
340
0
  0
BLOCK_RECORD
  5
6E1
100
AcDbSymbolTableRecord
100
AcDbBlockTableRecord
  2
*B117
340
0
  0
BLOCK_RECORD
  5
6E6
100
AcDbSymbolTableRecord
100
AcDbBlockTableRecord
  2
*B118
340
0
  0
BLOCK_RECORD
  5
6EB
100
AcDbSymbolTableRecord
100
AcDbBlockTableRecord
  2
*B119
340
0
  0
BLOCK_RECORD
  5
6F0
100
AcDbSymbolTableRecord
100
AcDbBlockTableRecord
  2
*B120
340
0
  0
BLOCK_RECORD
  5
6F5
100
AcDbSymbolTableRecord
100
AcDbBlockTableRecord
  2
*B121
340
0
  0
BLOCK_RECORD
  5
6FA
100
AcDbSymbolTableRecord
100
AcDbBlockTableRecord
  2
*B122
340
0
  0
BLOCK_RECORD
  5
6FF
100
AcDbSymbolTableRecord
100
AcDbBlockTableRecord
  2
*B123
340
0
  0
BLOCK_RECORD
  5
704
100
AcDbSymbolTableRecord
100
AcDbBlockTableRecord
  2
*B124
340
0
  0
BLOCK_RECORD
  5
709
100
AcDbSymbolTableRecord
100
AcDbBlockTableRecord
  2
*B125
340
0
  0
BLOCK_RECORD
  5
70E
100
AcDbSymbolTableRecord
100
AcDbBlockTableRecord
  2
*B126
340
0
  0
ENDTAB
  0
ENDSEC
  0
SECTION
  2
BLOCKS
  0
BLOCK
  5
D
100
AcDbEntity
  8
0
100
AcDbBlockBegin
  2
*MODEL_SPACE
 70
     0
 10
0.0
 20
0.0
 30
0.0
  3
*MODEL_SPACE
  1

  0
ENDBLK
  5
E
100
AcDbEntity
  8
0
100
AcDbBlockEnd
  0
BLOCK
  5
F
100
AcDbEntity
 67
     1
  8
0
100
AcDbBlockBegin
  2
*PAPER_SPACE
 70
     0
 10
0.0
 20
0.0
 30
0.0
  3
*PAPER_SPACE
  1

  0
ENDBLK
  5
10
100
AcDbEntity
 67
     1
  8
0
100
AcDbBlockEnd
  0
BLOCK
  5
2A
100
AcDbEntity
  8
0
100
AcDbBlockBegin
  2
*B0
 70
     0
 10
0.0
 20
0.0
 30
0.0
  3
*B0
  1

  0
ENDBLK
  5
2B
100
AcDbEntity
  8
0
100
AcDbBlockEnd
  0
BLOCK
  5
2D
100
AcDbEntity
  8
0
100
AcDbBlockBegin
  2
*B1
 70
     0
 10
0.0
 20
0.0
 30
0.0
  3
*B1
  1

  0
ARC
  5
2E
100
AcDbEntity
  8
0
  6
Continuous
 62
   174
100
AcDbCircle
 10
330.321191
 20
245.182129
 30
0.0
 40
4.5
100
AcDbArc
 50
-180.0
 51
-178.084609
  0
ARC
  5
2F
100
AcDbEntity
  8
0
  6
Continuous
 62
   174
100
AcDbCircle
 10
330.321191
 20
245.182129
 30
0.0
 40
4.5
100
AcDbArc
 50
-358.084609
 51
-241.225923
  0
ARC
  5
30
100
AcDbEntity
  8
0
  6
Continuous
 62
   174
100
AcDbCircle
 10
330.321191
 20
245.182129
 30
0.0
 40
4.5
100
AcDbArc
 50
0.0
 51
1.915391
  0
ARC
  5
31
100
AcDbEntity
  8
0
  6
Continuous
 62
   174
100
AcDbCircle
 10
330.321191
 20
245.182129
 30
0.0
 40
4.5
100
AcDbArc
 50
-1.915391
 51
0.0
  0
ARC
  5
32
100
AcDbEntity
  8
0
  6
Continuous
 62
   174
100
AcDbCircle
 10
330.321191
 20
245.182129
 30
0.0
 40
4.5
100
AcDbArc
 50
-178.084609
 51
-1.915391
  0
ARC
  5
33
100
AcDbEntity
  8
0
  6
Continuous
 62
   174
100
AcDbCircle
 10
280.821191
 20
95.182129
 30
0.0
 40
3.75
100
AcDbArc
 50
0.0
 51
180.0
  0
ARC
  5
34
100
AcDbEntity
  8
0
  6
Continuous
 62
   174
100
AcDbCircle
 10
280.821191
 20
95.182129
 30
0.0
 40
3.75
100
AcDbArc
 50
-180.0
 51
0.0
  0
ARC
  5
35
100
AcDbEntity
  8
0
  6
Continuous
 62
   174
100
AcDbCircle
 10
330.321191
 20
245.182129
 30
0.0
 40
3.75
100
AcDbArc
 50
0.0
 51
180.0
  0
ARC
  5
36
100
AcDbEntity
  8
0
  6
Continuous
 62
   174
100
AcDbCircle
 10
330.321191
 20
245.182129
 30
0.0
 40
3.75
100
AcDbArc
 50
-180.0
 51
0.0
  0
LINE
  5
37
100
AcDbEntity
  8
0
  6
HIDDEN
 62
   174
100
AcDbLine
 10
542.571191
 20
152.652693
 30
0.0
 11
542.571191
 21
187.901153
 31
0.0
  0
LINE
  5
38
100
AcDbEntity
  8
0
  6
HIDDEN
 62
   174
100
AcDbLine
 10
548.571191
 20
152.557129
 30
0.0
 11
572.571191
 21
152.557129
 31
0.0
  0
LINE
  5
39
100
AcDbEntity
  8
0
  6
HIDDEN
 62
   174
100
AcDbLine
 10
548.571191
 20
189.922129
 30
0.0
 11
572.571191
 21
189.922129
 31
0.0
  0
LINE
  5
3A
100
AcDbEntity
  8
0
  6
HIDDEN
 62
   174
100
AcDbLine
 10
548.571191
 20
150.537714
 30
0.0
 11
548.571191
 21
190.016132
 31
0.0
  0
LINE
  5
3B
100
AcDbEntity
  8
0
  6
HIDDEN
 62
   174
100
AcDbLine
 10
572.571191
 20
150.537714
 30
0.0
 11
572.571191
 21
190.016132
 31
0.0
  0
LINE
  5
3C
100
AcDbEntity
  8
0
  6
HIDDEN
 62
   174
100
AcDbLine
 10
572.571191
 20
152.557129
 30
0.0
 11
542.571191
 21
152.557129
 31
0.0
  0
LINE
  5
3D
100
AcDbEntity
  8
0
  6
HIDDEN
 62
   174
100
AcDbLine
 10
548.571191
 20
187.807129
 30
0.0
 11
572.571191
 21
187.807129
 31
0.0
  0
LINE
  5
3E
100
AcDbEntity
  8
0
  6
HIDDEN
 62
   174
100
AcDbLine
 10
548.571191
 20
84.442129
 30
0.0
 11
572.571191
 21
84.442129
 31
0.0
  0
LINE
  5
3F
100
AcDbEntity
  8
0
  6
HIDDEN
 62
   174
100
AcDbLine
 10
572.571191
 20
121.807129
 30
0.0
 11
542.571191
 21
121.807129
 31
0.0
  0
LINE
  5
40
100
AcDbEntity
  8
0
  6
HIDDEN
 62
   174
100
AcDbLine
 10
548.571191
 20
86.557129
 30
0.0
 11
572.571191
 21
86.557129
 31
0.0
  0
LINE
  5
41
100
AcDbEntity
  8
0
  6
HIDDEN
 62
   174
100
AcDbLine
 10
262.821191
 20
84.442129
 30
0.0
 11
238.821191
 21
84.442129
 31
0.0
  0
LINE
  5
42
100
AcDbEntity
  8
0
  6
HIDDEN
 62
   174
100
AcDbLine
 10
262.821191
 20
253.807129
 30
0.0
 11
238.821191
 21
253.807129
 31
0.0
  0
LINE
  5
43
100
AcDbEntity
  8
0
  6
HIDDEN
 62
   174
100
AcDbLine
 10
262.821191
 20
255.922129
 30
0.0
 11
238.821191
 21
255.922129
 31
0.0
  0
LINE
  5
44
100
AcDbEntity
  8
0
  6
HIDDEN
 62
   174
100
AcDbLine
 10
238.821191
 20
218.557129
 30
0.0
 11
268.821191
 21
218.557129
 31
0.0
  0
LINE
  5
45
100
AcDbEntity
  8
0
  6
HIDDEN
 62
   174
100
AcDbLine
 10
238.821191
 20
190.016132
 30
0.0
 11
238.821191
 21
150.537714
 31
0.0
  0
LINE
  5
46
100
AcDbEntity
  8
0
  6
HIDDEN
 62
   174
100
AcDbLine
 10
238.821191
 20
187.807129
 30
0.0
 11
268.821191
 21
187.807129
 31
0.0
  0
LINE
  5
47
100
AcDbEntity
  8
0
  6
HIDDEN
 62
   174
100
AcDbLine
 10
262.821191
 20
152.557129
 30
0.0
 11
238.821191
 21
152.557129
 31
0.0
  0
ARC
  5
48
100
AcDbEntity
  8
0
  6
Continuous
 62
   174
100
AcDbCircle
 10
414.321191
 20
95.182129
 30
0.0
 40
4.5
100
AcDbArc
 50
-177.797721
 51
-2.202279
  0
LINE
  5
49
100
AcDbEntity
  8
0
  6
HIDDEN
 62
   174
100
AcDbLine
 10
548.571191
 20
123.922129
 30
0.0
 11
572.571191
 21
123.922129
 31
0.0
  0
LINE
  5
4A
100
AcDbEntity
  8
0
  6
HIDDEN
 62
   174
100
AcDbLine
 10
548.571191
 20
218.557129
 30
0.0
 11
572.571191
 21
218.557129
 31
0.0
  0
LINE
  5
4B
100
AcDbEntity
  8
0
  6
HIDDEN
 62
   174
100
AcDbLine
 10
548.571191
 20
216.442129
 30
0.0
 11
572.571191
 21
216.442129
 31
0.0
  0
LINE
  5
4C
100
AcDbEntity
  8
0
  6
HIDDEN
 62
   174
100
AcDbLine
 10
572.571191
 20
253.807129
 30
0.0
 11
542.571191
 21
253.807129
 31
0.0
  0
LINE
  5
4D
100
AcDbEntity
  8
0
  6
HIDDEN
 62
   174
100
AcDbLine
 10
262.821191
 20
84.442129
 30
0.0
 11
238.821191
 21
84.442129
 31
0.0
  0
LINE
  5
4E
100
AcDbEntity
  8
0
  6
HIDDEN
 62
   174
100
AcDbLine
 10
238.821191
 20
121.807129
 30
0.0
 11
268.821191
 21
121.807129
 31
0.0
  0
LINE
  5
4F
100
AcDbEntity
  8
0
  6
HIDDEN
 62
   174
100
AcDbLine
 10
262.821191
 20
86.557129
 30
0.0
 11
238.821191
 21
86.557129
 31
0.0
  0
ARC
  5
50
100
AcDbEntity
  8
0
  6
Continuous
 62
   174
100
AcDbCircle
 10
347.571191
 20
95.182129
 30
0.0
 40
4.5
100
AcDbArc
 50
-180.0
 51
-178.084609
  0
LINE
  5
51
100
AcDbEntity
  8
0
  6
HIDDEN
 62
   174
100
AcDbLine
 10
548.571191
 20
150.442129
 30
0.0
 11
572.571191
 21
150.442129
 31
0.0
  0
LINE
  5
52
100
AcDbEntity
  8
0
  6
HIDDEN
 62
   174
100
AcDbLine
 10
572.571191
 20
187.807129
 30
0.0
 11
542.571191
 21
187.807129
 31
0.0
  0
LINE
  5
53
100
AcDbEntity
  8
0
  6
HIDDEN
 62
   174
100
AcDbLine
 10
548.571191
 20
152.557129
 30
0.0
 11
572.571191
 21
152.557129
 31
0.0
  0
LINE
  5
54
100
AcDbEntity
  8
0
  6
HIDDEN
 62
   174
100
AcDbLine
 10
548.571191
 20
123.922129
 30
0.0
 11
572.571191
 21
123.922129
 31
0.0
  0
LINE
  5
55
100
AcDbEntity
  8
0
  6
HIDDEN
 62
   174
100
AcDbLine
 10
572.571191
 20
86.557129
 30
0.0
 11
542.571191
 21
86.557129
 31
0.0
  0
LINE
  5
56
100
AcDbEntity
  8
0
  6
HIDDEN
 62
   174
100
AcDbLine
 10
548.571191
 20
121.807129
 30
0.0
 11
572.571191
 21
121.807129
 31
0.0
  0
LINE
  5
57
100
AcDbEntity
  8
0
  6
HIDDEN
 62
   174
100
AcDbLine
 10
238.821191
 20
256.013005
 30
0.0
 11
238.821191
 21
216.534586
 31
0.0
  0
LINE
  5
58
100
AcDbEntity
  8
0
  6
HIDDEN
 62
   174
100
AcDbLine
 10
238.821191
 20
253.807129
 30
0.0
 11
268.821191
 21
253.807129
 31
0.0
  0
LINE
  5
59
100
AcDbEntity
  8
0
  6
HIDDEN
 62
   174
100
AcDbLine
 10
262.821191
 20
218.557129
 30
0.0
 11
238.821191
 21
218.557129
 31
0.0
  0
LINE
  5
5A
100
AcDbEntity
  8
0
  6
HIDDEN
 62
   174
100
AcDbLine
 10
262.821191
 20
190.016132
 30
0.0
 11
262.821191
 21
150.537714
 31
0.0
  0
LINE
  5
5B
100
AcDbEntity
  8
0
  6
HIDDEN
 62
   174
100
AcDbLine
 10
262.821191
 20
189.922129
 30
0.0
 11
238.821191
 21
189.922129
 31
0.0
  0
LINE
  5
5C
100
AcDbEntity
  8
0
  6
HIDDEN
 62
   174
100
AcDbLine
 10
238.821191
 20
152.557129
 30
0.0
 11
268.821191
 21
152.557129
 31
0.0
  0
LINE
  5
5D
100
AcDbEntity
  8
0
  6
HIDDEN
 62
   174
100
AcDbLine
 10
262.821191
 20
187.807129
 30
0.0
 11
238.821191
 21
187.807129
 31
0.0
  0
ARC
  5
5E
100
AcDbEntity
  8
0
  6
Continuous
 62
   174
100
AcDbCircle
 10
414.321191
 20
95.182129
 30
0.0
 40
4.5
100
AcDbArc
 50
-2.202279
 51
0.0
  0
ARC
  5
5F
100
AcDbEntity
  8
0
  6
Continuous
 62
   174
100
AcDbCircle
 10
347.571191
 20
95.182129
 30
0.0
 40
4.5
100
AcDbArc
 50
-178.084609
 51
-1.915391
  0
LINE
  5
60
100
AcDbEntity
  8
0
  6
HIDDEN
 62
   174
100
AcDbLine
 10
572.571191
 20
216.534586
 30
0.0
 11
572.571191
 21
256.013005
 31
0.0
  0
LINE
  5
61
100
AcDbEntity
  8
0
  6
HIDDEN
 62
   174
100
AcDbLine
 10
572.571191
 20
218.557129
 30
0.0
 11
542.571191
 21
218.557129
 31
0.0
  0
LINE
  5
62
100
AcDbEntity
  8
0
  6
HIDDEN
 62
   174
100
AcDbLine
 10
548.571191
 20
253.807129
 30
0.0
 11
572.571191
 21
253.807129
 31
0.0
  0
LINE
  5
63
100
AcDbEntity
  8
0
  6
HIDDEN
 62
   174
100
AcDbLine
 10
262.821191
 20
121.807129
 30
0.0
 11
238.821191
 21
121.807129
 31
0.0
  0
LINE
  5
64
100
AcDbEntity
  8
0
  6
HIDDEN
 62
   174
100
AcDbLine
 10
262.821191
 20
123.922129
 30
0.0
 11
238.821191
 21
123.922129
 31
0.0
  0
LINE
  5
65
100
AcDbEntity
  8
0
  6
HIDDEN
 62
   174
100
AcDbLine
 10
238.821191
 20
86.557129
 30
0.0
 11
268.821191
 21
86.557129
 31
0.0
  0
LINE
  5
66
100
AcDbEntity
  8
0
  6
HIDDEN
 62
   174
100
AcDbLine
 10
262.821191
 20
150.442129
 30
0.0
 11
238.821191
 21
150.442129
 31
0.0
  0
LINE
  5
67
100
AcDbEntity
  8
0
  6
HIDDEN
 62
   174
100
AcDbLine
 10
572.571191
 20
187.901153
 30
0.0
 11
572.571191
 21
152.652693
 31
0.0
  0
LINE
  5
68
100
AcDbEntity
  8
0
  6
HIDDEN
 62
   174
100
AcDbLine
 10
572.571191
 20
121.90428
 30
0.0
 11
572.571191
 21
86.655821
 31
0.0
  0
ARC
  5
69
100
AcDbEntity
  8
0
  6
Continuous
 62
   174
100
AcDbCircle
 10
414.321191
 20
95.182129
 30
0.0
 40
4.5
100
AcDbArc
 50
0.0
 51
2.202279
  0
ARC
  5
6A
100
AcDbEntity
  8
0
  6
Continuous
 62
   174
100
AcDbCircle
 10
397.071191
 20
245.182129
 30
0.0
 40
4.5
100
AcDbArc
 50
-180.0
 51
-178.084609
  0
LINE
  5
6B
100
AcDbEntity
  8
0
  6
HIDDEN
 62
   174
100
AcDbLine
 10
548.571191
 20
189.922129
 30
0.0
 11
572.571191
 21
189.922129
 31
0.0
  0
LINE
  5
6C
100
AcDbEntity
  8
0
  6
HIDDEN
 62
   174
100
AcDbLine
 10
572.571191
 20
152.557129
 30
0.0
 11
542.571191
 21
152.557129
 31
0.0
  0
LINE
  5
6D
100
AcDbEntity
  8
0
  6
HIDDEN
 62
   174
100
AcDbLine
 10
548.571191
 20
187.807129
 30
0.0
 11
572.571191
 21
187.807129
 31
0.0
  0
LINE
  5
6E
100
AcDbEntity
  8
0
  6
HIDDEN
 62
   174
100
AcDbLine
 10
548.571191
 20
86.557129
 30
0.0
 11
572.571191
 21
86.557129
 31
0.0
  0
LINE
  5
6F
100
AcDbEntity
  8
0
  6
HIDDEN
 62
   174
100
AcDbLine
 10
548.571191
 20
84.442129
 30
0.0
 11
572.571191
 21
84.442129
 31
0.0
  0
LINE
  5
70
100
AcDbEntity
  8
0
  6
HIDDEN
 62
   174
100
AcDbLine
 10
572.571191
 20
121.807129
 30
0.0
 11
542.571191
 21
121.807129
 31
0.0
  0
LINE
  5
71
100
AcDbEntity
  8
0
  6
HIDDEN
 62
   174
100
AcDbLine
 10
262.821191
 20
256.013005
 30
0.0
 11
262.821191
 21
216.534586
 31
0.0
  0
LINE
  5
72
100
AcDbEntity
  8
0
  6
HIDDEN
 62
   174
100
AcDbLine
 10
262.821191
 20
255.922129
 30
0.0
 11
238.821191
 21
255.922129
 31
0.0
  0
LINE
  5
73
100
AcDbEntity
  8
0
  6
HIDDEN
 62
   174
100
AcDbLine
 10
238.821191
 20
218.557129
 30
0.0
 11
268.821191
 21
218.557129
 31
0.0
  0
LINE
  5
74
100
AcDbEntity
  8
0
  6
HIDDEN
 62
   174
100
AcDbLine
 10
262.821191
 20
253.807129
 30
0.0
 11
238.821191
 21
253.807129
 31
0.0
  0
LINE
  5
75
100
AcDbEntity
  8
0
  6
HIDDEN
 62
   174
100
AcDbLine
 10
262.821191
 20
150.442129
 30
0.0
 11
238.821191
 21
150.442129
 31
0.0
  0
LINE
  5
76
100
AcDbEntity
  8
0
  6
HIDDEN
 62
   174
100
AcDbLine
 10
238.821191
 20
187.807129
 30
0.0
 11
268.821191
 21
187.807129
 31
0.0
  0
LINE
  5
77
100
AcDbEntity
  8
0
  6
HIDDEN
 62
   174
100
AcDbLine
 10
262.821191
 20
152.557129
 30
0.0
 11
238.821191
 21
152.557129
 31
0.0
  0
ARC
  5
78
100
AcDbEntity
  8
0
  6
Continuous
 62
   174
100
AcDbCircle
 10
347.571191
 20
95.182129
 30
0.0
 40
4.5
100
AcDbArc
 50
-1.915391
 51
0.0
  0
LINE
  5
79
100
AcDbEntity
  8
0
  6
HIDDEN
 62
   174
100
AcDbLine
 10
548.571191
 20
216.534586
 30
0.0
 11
548.571191
 21
256.013005
 31
0.0
  0
LINE
  5
7A
100
AcDbEntity
  8
0
  6
HIDDEN
 62
   174
100
AcDbLine
 10
548.571191
 20
216.442129
 30
0.0
 11
572.571191
 21
216.442129
 31
0.0
  0
LINE
  5
7B
100
AcDbEntity
  8
0
  6
HIDDEN
 62
   174
100
AcDbLine
 10
572.571191
 20
253.807129
 30
0.0
 11
542.571191
 21
253.807129
 31
0.0
  0
LINE
  5
7C
100
AcDbEntity
  8
0
  6
HIDDEN
 62
   174
100
AcDbLine
 10
548.571191
 20
218.557129
 30
0.0
 11
572.571191
 21
218.557129
 31
0.0
  0
LINE
  5
7D
100
AcDbEntity
  8
0
  6
HIDDEN
 62
   174
100
AcDbLine
 10
238.821191
 20
124.01926
 30
0.0
 11
238.821191
 21
84.540841
 31
0.0
  0
LINE
  5
7E
100
AcDbEntity
  8
0
  6
HIDDEN
 62
   174
100
AcDbLine
 10
238.821191
 20
121.807129
 30
0.0
 11
268.821191
 21
121.807129
 31
0.0
  0
LINE
  5
7F
100
AcDbEntity
  8
0
  6
HIDDEN
 62
   174
100
AcDbLine
 10
262.821191
 20
86.557129
 30
0.0
 11
238.821191
 21
86.557129
 31
0.0
  0
LINE
  5
80
100
AcDbEntity
  8
0
  6
HIDDEN
 62
   174
100
AcDbLine
 10
262.821191
 20
216.442129
 30
0.0
 11
238.821191
 21
216.442129
 31
0.0
  0
ARC
  5
81
100
AcDbEntity
  8
0
  6
Continuous
 62
   174
100
AcDbCircle
 10
414.321191
 20
95.182129
 30
0.0
 40
4.5
100
AcDbArc
 50
-357.797721
 51
-241.175158
  0
ARC
  5
82
100
AcDbEntity
  8
0
  6
Continuous
 62
   174
100
AcDbCircle
 10
347.571191
 20
95.182129
 30
0.0
 40
4.5
100
AcDbArc
 50
0.0
 51
1.915391
  0
LINE
  5
83
100
AcDbEntity
  8
0
  6
HIDDEN
 62
   174
100
AcDbLine
 10
548.571191
 20
150.442129
 30
0.0
 11
572.571191
 21
150.442129
 31
0.0
  0
LINE
  5
84
100
AcDbEntity
  8
0
  6
HIDDEN
 62
   174
100
AcDbLine
 10
572.571191
 20
187.807129
 30
0.0
 11
542.571191
 21
187.807129
 31
0.0
  0
LINE
  5
85
100
AcDbEntity
  8
0
  6
HIDDEN
 62
   174
100
AcDbLine
 10
572.571191
 20
84.540841
 30
0.0
 11
572.571191
 21
124.01926
 31
0.0
  0
LINE
  5
86
100
AcDbEntity
  8
0
  6
HIDDEN
 62
   174
100
AcDbLine
 10
572.571191
 20
86.557129
 30
0.0
 11
542.571191
 21
86.557129
 31
0.0
  0
LINE
  5
87
100
AcDbEntity
  8
0
  6
HIDDEN
 62
   174
100
AcDbLine
 10
548.571191
 20
121.807129
 30
0.0
 11
572.571191
 21
121.807129
 31
0.0
  0
LINE
  5
88
100
AcDbEntity
  8
0
  6
HIDDEN
 62
   174
100
AcDbLine
 10
548.571191
 20
255.922129
 30
0.0
 11
572.571191
 21
255.922129
 31
0.0
  0
LINE
  5
89
100
AcDbEntity
  8
0
  6
HIDDEN
 62
   174
100
AcDbLine
 10
262.821191
 20
124.01926
 30
0.0
 11
262.821191
 21
84.540841
 31
0.0
  0
LINE
  5
8A
100
AcDbEntity
  8
0
  6
HIDDEN
 62
   174
100
AcDbLine
 10
262.821191
 20
216.442129
 30
0.0
 11
238.821191
 21
216.442129
 31
0.0
  0
LINE
  5
8B
100
AcDbEntity
  8
0
  6
HIDDEN
 62
   174
100
AcDbLine
 10
238.821191
 20
253.807129
 30
0.0
 11
268.821191
 21
253.807129
 31
0.0
  0
LINE
  5
8C
100
AcDbEntity
  8
0
  6
HIDDEN
 62
   174
100
AcDbLine
 10
262.821191
 20
218.557129
 30
0.0
 11
238.821191
 21
218.557129
 31
0.0
  0
LINE
  5
8D
100
AcDbEntity
  8
0
  6
HIDDEN
 62
   174
100
AcDbLine
 10
262.821191
 20
187.807129
 30
0.0
 11
238.821191
 21
187.807129
 31
0.0
  0
LINE
  5
8E
100
AcDbEntity
  8
0
  6
HIDDEN
 62
   174
100
AcDbLine
 10
262.821191
 20
189.922129
 30
0.0
 11
238.821191
 21
189.922129
 31
0.0
  0
LINE
  5
8F
100
AcDbEntity
  8
0
  6
HIDDEN
 62
   174
100
AcDbLine
 10
238.821191
 20
152.557129
 30
0.0
 11
268.821191
 21
152.557129
 31
0.0
  0
LINE
  5
90
100
AcDbEntity
  8
0
  6
HIDDEN
 62
   174
100
AcDbLine
 10
548.571191
 20
84.540841
 30
0.0
 11
548.571191
 21
124.01926
 31
0.0
  0
LINE
  5
91
100
AcDbEntity
  8
0
  6
HIDDEN
 62
   174
100
AcDbLine
 10
542.571191
 20
218.649565
 30
0.0
 11
542.571191
 21
253.898025
 31
0.0
  0
LINE
  5
92
100
AcDbEntity
  8
0
  6
HIDDEN
 62
   174
100
AcDbLine
 10
548.571191
 20
255.922129
 30
0.0
 11
572.571191
 21
255.922129
 31
0.0
  0
LINE
  5
93
100
AcDbEntity
  8
0
  6
HIDDEN
 62
   174
100
AcDbLine
 10
572.571191
 20
218.557129
 30
0.0
 11
542.571191
 21
218.557129
 31
0.0
  0
LINE
  5
94
100
AcDbEntity
  8
0
  6
HIDDEN
 62
   174
100
AcDbLine
 10
548.571191
 20
253.807129
 30
0.0
 11
572.571191
 21
253.807129
 31
0.0
  0
LINE
  5
95
100
AcDbEntity
  8
0
  6
HIDDEN
 62
   174
100
AcDbLine
 10
262.821191
 20
123.922129
 30
0.0
 11
238.821191
 21
123.922129
 31
0.0
  0
LINE
  5
96
100
AcDbEntity
  8
0
  6
HIDDEN
 62
   174
100
AcDbLine
 10
238.821191
 20
86.557129
 30
0.0
 11
268.821191
 21
86.557129
 31
0.0
  0
LINE
  5
97
100
AcDbEntity
  8
0
  6
HIDDEN
 62
   174
100
AcDbLine
 10
262.821191
 20
121.807129
 30
0.0
 11
238.821191
 21
121.807129
 31
0.0
  0
LINE
  5
98
100
AcDbEntity
  8
0
  6
HIDDEN
 62
   174
100
AcDbLine
 10
542.571191
 20
86.655821
 30
0.0
 11
542.571191
 21
121.90428
 31
0.0
  0
LINE
  5
99
100
AcDbEntity
  8
0
  6
HIDDEN
 62
   174
100
AcDbLine
 10
572.571191
 20
253.898025
 30
0.0
 11
572.571191
 21
218.649565
 31
0.0
  0
ARC
  5
9A
100
AcDbEntity
  8
0
  6
Continuous
 62
   174
100
AcDbCircle
 10
414.321191
 20
95.182129
 30
0.0
 40
4.5
100
AcDbArc
 50
-180.0
 51
-177.797721
  0
ARC
  5
9B
100
AcDbEntity
  8
0
  6
Continuous
 62
   174
100
AcDbCircle
 10
347.571191
 20
95.182129
 30
0.0
 40
4.5
100
AcDbArc
 50
-358.084609
 51
-241.225923
  0
ARC
  5
9C
100
AcDbEntity
  8
0
  6
Continuous
 62
   174
100
AcDbCircle
 10
305.571191
 20
116.182129
 30
0.0
 40
9.0
100
AcDbArc
 50
-180.0
 51
0.0
  0
ARC
  5
9D
100
AcDbEntity
  8
0
  6
Continuous
 62
   174
100
AcDbCircle
 10
280.821191
 20
95.182129
 30
0.0
 40
4.5
100
AcDbArc
 50
-180.0
 51
-178.304682
  0
ARC
  5
9E
100
AcDbEntity
  8
0
  6
Continuous
 62
   174
100
AcDbCircle
 10
439.071191
 20
116.182129
 30
0.0
 40
9.0
100
AcDbArc
 50
-180.0
 51
0.0
  0
ARC
  5
9F
100
AcDbEntity
  8
0
  6
Continuous
 62
   174
100
AcDbCircle
 10
439.071191
 20
170.182129
 30
0.0
 40
22.5
100
AcDbArc
 50
-180.0
 51
0.0
  0
ARC
  5
A0
100
AcDbEntity
  8
0
  6
Continuous
 62
   174
100
AcDbCircle
 10
305.571191
 20
116.182129
 30
0.0
 40
22.5
100
AcDbArc
 50
0.0
 51
180.0
  0
ARC
  5
A1
100
AcDbEntity
  8
0
  6
Continuous
 62
   174
100
AcDbCircle
 10
397.071191
 20
245.182129
 30
0.0
 40
3.75
100
AcDbArc
 50
273.702506
 51
312.815521
  0
ARC
  5
A2
100
AcDbEntity
  8
0
  6
Continuous
 62
   174
100
AcDbCircle
 10
463.821191
 20
245.182129
 30
0.0
 40
3.75
100
AcDbArc
 50
47.184479
 51
86.297494
  0
ARC
  5
A3
100
AcDbEntity
  8
0
  6
Continuous
 62
   174
100
AcDbCircle
 10
530.571191
 20
245.182129
 30
0.0
 40
4.5
100
AcDbArc
 50
0.0
 51
1.915391
  0
ARC
  5
A4
100
AcDbEntity
  8
0
  6
Continuous
 62
   174
100
AcDbCircle
 10
481.071191
 20
95.182129
 30
0.0
 40
3.75
100
AcDbArc
 50
266.297494
 51
273.702506
  0
ARC
  5
A5
100
AcDbEntity
  8
0
  6
Continuous
 62
   174
100
AcDbCircle
 10
414.321191
 20
95.182129
 30
0.0
 40
3.75
100
AcDbArc
 50
41.207518
 51
47.184479
  0
ARC
  5
A6
100
AcDbEntity
  8
0
  6
Continuous
 62
   174
100
AcDbCircle
 10
505.821191
 20
170.182129
 30
0.0
 40
22.5
100
AcDbArc
 50
0.0
 51
180.0
  0
ARC
  5
A7
100
AcDbEntity
  8
0
  6
Continuous
 62
   174
100
AcDbCircle
 10
463.821191
 20
245.182129
 30
0.0
 40
3.75
100
AcDbArc
 50
227.184479
 51
266.297494
  0
ARC
  5
A8
100
AcDbEntity
  8
0
  6
Continuous
 62
   174
100
AcDbCircle
 10
397.071191
 20
245.182129
 30
0.0
 40
4.5
100
AcDbArc
 50
-1.915391
 51
0.0
  0
ARC
  5
A9
100
AcDbEntity
  8
0
  6
Continuous
 62
   174
100
AcDbCircle
 10
372.321191
 20
224.182129
 30
0.0
 40
9.0
100
AcDbArc
 50
-180.0
 51
0.0
  0
ARC
  5
AA
100
AcDbEntity
  8
0
  6
Continuous
 62
   174
100
AcDbCircle
 10
414.321191
 20
95.182129
 30
0.0
 40
3.75
100
AcDbArc
 50
221.207518
 51
227.184479
  0
ARC
  5
AB
100
AcDbEntity
  8
0
  6
Continuous
 62
   174
100
AcDbCircle
 10
256.821191
 20
203.182129
 30
0.0
 40
6.75
100
AcDbArc
 50
0.0
 51
180.0
  0
ARC
  5
AC
100
AcDbEntity
  8
0
  6
Continuous
 62
   174
100
AcDbCircle
 10
372.321191
 20
116.182129
 30
0.0
 40
9.0
100
AcDbArc
 50
-180.0
 51
0.0
  0
ARC
  5
AD
100
AcDbEntity
  8
0
  6
Continuous
 62
   174
100
AcDbCircle
 10
397.071191
 20
245.182129
 30
0.0
 40
3.75
100
AcDbArc
 50
86.297494
 51
93.702506
  0
ARC
  5
AE
100
AcDbEntity
  8
0
  6
Continuous
 62
   174
100
AcDbCircle
 10
481.071191
 20
95.182129
 30
0.0
 40
4.5
100
AcDbArc
 50
-180.0
 51
-177.797721
  0
ARC
  5
AF
100
AcDbEntity
  8
0
  6
Continuous
 62
   174
100
AcDbCircle
 10
481.071191
 20
95.182129
 30
0.0
 40
3.75
100
AcDbArc
 50
47.184479
 51
86.297494
  0
ARC
  5
B0
100
AcDbEntity
  8
0
  6
Continuous
 62
   174
100
AcDbCircle
 10
280.821191
 20
95.182129
 30
0.0
 40
4.5
100
AcDbArc
 50
-178.304682
 51
-1.695318
  0
ARC
  5
B1
100
AcDbEntity
  8
0
  6
Continuous
 62
   174
100
AcDbCircle
 10
505.821191
 20
116.182129
 30
0.0
 40
9.0
100
AcDbArc
 50
-180.0
 51
0.0
  0
ARC
  5
B2
100
AcDbEntity
  8
0
  6
Continuous
 62
   174
100
AcDbCircle
 10
305.571191
 20
116.182129
 30
0.0
 40
9.0
100
AcDbArc
 50
0.0
 51
180.0
  0
ARC
  5
B3
100
AcDbEntity
  8
0
  6
Continuous
 62
   174
100
AcDbCircle
 10
305.571191
 20
116.182129
 30
0.0
 40
22.5
100
AcDbArc
 50
-180.0
 51
0.0
  0
ARC
  5
B4
100
AcDbEntity
  8
0
  6
Continuous
 62
   174
100
AcDbCircle
 10
530.571191
 20
245.182129
 30
0.0
 40
4.5
100
AcDbArc
 50
-358.084609
 51
-241.225923
  0
ARC
  5
B5
100
AcDbEntity
  8
0
  6
Continuous
 62
   174
100
AcDbCircle
 10
439.071191
 20
116.182129
 30
0.0
 40
9.0
100
AcDbArc
 50
0.0
 51
180.0
  0
ARC
  5
B6
100
AcDbEntity
  8
0
  6
Continuous
 62
   174
100
AcDbCircle
 10
372.321191
 20
224.182129
 30
0.0
 40
22.5
100
AcDbArc
 50
0.0
 51
180.0
  0
ARC
  5
B7
100
AcDbEntity
  8
0
  6
Continuous
 62
   174
100
AcDbCircle
 10
397.071191
 20
245.182129
 30
0.0
 40
3.75
100
AcDbArc
 50
266.297494
 51
273.702506
  0
ARC
  5
B8
100
AcDbEntity
  8
0
  6
Continuous
 62
   174
100
AcDbCircle
 10
463.821191
 20
245.182129
 30
0.0
 40
3.75
100
AcDbArc
 50
41.207518
 51
47.184479
  0
ARC
  5
B9
100
AcDbEntity
  8
0
  6
Continuous
 62
   174
100
AcDbCircle
 10
481.071191
 20
95.182129
 30
0.0
 40
3.75
100
AcDbArc
 50
227.184479
 51
266.297494
  0
ARC
  5
BA
100
AcDbEntity
  8
0
  6
Continuous
 62
   174
100
AcDbCircle
 10
372.321191
 20
116.182129
 30
0.0
 40
22.5
100
AcDbArc
 50
0.0
 51
180.0
  0
ARC
  5
BB
100
AcDbEntity
  8
0
  6
Continuous
 62
   174
100
AcDbCircle
 10
439.071191
 20
224.182129
 30
0.0
 40
22.5
100
AcDbArc
 50
0.0
 51
180.0
  0
ARC
  5
BC
100
AcDbEntity
  8
0
  6
Continuous
 62
   174
100
AcDbCircle
 10
414.321191
 20
95.182129
 30
0.0
 40
3.75
100
AcDbArc
 50
0.0
 51
41.207518
  0
ARC
  5
BD
100
AcDbEntity
  8
0
  6
Continuous
 62
   174
100
AcDbCircle
 10
463.821191
 20
245.182129
 30
0.0
 40
3.75
100
AcDbArc
 50
221.207518
 51
227.184479
  0
ARC
  5
BE
100
AcDbEntity
  8
0
  6
Continuous
 62
   174
100
AcDbCircle
 10
505.821191
 20
170.182129
 30
0.0
 40
22.5
100
AcDbArc
 50
-180.0
 51
0.0
  0
ARC
  5
BF
100
AcDbEntity
  8
0
  6
Continuous
 62
   174
100
AcDbCircle
 10
397.071191
 20
245.182129
 30
0.0
 40
4.5
100
AcDbArc
 50
0.0
 51
1.915391
  0
ARC
  5
C0
100
AcDbEntity
  8
0
  6
Continuous
 62
   174
100
AcDbCircle
 10
414.321191
 20
95.182129
 30
0.0
 40
3.75
100
AcDbArc
 50
180.0
 51
221.207518
  0
ARC
  5
C1
100
AcDbEntity
  8
0
  6
Continuous
 62
   174
100
AcDbCircle
 10
372.321191
 20
224.182129
 30
0.0
 40
9.0
100
AcDbArc
 50
0.0
 51
180.0
  0
ARC
  5
C2
100
AcDbEntity
  8
0
  6
Continuous
 62
   174
100
AcDbCircle
 10
256.821191
 20
203.182129
 30
0.0
 40
6.75
100
AcDbArc
 50
-180.0
 51
0.0
  0
ARC
  5
C3
100
AcDbEntity
  8
0
  6
Continuous
 62
   174
100
AcDbCircle
 10
372.321191
 20
116.182129
 30
0.0
 40
9.0
100
AcDbArc
 50
0.0
 51
180.0
  0
LINE
  5
C4
100
AcDbEntity
  8
0
  6
HIDDEN
 62
   174
100
AcDbLine
 10
238.821191
 20
218.649565
 30
0.0
 11
238.821191
 21
253.898025
 31
0.0
  0
ARC
  5
C5
100
AcDbEntity
  8
0
  6
Continuous
 62
   174
100
AcDbCircle
 10
397.071191
 20
245.182129
 30
0.0
 40
3.75
100
AcDbArc
 50
47.184479
 51
86.297494
  0
ARC
  5
C6
100
AcDbEntity
  8
0
  6
Continuous
 62
   174
100
AcDbCircle
 10
481.071191
 20
95.182129
 30
0.0
 40
3.75
100
AcDbArc
 50
41.207518
 51
47.184479
  0
ARC
  5
C7
100
AcDbEntity
  8
0
  6
Continuous
 62
   174
100
AcDbCircle
 10
481.071191
 20
95.182129
 30
0.0
 40
4.5
100
AcDbArc
 50
-177.797721
 51
-2.202279
  0
ARC
  5
C8
100
AcDbEntity
  8
0
  6
Continuous
 62
   174
100
AcDbCircle
 10
280.821191
 20
95.182129
 30
0.0
 40
4.5
100
AcDbArc
 50
-1.695318
 51
0.0
  0
ARC
  5
C9
100
AcDbEntity
  8
0
  6
Continuous
 62
   174
100
AcDbCircle
 10
505.821191
 20
116.182129
 30
0.0
 40
9.0
100
AcDbArc
 50
0.0
 51
180.0
  0
ARC
  5
CA
100
AcDbEntity
  8
0
  6
Continuous
 62
   174
100
AcDbCircle
 10
372.321191
 20
224.182129
 30
0.0
 40
22.5
100
AcDbArc
 50
-180.0
 51
0.0
  0
ARC
  5
CB
100
AcDbEntity
  8
0
  6
Continuous
 62
   174
100
AcDbCircle
 10
397.071191
 20
245.182129
 30
0.0
 40
3.75
100
AcDbArc
 50
227.184479
 51
266.297494
  0
ARC
  5
CC
100
AcDbEntity
  8
0
  6
Continuous
 62
   174
100
AcDbCircle
 10
414.321191
 20
95.182129
 30
0.0
 40
3.75
100
AcDbArc
 50
138.792482
 51
180.0
  0
ARC
  5
CD
100
AcDbEntity
  8
0
  6
Continuous
 62
   174
100
AcDbCircle
 10
463.821191
 20
245.182129
 30
0.0
 40
3.75
100
AcDbArc
 50
0.0
 51
41.207518
  0
ARC
  5
CE
100
AcDbEntity
  8
0
  6
Continuous
 62
   174
100
AcDbCircle
 10
481.071191
 20
95.182129
 30
0.0
 40
3.75
100
AcDbArc
 50
221.207518
 51
227.184479
  0
ARC
  5
CF
100
AcDbEntity
  8
0
  6
Continuous
 62
   174
100
AcDbCircle
 10
372.321191
 20
116.182129
 30
0.0
 40
22.5
100
AcDbArc
 50
-180.0
 51
0.0
  0
ARC
  5
D0
100
AcDbEntity
  8
0
  6
Continuous
 62
   174
100
AcDbCircle
 10
305.571191
 20
170.182129
 30
0.0
 40
9.0
100
AcDbArc
 50
-180.0
 51
0.0
  0
ARC
  5
D1
100
AcDbEntity
  8
0
  6
Continuous
 62
   174
100
AcDbCircle
 10
305.571191
 20
170.182129
 30
0.0
 40
22.5
100
AcDbArc
 50
0.0
 51
180.0
  0
ARC
  5
D2
100
AcDbEntity
  8
0
  6
Continuous
 62
   174
100
AcDbCircle
 10
414.321191
 20
95.182129
 30
0.0
 40
3.75
100
AcDbArc
 50
-41.207518
 51
0.0
  0
ARC
  5
D3
100
AcDbEntity
  8
0
  6
Continuous
 62
   174
100
AcDbCircle
 10
463.821191
 20
245.182129
 30
0.0
 40
4.5
100
AcDbArc
 50
-180.0
 51
-178.084609
  0
LINE
  5
D4
100
AcDbEntity
  8
0
  6
Continuous
 62
   174
100
AcDbLine
 10
238.821191
 20
266.182129
 30
0.0
 11
238.821191
 21
74.182129
 31
0.0
  0
ARC
  5
D5
100
AcDbEntity
  8
0
  6
Continuous
 62
   174
100
AcDbCircle
 10
439.071191
 20
224.182129
 30
0.0
 40
22.5
100
AcDbArc
 50
-180.0
 51
0.0
  0
ARC
  5
D6
100
AcDbEntity
  8
0
  6
Continuous
 62
   174
100
AcDbCircle
 10
463.821191
 20
245.182129
 30
0.0
 40
3.75
100
AcDbArc
 50
180.0
 51
221.207518
  0
ARC
  5
D7
100
AcDbEntity
  8
0
  6
Continuous
 62
   174
100
AcDbCircle
 10
397.071191
 20
245.182129
 30
0.0
 40
4.5
100
AcDbArc
 50
-358.084609
 51
-241.225923
  0
ARC
  5
D8
100
AcDbEntity
  8
0
  6
Continuous
 62
   174
100
AcDbCircle
 10
505.821191
 20
224.182129
 30
0.0
 40
22.5
100
AcDbArc
 50
0.0
 51
180.0
  0
ARC
  5
D9
100
AcDbEntity
  8
0
  6
Continuous
 62
   174
100
AcDbCircle
 10
397.071191
 20
245.182129
 30
0.0
 40
3.75
100
AcDbArc
 50
41.207518
 51
47.184479
  0
ARC
  5
DA
100
AcDbEntity
  8
0
  6
Continuous
 62
   174
100
AcDbCircle
 10
463.821191
 20
245.182129
 30
0.0
 40
3.75
100
AcDbArc
 50
138.792482
 51
180.0
  0
ARC
  5
DB
100
AcDbEntity
  8
0
  6
Continuous
 62
   174
100
AcDbCircle
 10
481.071191
 20
95.182129
 30
0.0
 40
4.5
100
AcDbArc
 50
-2.202279
 51
0.0
  0
ARC
  5
DC
100
AcDbEntity
  8
0
  6
Continuous
 62
   174
100
AcDbCircle
 10
554.571191
 20
203.182129
 30
0.0
 40
6.75
100
AcDbArc
 50
0.0
 51
180.0
  0
ARC
  5
DD
100
AcDbEntity
  8
0
  6
Continuous
 62
   174
100
AcDbCircle
 10
256.821191
 20
137.182129
 30
0.0
 40
6.75
100
AcDbArc
 50
0.0
 51
180.0
  0
ARC
  5
DE
100
AcDbEntity
  8
0
  6
Continuous
 62
   174
100
AcDbCircle
 10
481.071191
 20
95.182129
 30
0.0
 40
3.75
100
AcDbArc
 50
0.0
 51
41.207518
  0
ARC
  5
DF
100
AcDbEntity
  8
0
  6
Continuous
 62
   174
100
AcDbCircle
 10
280.821191
 20
95.182129
 30
0.0
 40
4.5
100
AcDbArc
 50
0.0
 51
1.695318
  0
LINE
  5
E0
100
AcDbEntity
  8
0
  6
Continuous
 62
   174
100
AcDbLine
 10
572.571191
 20
266.182129
 30
0.0
 11
238.821191
 21
266.182129
 31
0.0
  0
ARC
  5
E1
100
AcDbEntity
  8
0
  6
Continuous
 62
   174
100
AcDbCircle
 10
414.321191
 20
95.182129
 30
0.0
 40
3.75
100
AcDbArc
 50
132.815521
 51
138.792482
  0
LINE
  5
E2
100
AcDbEntity
  8
0
  6
HIDDEN
 62
   174
100
AcDbLine
 10
238.821191
 20
152.652693
 30
0.0
 11
238.821191
 21
187.901153
 31
0.0
  0
ARC
  5
E3
100
AcDbEntity
  8
0
  6
Continuous
 62
   174
100
AcDbCircle
 10
397.071191
 20
245.182129
 30
0.0
 40
3.75
100
AcDbArc
 50
221.207518
 51
227.184479
  0
ARC
  5
E4
100
AcDbEntity
  8
0
  6
Continuous
 62
   174
100
AcDbCircle
 10
463.821191
 20
245.182129
 30
0.0
 40
3.75
100
AcDbArc
 50
-41.207518
 51
0.0
  0
ARC
  5
E5
100
AcDbEntity
  8
0
  6
Continuous
 62
   174
100
AcDbCircle
 10
481.071191
 20
95.182129
 30
0.0
 40
3.75
100
AcDbArc
 50
180.0
 51
221.207518
  0
ARC
  5
E6
100
AcDbEntity
  8
0
  6
Continuous
 62
   174
100
AcDbCircle
 10
439.071191
 20
170.182129
 30
0.0
 40
9.0
100
AcDbArc
 50
-180.0
 51
0.0
  0
ARC
  5
E7
100
AcDbEntity
  8
0
  6
Continuous
 62
   174
100
AcDbCircle
 10
305.571191
 20
170.182129
 30
0.0
 40
9.0
100
AcDbArc
 50
0.0
 51
180.0
  0
ARC
  5
E8
100
AcDbEntity
  8
0
  6
Continuous
 62
   174
100
AcDbCircle
 10
505.821191
 20
170.182129
 30
0.0
 40
9.0
100
AcDbArc
 50
-180.0
 51
0.0
  0
ARC
  5
E9
100
AcDbEntity
  8
0
  6
Continuous
 62
   174
100
AcDbCircle
 10
372.321191
 20
170.182129
 30
0.0
 40
22.5
100
AcDbArc
 50
0.0
 51
180.0
  0
ARC
  5
EA
100
AcDbEntity
  8
0
  6
Continuous
 62
   174
100
AcDbCircle
 10
305.571191
 20
170.182129
 30
0.0
 40
22.5
100
AcDbArc
 50
-180.0
 51
0.0
  0
ARC
  5
EB
100
AcDbEntity
  8
0
  6
Continuous
 62
   174
100
AcDbCircle
 10
414.321191
 20
95.182129
 30
0.0
 40
3.75
100
AcDbArc
 50
312.815521
 51
318.792482
  0
ARC
  5
EC
100
AcDbEntity
  8
0
  6
Continuous
 62
   174
100
AcDbCircle
 10
463.821191
 20
245.182129
 30
0.0
 40
4.5
100
AcDbArc
 50
-178.084609
 51
-1.915391
  0
ARC
  5
ED
100
AcDbEntity
  8
0
  6
Continuous
 62
   174
100
AcDbCircle
 10
439.071191
 20
116.182129
 30
0.0
 40
22.5
100
AcDbArc
 50
0.0
 51
180.0
  0
ARC
  5
EE
100
AcDbEntity
  8
0
  6
Continuous
 62
   174
100
AcDbCircle
 10
505.821191
 20
116.182129
 30
0.0
 40
22.5
100
AcDbArc
 50
0.0
 51
180.0
  0
ARC
  5
EF
100
AcDbEntity
  8
0
  6
Continuous
 62
   174
100
AcDbCircle
 10
505.821191
 20
224.182129
 30
0.0
 40
22.5
100
AcDbArc
 50
-180.0
 51
0.0
  0
ARC
  5
F0
100
AcDbEntity
  8
0
  6
Continuous
 62
   174
100
AcDbCircle
 10
481.071191
 20
95.182129
 30
0.0
 40
3.75
100
AcDbArc
 50
138.792482
 51
180.0
  0
ARC
  5
F1
100
AcDbEntity
  8
0
  6
Continuous
 62
   174
100
AcDbCircle
 10
530.571191
 20
245.182129
 30
0.0
 40
4.5
100
AcDbArc
 50
-180.0
 51
-178.084609
  0
ARC
  5
F2
100
AcDbEntity
  8
0
  6
Continuous
 62
   174
100
AcDbCircle
 10
554.571191
 20
203.182129
 30
0.0
 40
6.75
100
AcDbArc
 50
-180.0
 51
0.0
  0
LINE
  5
F3
100
AcDbEntity
  8
0
  6
Continuous
 62
   174
100
AcDbLine
 10
572.571191
 20
74.182129
 30
0.0
 11
572.571191
 21
266.182129
 31
0.0
  0
ARC
  5
F4
100
AcDbEntity
  8
0
  6
Continuous
 62
   174
100
AcDbCircle
 10
397.071191
 20
245.182129
 30
0.0
 40
3.75
100
AcDbArc
 50
0.0
 51
41.207518
  0
ARC
  5
F5
100
AcDbEntity
  8
0
  6
Continuous
 62
   174
100
AcDbCircle
 10
463.821191
 20
245.182129
 30
0.0
 40
3.75
100
AcDbArc
 50
132.815521
 51
138.792482
  0
ARC
  5
F6
100
AcDbEntity
  8
0
  6
Continuous
 62
   174
100
AcDbCircle
 10
481.071191
 20
95.182129
 30
0.0
 40
3.75
100
AcDbArc
 50
-41.207518
 51
0.0
  0
ARC
  5
F7
100
AcDbEntity
  8
0
  6
Continuous
 62
   174
100
AcDbCircle
 10
481.071191
 20
95.182129
 30
0.0
 40
4.5
100
AcDbArc
 50
0.0
 51
2.202279
  0
ARC
  5
F8
100
AcDbEntity
  8
0
  6
Continuous
 62
   174
100
AcDbCircle
 10
256.821191
 20
137.182129
 30
0.0
 40
6.75
100
AcDbArc
 50
-180.0
 51
0.0
  0
ARC
  5
F9
100
AcDbEntity
  8
0
  6
Continuous
 62
   174
100
AcDbCircle
 10
280.821191
 20
95.182129
 30
0.0
 40
4.5
100
AcDbArc
 50
-358.304682
 51
-241.189941
  0
ARC
  5
FA
100
AcDbEntity
  8
0
  6
Continuous
 62
   174
100
AcDbCircle
 10
397.071191
 20
245.182129
 30
0.0
 40
3.75
100
AcDbArc
 50
180.0
 51
221.207518
  0
ARC
  5
FB
100
AcDbEntity
  8
0
  6
Continuous
 62
   174
100
AcDbCircle
 10
414.321191
 20
95.182129
 30
0.0
 40
3.75
100
AcDbArc
 50
93.702506
 51
132.815521
  0
ARC
  5
FC
100
AcDbEntity
  8
0
  6
Continuous
 62
   174
100
AcDbCircle
 10
463.821191
 20
245.182129
 30
0.0
 40
3.75
100
AcDbArc
 50
312.815521
 51
318.792482
  0
ARC
  5
FD
100
AcDbEntity
  8
0
  6
Continuous
 62
   174
100
AcDbCircle
 10
439.071191
 20
170.182129
 30
0.0
 40
9.0
100
AcDbArc
 50
0.0
 51
180.0
  0
ARC
  5
FE
100
AcDbEntity
  8
0
  6
Continuous
 62
   174
100
AcDbCircle
 10
505.821191
 20
170.182129
 30
0.0
 40
9.0
100
AcDbArc
 50
0.0
 51
180.0
  0
ARC
  5
FF
100
AcDbEntity
  8
0
  6
Continuous
 62
   174
100
AcDbCircle
 10
414.321191
 20
95.182129
 30
0.0
 40
3.75
100
AcDbArc
 50
273.702506
 51
312.815521
  0
ARC
  539.071191
 20
116.182129
 30
0.0
 40
9.0
100
AcDbArc
 50
0.0
 51
180.0
  0
ARC
  5
B6
100
AcDbEntity
  8
0
  6
Continuous
 62
   174
100
AcDbCircle
 10
372.321191
 20
224.182129
 30
0.0
 40
22.5
100
AcDbArc
 50
0.0
 51
180.0
  0
ARC
  5
B7
100
AcDbEntity
  8
0
  6
Continuous
 62
   174
100
AcDbCircle
 10
397.071191
 20
245.182129
 30
0.0
 40
3.75
100
AcDbArc
 50
266.297494
 51
273.702506
  0
ARC
  5
B8
100
AcDbEntity
  8
0
  6
Continuous
 62
   174
100
AcDbCircle
 10
463.821191
 20
245.182129
 30
0.0
 40
3.75
100
AcDbArc
 50
41.207518
 51
47.184479
  0
ARC
  5
B9
100
AcDbEntity
  8
0
  6
Continuous
 62
   174
100
AcDbCircle
 10
481.071191
 20
95.182129
 30
0.0
 40
3.75
100
AcDbArc
 50
227.184479
 51
266.297494
  0
ARC
  5
BA
100
AcDbEntity
  8
0
  6
Continuous
 62
   174
100
AcDbCircle
 10
372.321191
 20
116.182129
 30
0.0
 40
22.5
100
AcDbArc
 50
0.0
 51
180.0
  0
ARC
  5
BB
100
AcDbEntity
  8
0
  6
Continuous
 62
   174
100
AcDbCircle
 10
439.071191
 20
224.182129
 30
0.0
 40
22.5
100
AcDbArc
 50
0.0
 51
180.0
  0
ARC
  5
BC
100
AcDbEntity
  8
0
  6
Continuous
 62
   174
100
AcDbCircle
 10
414.321191
 20
95.182129
 30
0.0
 40
3.75
100
AcDbArc
 50
0.0
 51
41.207518
  0
ARC
  5
BD
100
AcDbEntity
  8
0
  6
Continuous
 62
   174
100
AcDbCircle
 10
463.821191
 20
245.182129
 30
0.0
 40
3.75
100
AcDbArc
 50
221.207518
 51
227.184479
  0
ARC
  5
BE
100
AcDbEntity
  8
0
  6
Continuous
 62
   174
100
AcDbCircle
 10
505.821191
 20
170.182129
 30
0.0
 40
22.5
100
AcDbArc
 50
-180.0
 51
0.0
  0
ARC
  5
BF
100
AcDbEntity
  8
0
  6
Continuous
 62
   174
100
AcDbCircle
 10
397.071191
 20
245.182129
 30
0.0
 40
4.5
100
AcDbArc
 50
0.0
 51
1.915391
  0
ARC
  5
C0
100
AcDbEntity
  8
0
  6
Continuous
 62
   174
100
AcDbCircle
 10
414.321191
 20
95.182129
 30
0.0
 40
3.75
100
AcDbArc
 50
180.0
 51
221.207518
  0
ARC
  5
C1
100
AcDbEntity
  8
0
  6
Continuous
 62
   174
100
AcDbCircle
 10
372.321191
 20
224.182129
 30
0.0
 40
9.0
100
AcDbArc
 50
0.0
 51
180.0
  0
ARC
  5
C2
100
AcDbEntity
  8
0
  6
Continuous
 62
   174
100
AcDbCircle
 10
256.821191
 20
203.182129
 30
0.0
 40
6.75
100
AcDbArc
 50
-180.0
 51
0.0
  0
ARC
  5
C3
100
AcDbEntity
  8
0
  6
Continuous
 62
   174
100
AcDbCircle
 10
372.321191
 20
116.182129
 30
0.0
 40
9.0
100
AcDbArc
 50
0.0
 51
180.0
  0
LINE
  5
C4
100
AcDbEntity
  8
0
  6
HIDDEN
 62
   174
100
AcDbLine
 10
238.821191
 20
218.649565
 30
0.0
 11
238.821191
 21
253.898025
 31
0.0
  0
ARC
  5
C5
100
AcDbEntity
  8
0
  6
Continuous
 62
   174
100
AcDbCircle
 10
397.071191
 20
245.182129
 30
0.0
 40
3.75
100
AcDbArc
 50
47.184479
 51
86.297494
  0
ARC
  5
C6
100
AcDbEntity
  8
0
  6
Continuous
 62
   174
100
AcDbCircle
 10
481.071191
 20
95.182129
 30
0.0
 40
3.75
100
AcDbArc
 50
41.207518
 51
47.184479
  0
ARC
  5
C7
100
AcDbEntity
  8
0
  6
Continuous
 62
   174
100
AcDbCircle
 10
481.071191
 20
95.182129
 30
0.0
 40
4.5
100
AcDbArc
 50
-177.797721
 51
-2.202279
  0
ARC
  5
C8
100
AcDbEntity
  8
0
  6
Continuous
 62
   174
100
AcDbCircle
 10
280.821191
 20
95.182129
 30
0.0
 40
4.5
100
AcDbArc
 50
-1.695318
 51
0.0
  0
ARC
  5
C9
100
AcDbEntity
  8
0
  6
Continuous
 62
   174
100
AcDbCircle
 10
505.821191
 20
116.182129
 30
0.0
 40
9.0
100
AcDbArc
 50
0.0
 51
180.0
  0
ARC
  5
CA
100
AcDbEntity
  8
0
  6
Continuous
 62
   174
100
AcDbCircle
 10
372.321191
 20
224.182129
 30
0.0
 40
22.5
100
AcDbArc
 50
-180.0
 51
0.0
  0
ARC
  5
CB
100
AcDbEntity
  8
0
  6
Continuous
 62
   174
100
AcDbCircle
 10
397.071191
 20
245.182129
 30
0.0
 40
3.75
100
AcDbArc
 50
227.184479
 51
266.297494
  0
ARC
  5
CC
100
AcDbEntity
  8
0
  6
Continuous
 62
   174
100
AcDbCircle
 10
414.321191
 20
95.182129
 30
0.0
 40
3.75
100
AcDbArc
 50
138.792482
 51
180.0
  0
ARC
  5
CD
100
AcDbEntity
  8
0
  6
Continuous
 62
   174
100
AcDbCircle
 10
463.821191
 20
245.182129
 30
0.0
 40
3.75
100
AcDbArc
 50
0.0
 51
41.207518
  0
ARC
  5
CE
100
AcDbEntity
  8
0
  6
Continuous
 62
   174
100
AcDbCircle
 10
481.071191
 20
95.182129
 30
0.0
 40
3.75
100
AcDbArc
 50
221.207518
 51
227.184479
  0
ARC
  5
CF
100
AcDbEntity
  8
0
  6
Continuous
 62
   174
100
AcDbCircle
 10
372.321191
 20
116.182129
 30
0.0
 40
22.5
100
AcDbArc
 50
-180.0
 51
0.0
  0
ARC
  5
D0
100
AcDbEntity
  8
0
  6
Continuous
 62
   174
100
AcDbCircle
 10
305.571191
 20
170.182129
 30
0.0
 40
9.0
100
AcDbArc
 50
-180.0
 51
0.0
  0
ARC
  5
D1
100
AcDbEntity
  8
0
  6
Continuous
 62
   174
100
AcDbCircle
 10
305.571191
 20
170.182129
 30
0.0
 40
22.5
100
AcDbArc
 50
0.0
 51
180.0
  0
ARC
  5
D2
100
AcDbEntity
  8
0
  6
Continuous
 62
   174
100
AcDbCircle
 10
414.321191
 20
95.182129
 30
0.0
 40
3.75
100
AcDbArc
 50
-41.207518
 51
0.0
  0
ARC
  5
D3
100
AcDbEntity
  8
0
  6
Continuous
 62
   174
100
AcDbCircle
 10
463.821191
 20
245.182129
 30
0.0
 40
4.5
100
AcDbArc
 50
-180.0
 51
-178.084609
  0
LINE
  5
D4
100
AcDbEntity
  8
0
  6
Continuous
 62
   174
100
AcDbLine
 10
238.821191
 20
266.182129
 30
0.0
 11
238.821191
 21
74.182129
 31
0.0
  0
ARC
  5
D5
100
AcDbEntity
  8
0
  6
Continuous
 62
   174
100
AcDbCircle
 10
439.071191
 20
224.182129
 30
0.0
 40
22.5
100
AcDbArc
 50
-180.0
 51
0.0
  0
ARC
  5
D6
100
AcDbEntity
  8
0
  6
Continuous
 62
   174
100
AcDbCircle
 10
463.821191
 20
245.182129
 30
0.0
 40
3.75
100
AcDbArc
 50
180.0
 51
221.207518
  0
ARC
  5
D7
100
AcDbEntity
  8
0
  6
Continuous
 62
   174
100
AcDbCircle
 10
397.071191
 20
245.182129
 30
0.0
 40
4.5
100
AcDbArc
 50
-358.084609
 51
-241.225923
  0
ARC
  5
D8
100
AcDbEntity
  8
0
  6
Continuous
 62
   174
100
AcDbCircle
 10
505.821191
 20
224.182129
 30
0.0
 40
22.5
100
AcDbArc
 50
0.0
 51
180.0
  0
ARC
  5
D9
100
AcDbEntity
  8
0
  6
Continuous
 62
   174
100
AcDbCircle
 10
397.071191
 20
245.182129
 30
0.0
 40
3.75
100
AcDbArc
 50
41.207518
 51
47.184479
  0
ARC
  5
DA
100
AcDbEntity
  8
0
  6
Continuous
 62
   174
100
AcDbCircle
 10
463.821191
 20
245.182129
 30
0.0
 40
3.75
100
AcDbArc
 50
138.792482
 51
180.0
  0
ARC
  5
DB
100
AcDbEntity
  8
0
  6
Continuous
 62
   174
100
AcDbCircle
 10
481.071191
 20
95.182129
 30
0.0
 40
4.5
100
AcDbArc
 50
-2.202279
 51
0.0
  0
ARC
  5
DC
100
AcDbEntity
  8
0
  6
Continuous
 62
   174
100
AcDbCircle
 10
554.571191
 20
203.182129
 30
0.0
 40
6.75
100
AcDbArc
 50
0.0
 51
180.0
  0
ARC
  5
DD
100
AcDbEntity
  8
0
  6
Continuous
 62
   174
100
AcDbCircle
 10
256.821191
 20
137.182129
 30
0.0
 40
6.75
100
AcDbArc
 50
0.0
 51
180.0
  0
ARC
  5
DE
100
AcDbEntity
  8
0
  6
Continuous
 62
   174
100
AcDbCircle
 10
481.071191
 20
95.182129
 30
0.0
 40
3.75
100
AcDbArc
 50
0.0
 51
41.207518
  0
ARC
  5
DF
100
AcDbEntity
  8
0
  6
Continuous
 62
   174
100
AcDbCircle
 10
280.821191
 20
95.182129
 30
0.0
 40
4.5
100
AcDbArc
 50
0.0
 51
1.695318
  0
LINE
  5
E0
100
AcDbEntity
  8
0
  6
Continuous
 62
   174
100
AcDbLine
 10
572.571191
 20
266.182129
 30
0.0
 11
238.821191
 21
266.182129
 31
0.0
  0
ARC
  5
E1
100
AcDbEntity
  8
0
  6
Continuous
 62
   174
100
AcDbCircle
 10
414.321191
 20
95.182129
 30
0.0
 40
3.75
100
AcDbArc
 50
132.815521
 51
138.792482
  0
LINE
  5
E2
100
AcDbEntity
  8
0
  6
HIDDEN
 62
   174
100
AcDbLine
 10
238.821191
 20
152.652693
 30
0.0
 11
238.821191
 21
187.901153
 31
0.0
  0
ARC
  5
E3
100
AcDbEntity
  8
0
  6
Continuous
 62
   174
100
AcDbCircle
 10
397.071191
 20
245.182129
 30
0.0
 40
3.75
100
AcDbArc
 50
221.207518
 51
227.184479
  0
ARC
  5
E4
100
AcDbEntity
  8
0
  6
Continuous
 62
   174
100
AcDbCircle
 10
463.821191
 20
245.182129
 30
0.0
 40
3.75
100
AcDbArc
 50
-41.207518
 51
0.0
  0
ARC
  5
E5
100
AcDbEntity
  8
0
  6
Continuous
 62
   174
100
AcDbCircle
 10
481.071191
 20
95.182129
 30
0.0
 40
3.75
100
AcDbArc
 50
180.0
 51
221.207518
  0
ARC
  5
E6
100
AcDbEntity
  8
0
  6
Continuous
 62
   174
100
AcDbCircle
 10
439.071191
 20
170.182129
 30
0.0
 40
9.0
100
AcDbArc
 50
-180.0
 51
0.0
  0
ARC
  5
E7
100
AcDbEntity
  8
0
  6
Continuous
 62
   174
100
AcDbCircle
 10
305.571191
 20
170.182129
 30
0.0
 40
9.0
100
AcDbArc
 50
0.0
 51
180.0
  0
ARC
  5
E8
100
AcDbEntity
  8
0
  6
Continuous
 62
   174
100
AcDbCircle
 10
505.821191
 20
170.182129
 30
0.0
 40
9.0
100
AcDbArc
 50
-180.0
 51
0.0
  0
ARC
  5
E9
100
AcDbEntity
  8
0
  6
Continuous
 62
   174
100
AcDbCircle
 10
372.321191
 20
170.182129
 30
0.0
 40
22.5
100
AcDbArc
 50
0.0
 51
180.0
  0
ARC
  5
EA
100
AcDbEntity
  8
0
  6
Continuous
 62
   174
100
AcDbCircle
 10
305.571191
 20
170.182129
 30
0.0
 40
22.5
100
AcDbArc
 50
-180.0
 51
0.0
  0
ARC
  5
EB
100
AcDbEntity
  8
0
  6
Continuous
 62
   174
100
AcDbCircle
 10
414.321191
 20
95.182129
 30
0.0
 40
3.75
100
AcDbArc
 50
312.815521
 51
318.792482
  0
ARC
  5
EC
100
AcDbEntity
  8
0
  6
Continuous
 62
   174
100
AcDbCircle
 10
463.821191
 20
245.182129
 30
0.0
 40
4.5
100
AcDbArc
 50
-178.084609
 51
-1.915391
  0
ARC
  5
ED
100
AcDbEntity
  8
0
  6
Continuous
 62
   174
100
AcDbCircle
 10
439.071191
 20
116.182129
 30
0.0
 40
22.5
100
AcDbArc
 50
0.0
 51
180.0
  0
ARC
  5
EE
100
AcDbEntity
  8
0
  6
Continuous
 62
   174
100
AcDbCircle
 10
505.821191
 20
116.182129
 30
0.0
 40
22.5
100
AcDbArc
 50
0.0
 51
180.0
  0
ARC
  5
EF
100
AcDbEntity
  8
0
  6
Continuous
 62
   174
100
AcDbCircle
 10
505.821191
 20
224.182129
 30
0.0
 40
22.5
100
AcDbArc
 50
-180.0
 51
0.0
  0
ARC
  5
F0
100
AcDbEntity
  8
0
  6
Continuous
 62
   174
100
AcDbCircle
 10
481.071191
 20
95.182129
 30
0.0
 40
3.75
100
AcDbArc
 50
138.792482
 51
180.0
  0
ARC
  5
F1
100
AcDbEntity
  8
0
  6
Continuous
 62
   174
100
AcDbCircle
 10
530.571191
 20
245.182129
 30
0.0
 40
4.5
100
AcDbArc
 50
-180.0
 51
-178.084609
  0
ARC
  5
F2
100
AcDbEntity
  8
0
  6
Continuous
 62
   174
100
AcDbCircle
 10
554.571191
 20
203.182129
 30
0.0
 40
6.75
100
AcDbArc
 50
-180.0
 51
0.0
  0
LINE
  5
F3
100
AcDbEntity
  8
0
  6
Continuous
 62
   174
100
AcDbLine
 10
572.571191
 20
74.182129
 30
0.0
 11
572.571191
 21
266.182129
 31
0.0
  0
ARC
  5
F4
100
AcDbEntity
  8
0
  6
Continuous
 62
   174
100
AcDbCircle
 10
397.071191
 20
245.182129
 30
0.0
 40
3.75
100
AcDbArc
 50
0.0
 51
41.207518
  0
ARC
  5
F5
100
AcDbEntity
  8
0
  6
Continuous
 62
   174
100
AcDbCircle
 10
463.821191
 20
245.182129
 30
0.0
 40
3.75
100
AcDbArc
 50
132.815521
 51
138.792482
  0
ARC
  5
F6
100
AcDbEntity
  8
0
  6
Continuous
 62
   174
100
AcDbCircle
 10
481.071191
 20
95.182129
 30
0.0
 40
3.75
100
AcDbArc
 50
-41.207518
 51
0.0
  0
ARC
  5
F7
100
AcDbEntity
  8
0
  6
Continuous
 62
   174
100
AcDbCircle
 10
481.071191
 20
95.182129
 30
0.0
 40
4.5
100
AcDbArc
 50
0.0
 51
2.202279
  0
ARC
  5
F8
100
AcDbEntity
  8
0
  6
Continuous
 62
   174
100
AcDbCircle
 10
256.821191
 20
137.182129
 30
0.0
 40
6.75
100
AcDbArc
 50
-180.0
 51
0.0
  0
ARC
  5
F9
100
AcDbEntity
  8
0
  6
Continuous
 62
   174
100
AcDbCircle
 10
280.821191
 20
95.182129
 30
0.0
 40
4.5
100
AcDbArc
 50
-358.304682
 51
-241.189941
  0
ARC
  5
FA
100
AcDbEntity
  8
0
  6
Continuous
 62
   174
100
AcDbCircle
 10
397.071191
 20
245.182129
 30
0.0
 40
3.75
100
AcDbArc
 50
180.0
 51
221.207518
  0
ARC
  5
FB
100
AcDbEntity
  8
0
  6
Continuous
 62
   174
100
AcDbCircle
 10
414.321191
 20
95.182129
 30
0.0
 40
3.75
100
AcDbArc
 50
93.702506
 51
132.815521
  0
ARC
  5
FC
100
AcDbEntity
  8
0
  6
Continuous
 62
   174
100
AcDbCircle
 10
463.821191
 20
245.182129
 30
0.0
 40
3.75
100
AcDbArc
 50
312.815521
 51
318.792482
  0
ARC
  5
FD
100
AcDbEntity
  8
0
  6
Continuous
 62
   174
100
AcDbCircle
 10
439.071191
 20
170.182129
 30
0.0
 40
9.0
100
AcDbArc
 50
0.0
 51
180.0
  0
ARC
  5
FE
100
AcDbEntity
  8
0
  6
Continuous
 62
   174
100
AcDbCircle
 10
505.821191
 20
170.182129
 30
0.0
 40
9.0
100
AcDbArc
 50
0.0
 51
180.0
  0
ARC
  5
FF
100
AcDbEntity
  8
0
  6
Continuous
 62
   174
100
AcDbCircle
 10
414.321191
 20
95.182129
 30
0.0
 40
3.75
100
AcDbArc
 50
273.702506
 51
312.815521
  0
ARC
  5
100
100
AcDbEntity
  8
0
  6
Continuous
 62
   174
100
AcDbCircle
 10
463.821191
 20
245.182129
 30
0.0
 40
4.5
100
AcDbArc
 50
-1.915391
 51
0.0
  0
ARC
  5
101
100
AcDbEntity
  8
0
  6
Continuous
 62
   174
100
AcDbCircle
 10
372.321191
 20
170.182129
 30
0.0
 40
22.5
100
AcDbArc
 50
-180.0
 51
0.0
  0
ARC
  5
102
100
AcDbEntity
  8
0
  6
Continuous
 62
   174
100
AcDbCircle
 10
305.571191
 20
224.182129
 30
0.0
 40
9.0
100
AcDbArc
 50
-180.0
 51
0.0
  0
ARC
  5
103
100
AcDbEntity
  8
0
  6
Continuous
 62
   174
100
AcDbCircle
 10
530.571191
 20
245.182129
 30
0.0
 40
3.75
100
AcDbArc
 50
0.0
 51
180.0
  0
ARC
  5
104
100
AcDbEntity
  8
0
  6
Continuous
 62
   174
100
AcDbCircle
 10
305.571191
 20
224.182129
 30
0.0
 40
22.5
100
AcDbArc
 50
0.0
 51
180.0
  0
ARC
  5
105
100
AcDbEntity
  8
0
  6
Continuous
 62
   174
100
AcDbCircle
 10
439.071191
 20
116.182129
 30
0.0
 40
22.5
100
AcDbArc
 50
-180.0
 51
0.0
  0
ARC
  5
106
100
AcDbEntity
  8
0
  6
Continuous
 62
   174
100
AcDbCircle
 10
505.821191
 20
116.182129
 30
0.0
 40
22.5
100
AcDbArc
 50
-180.0
 51
0.0
  0
ARC
  5
107
100
AcDbEntity
  8
0
  6
Continuous
 62
   174
100
AcDbCircle
 10
397.071191
 20
245.182129
 30
0.0
 40
3.75
100
AcDbArc
 50
138.792482
 51
180.0
  0
ARC
  5
108
100
AcDbEntity
  8
0
  6
Continuous
 62
   174
100
AcDbCircle
 10
481.071191
 20
95.182129
 30
0.0
 40
3.75
100
AcDbArc
 50
132.815521
 51
138.792482
  0
ARC
  5
109
100
AcDbEntity
  8
0
  6
Continuous
 62
   174
100
AcDbCircle
 10
530.571191
 20
245.182129
 30
0.0
 40
4.5
100
AcDbArc
 50
-178.084609
 51
-1.915391
  0
LINE
  5
10A
100
AcDbEntity
  8
0
  6
Continuous
 62
   174
100
AcDbLine
 10
238.821191
 20
74.182129
 30
0.0
 11
572.571191
 21
74.182129
 31
0.0
  0
ARC
  5
10B
100
AcDbEntity
  8
0
  6
Continuous
 62
   174
100
AcDbCircle
 10
397.071191
 20
245.182129
 30
0.0
 40
3.75
100
AcDbArc
 50
-41.207518
 51
0.0
  0
ARC
  5
10C
100
AcDbEntity
  8
0
  6
Continuous
 62
   174
100
AcDbCircle
 10
463.821191
 20
245.182129
 30
0.0
 40
3.75
100
AcDbArc
 50
93.702506
 51
132.815521
  0
ARC
  5
10D
100
AcDbEntity
  8
0
  6
Continuous
 62
   174
100
AcDbCircle
 10
481.071191
 20
95.182129
 30
0.0
 40
4.5
100
AcDbArc
 50
-357.797721
 51
-241.175158
  0
LINE
  5
10E
100
AcDbEntity
  8
0
  6
HIDDEN
 62
   174
100
AcDbLine
 10
268.821191
 20
187.901153
 30
0.0
 11
268.821191
 21
152.652693
 31
0.0
  0
ARC
  5
10F
100
AcDbEntity
  8
0
  6
Continuous
 62
   174
100
AcDbCircle
 10
481.071191
 20
95.182129
 30
0.0
 40
3.75
100
AcDbArc
 50
312.815521
 51
318.792482
  0
ARC
  5
110
100
AcDbEntity
  8
0
  6
Continuous
 62
   174
100
AcDbCircle
 10
414.321191
 20
95.182129
 30
0.0
 40
3.75
100
AcDbArc
 50
86.297494
 51
93.702506
  0
ARC
  5
111
100
AcDbEntity
  8
0
  6
Continuous
 62
   174
100
AcDbCircle
 10
554.571191
 20
137.182129
 30
0.0
 40
6.75
100
AcDbArc
 50
0.0
 51
180.0
  0
ARC
  5
112
100
AcDbEntity
  8
0
  6
Continuous
 62
   174
100
AcDbCircle
 10
463.821191
 20
245.182129
 30
0.0
 40
3.75
100
AcDbArc
 50
273.702506
 51
312.815521
  0
ARC
  5
113
100
AcDbEntity
  8
0
  6
Continuous
 62
   174
100
AcDbCircle
 10
372.321191
 20
170.182129
 30
0.0
 40
9.0
100
AcDbArc
 50
-180.0
 51
0.0
  0
ARC
  5
114
100
AcDbEntity
  8
0
  6
Continuous
 62
   174
100
AcDbCircle
 10
347.571191
 20
95.182129
 30
0.0
 40
3.75
100
AcDbArc
 50
0.0
 51
180.0
  0
ARC
  5
115
100
AcDbEntity
  8
0
  6
Continuous
 62
   174
100
AcDbCircle
 10
414.321191
 20
95.182129
 30
0.0
 40
3.75
100
AcDbArc
 50
266.297494
 51
273.702506
  0
ARC
  5
116
100
AcDbEntity
  8
0
  6
Continuous
 62
   174
100
AcDbCircle
 10
463.821191
 20
245.182129
 30
0.0
 40
4.5
100
AcDbArc
 50
0.0
 51
1.915391
  0
ARC
  5
117
100
AcDbEntity
  8
0
  6
Continuous
 62
   174
100
AcDbCircle
 10
305.571191
 20
224.182129
 30
0.0
 40
9.0
100
AcDbArc
 50
0.0
 51
180.0
  0
ARC
  5
118
100
AcDbEntity
  8
0
  6
Continuous
 62
   174
100
AcDbCircle
 10
530.571191
 20
245.182129
 30
0.0
 40
3.75
100
AcDbArc
 50
-180.0
 51
0.0
  0
ARC
  5
119
100
AcDbEntity
  8
0
  6
Continuous
 62
   174
100
AcDbCircle
 10
439.071191
 20
224.182129
 30
0.0
 40
9.0
100
AcDbArc
 50
-180.0
 51
0.0
  0
ARC
  5
11A
100
AcDbEntity
  8
0
  6
Continuous
 62
   174
100
AcDbCircle
 10
505.821191
 20
224.182129
 30
0.0
 40
9.0
100
AcDbArc
 50
-180.0
 51
0.0
  0
ARC
  5
11B
100
AcDbEntity
  8
0
  6
Continuous
 62
   174
100
AcDbCircle
 10
305.571191
 20
224.182129
 30
0.0
 40
22.5
100
AcDbArc
 50
-180.0
 51
0.0
  0
ARC
  5
11C
100
AcDbEntity
  8
0
  6
Continuous
 62
   174
100
AcDbCircle
 10
397.071191
 20
245.182129
 30
0.0
 40
3.75
100
AcDbArc
 50
132.815521
 51
138.792482
  0
LINE
  5
11D
100
AcDbEntity
  8
0
  6
HIDDEN
 62
   174
100
AcDbLine
 10
268.821191
 20
121.90428
 30
0.0
 11
268.821191
 21
86.655821
 31
0.0
  0
ARC
  5
11E
100
AcDbEntity
  8
0
  6
Continuous
 62
   174
100
AcDbCircle
 10
481.071191
 20
95.182129
 30
0.0
 40
3.75
100
AcDbArc
 50
93.702506
 51
132.815521
  0
ARC
  5
11F
100
AcDbEntity
  8
0
  6
Continuous
 62
   174
100
AcDbCircle
 10
530.571191
 20
245.182129
 30
0.0
 40
4.5
100
AcDbArc
 50
-1.915391
 51
0.0
  0
ARC
  5
120
100
AcDbEntity
  8
0
  6
Continuous
 62
   174
100
AcDbCircle
 10
439.071191
 20
170.182129
 30
0.0
 40
22.5
100
AcDbArc
 50
0.0
 51
180.0
  0
LINE
  5
121
100
AcDbEntity
  8
0
  6
HIDDEN
 62
   174
100
AcDbLine
 10
268.821191
 20
253.898025
 30
0.0
 11
268.821191
 21
218.649565
 31
0.0
  0
ARC
  5
122
100
AcDbEntity
  8
0
  6
Continuous
 62
   174
100
AcDbCircle
 10
397.071191
 20
245.182129
 30
0.0
 40
3.75
100
AcDbArc
 50
312.815521
 51
318.792482
  0
ARC
  5
123
100
AcDbEntity
  8
0
  6
Continuous
 62
   174
100
AcDbCircle
 10
463.821191
 20
245.182129
 30
0.0
 40
3.75
100
AcDbArc
 50
86.297494
 51
93.702506
  0
ARC
  5
124
100
AcDbEntity
  8
0
  6
Continuous
 62
   174
100
AcDbCircle
 10
481.071191
 20
95.182129
 30
0.0
 40
3.75
100
AcDbArc
 50
273.702506
 51
312.815521
  0
ARC
  5
125
100
AcDbEntity
  8
0
  6
Continuous
 62
   174
100
AcDbCircle
 10
414.321191
 20
95.182129
 30
0.0
 40
3.75
100
AcDbArc
 50
47.184479
 51
86.297494
  0
ARC
  5
126
100
AcDbEntity
  8
0
  6
Continuous
 62
   174
100
AcDbCircle
 10
463.821191
 20
245.182129
 30
0.0
 40
3.75
100
AcDbArc
 50
266.297494
 51
273.702506
  0
ARC
  5
127
100
AcDbEntity
  8
0
  6
Continuous
 62
   174
100
AcDbCircle
 10
554.571191
 20
137.182129
 30
0.0
 40
6.75
100
AcDbArc
 50
-180.0
 51
0.0
  0
ARC
  5
128
100
AcDbEntity
  8
0
  6
Continuous
 62
   174
100
AcDbCircle
 10
372.321191
 20
170.182129
 30
0.0
 40
9.0
100
AcDbArc
 50
0.0
 51
180.0
  0
LINE
  5
129
100
AcDbEntity
  8
0
  6
HIDDEN
 62
   174
100
AcDbLine
 10
238.821191
 20
86.655821
 30
0.0
 11
238.821191
 21
121.90428
 31
0.0
  0
ARC
  5
12A
100
AcDbEntity
  8
0
  6
Continuous
 62
   174
100
AcDbCircle
 10
397.071191
 20
245.182129
 30
0.0
 40
4.5
100
AcDbArc
 50
-178.084609
 51
-1.915391
  0
ARC
  5
12B
100
AcDbEntity
  8
0
  6
Continuous
 62
   174
100
AcDbCircle
 10
414.321191
 20
95.182129
 30
0.0
 40
3.75
100
AcDbArc
 50
227.184479
 51
266.297494
  0
ARC
  5
12C
100
AcDbEntity
  8
0
  6
Continuous
 62
   174
100
AcDbCircle
 10
463.821191
 20
245.182129
 30
0.0
 40
4.5
100
AcDbArc
 50
-358.084609
 51
-241.225923
  0
ARC
  5
12D
100
AcDbEntity
  8
0
  6
Continuous
 62
   174
100
AcDbCircle
 10
347.571191
 20
95.182129
 30
0.0
 40
3.75
100
AcDbArc
 50
-180.0
 51
0.0
  0
ARC
  5
12E
100
AcDbEntity
  8
0
  6
Continuous
 62
   174
100
AcDbCircle
 10
439.071191
 20
224.182129
 30
0.0
 40
9.0
100
AcDbArc
 50
0.0
 51
180.0
  0
ARC
  5
12F
100
AcDbEntity
  8
0
  6
Continuous
 62
   174
100
AcDbCircle
 10
505.821191
 20
224.182129
 30
0.0
 40
9.0
100
AcDbArc
 50
0.0
 51
180.0
  0
ARC
  5
130
100
AcDbEntity
  8
0
  6
Continuous
 62
   174
100
AcDbCircle
 10
397.071191
 20
245.182129
 30
0.0
 40
3.75
100
AcDbArc
 50
93.702506
 51
132.815521
  0
ARC
  5
131
100
AcDbEntity
  8
0
  6
Continuous
 62
   174
100
AcDbCircle
 10
481.071191
 20
95.182129
 30
0.0
 40
3.75
100
AcDbArc
 50
86.297494
 51
93.702506
  0
ENDBLK
  5
132
100
AcDbEntity
  8
0
100
AcDbBlockEnd
  0
BLOCK
  5
135
100
AcDbEntity
  8
0
100
AcDbBlockBegin
  2
*B2
 70
     0
 10
0.0
 20
0.0
 30
0.0
  3
*B2
  1

  0
LINE
  5
136
100
AcDbEntity
  8
0
  6
HIDDEN
 62
   174
100
AcDbLine
 10
334.071191
 20
418.614449
 30
0.0
 11
334.071191
 21
419.364449
 31
0.0
  0
LINE
  5
137
100
AcDbEntity
  8
0
  6
HIDDEN
 62
   174
100
AcDbLine
 10
325.821191
 20
418.614449
 30
0.0
 11
325.821191
 21
419.364449
 31
0.0
  0
LINE
  5
138
100
AcDbEntity
  8
0
  6
HIDDEN
 62
   174
100
AcDbLine
 10
334.821191
 20
418.614449
 30
0.0
 11
334.821191
 21
419.364449
 31
0.0
  0
LINE
  5
139
100
AcDbEntity
  8
0
  6
HIDDEN
 62
   174
100
AcDbLine
 10
325.821191
 20
418.614449
 30
0.0
 11
325.821191
 21
419.364449
 31
0.0
  0
LINE
  5
13A
100
AcDbEntity
  8
0
  6
HIDDEN
 62
   174
100
AcDbLine
 10
334.800812
 20
418.614449
 30
0.0
 11
325.801321
 21
418.614449
 31
0.0
  0
LINE
  5
13B
100
AcDbEntity
  8
0
  6
HIDDEN
 62
   174
100
AcDbLine
 10
334.800812
 20
419.364449
 30
0.0
 11
325.801321
 21
419.364449
 31
0.0
  0
LINE
  5
13C
100
AcDbEntity
  8
0
  6
HIDDEN
 62
   174
100
AcDbLine
 10
334.821191
 20
418.614449
 30
0.0
 11
334.821191
 21
419.364449
 31
0.0
  0
LINE
  5
13D
100
AcDbEntity
  8
0
  6
HIDDEN
 62
   174
100
AcDbLine
 10
334.071191
 20
419.364449
 30
0.0
 11
334.071191
 21
418.614449
 31
0.0
  0
LINE
  5
13E
100
AcDbEntity
  8
0
  6
HIDDEN
 62
   174
100
AcDbLine
 10
326.571191
 20
419.364449
 30
0.0
 11
326.571191
 21
418.614449
 31
0.0
  0
LINE
  5
13F
100
AcDbEntity
  8
0
  6
HIDDEN
 62
   174
100
AcDbLine
 10
334.071191
 20
419.364449
 30
0.0
 11
334.071191
 21
418.614449
 31
0.0
  0
LINE
  5
140
100
AcDbEntity
  8
0
  6
HIDDEN
 62
   174
100
AcDbLine
 10
326.571191
 20
419.364449
 30
0.0
 11
326.571191
 21
418.614449
 31
0.0
  0
LINE
  5
141
100
AcDbEntity
  8
0
  6
HIDDEN
 62
   174
100
AcDbLine
 10
326.571191
 20
418.614449
 30
0.0
 11
326.571191
 21
419.364449
 31
0.0
  0
LINE
  5
142
100
AcDbEntity
  8
0
  6
HIDDEN
 62
   174
100
AcDbLine
 10
334.071191
 20
418.614449
 30
0.0
 11
334.071191
 21
419.364449
 31
0.0
  0
LINE
  5
143
100
AcDbEntity
  8
0
  6
HIDDEN
 62
   174
100
AcDbLine
 10
430.071191
 20
418.614449
 30
0.0
 11
430.071191
 21
417.864449
 31
0.0
  0
LINE
  5
144
100
AcDbEntity
  8
0
  6
HIDDEN
 62
   174
100
AcDbLine
 10
548.571191
 20
389.449218
 30
0.0
 11
548.571191
 21
409.188427
 31
0.0
  0
LINE
  5
145
100
AcDbEntity
  8
0
  6
HIDDEN
 62
   174
100
AcDbLine
 10
572.571191
 20
389.449218
 30
0.0
 11
572.571191
 21
409.188427
 31
0.0
  0
LINE
  5
146
100
AcDbEntity
  8
0
  6
HIDDEN
 62
   174
100
AcDbLine
 10
542.571191
 20
389.449218
 30
0.0
 11
542.571191
 21
371.824988
 31
0.0
  0
LINE
  5
147
100
AcDbEntity
  8
0
  6
HIDDEN
 62
   174
100
AcDbLine
 10
542.571191
 20
389.449218
 30
0.0
 11
542.571191
 21
407.073448
 31
0.0
  0
LINE
  5
148
100
AcDbEntity
  8
0
  6
HIDDEN
 62
   174
100
AcDbLine
 10
548.571191
 20
389.449218
 30
0.0
 11
548.571191
 21
409.188427
 31
0.0
  0
LINE
  5
149
100
AcDbEntity
  8
0
  6
HIDDEN
 62
   174
100
AcDbLine
 10
262.821191
 20
371.739449
 30
0.0
 11
238.821191
 21
371.739449
 31
0.0
  0
LINE
  5
14A
100
AcDbEntity
  8
0
  6
HIDDEN
 62
   174
100
AcDbLine
 10
409.821191
 20
418.614449
 30
0.0
 11
409.821191
 21
419.364449
 31
0.0
  0
LINE
  5
14B
100
AcDbEntity
  8
0
  6
HIDDEN
 62
   174
100
AcDbLine
 10
410.571191
 20
419.364449
 30
0.0
 11
410.571191
 21
418.614449
 31
0.0
  0
LINE
  5
14C
100
AcDbEntity
  8
0
  6
HIDDEN
 62
   174
100
AcDbLine
 10
363.298901
 20
417.864449
 30
0.0
 11
381.297884
 21
417.864449
 31
0.0
  0
LINE
  5
14D
100
AcDbEntity
  8
0
  6
HIDDEN
 62
   174
100
AcDbLine
 10
363.321191
 20
418.614449
 30
0.0
 11
363.321191
 21
417.864449
 31
0.0
  0
LINE
  5
14E
100
AcDbEntity
  8
0
  6
HIDDEN
 62
   174
100
AcDbLine
 10
363.321191
 20
418.614449
 30
0.0
 11
363.321191
 21
417.864449
 31
0.0
  0
LINE
  5
14F
100
AcDbEntity
  8
0
  6
HIDDEN
 62
   174
100
AcDbLine
 10
448.071191
 20
418.614449
 30
0.0
 11
448.071191
 21
417.864449
 31
0.0
  0
LINE
  5
150
100
AcDbEntity
  8
0
  6
HIDDEN
 62
   174
100
AcDbLine
 10
548.571191
 20
369.624449
 30
0.0
 11
572.571191
 21
369.624449
 31
0.0
  0
LINE
  5
151
100
AcDbEntity
  8
0
  6
HIDDEN
 62
   174
100
AcDbLine
 10
572.571191
 20
406.989449
 30
0.0
 11
542.571191
 21
406.989449
 31
0.0
  0
LINE
  5
152
100
AcDbEntity
  8
0
  6
HIDDEN
 62
   174
100
AcDbLine
 10
448.071191
 20
418.614449
 30
0.0
 11
448.071191
 21
417.864449
 31
0.0
  0
LINE
  5
153
100
AcDbEntity
  8
0
  6
HIDDEN
 62
   174
100
AcDbLine
 10
572.571191
 20
371.739449
 30
0.0
 11
542.571191
 21
371.739449
 31
0.0
  0
LINE
  5
154
100
AcDbEntity
  8
0
  6
HIDDEN
 62
   174
100
AcDbLine
 10
262.821191
 20
409.104449
 30
0.0
 11
238.821191
 21
409.104449
 31
0.0
  0
LINE
  5
155
100
AcDbEntity
  8
0
  6
HIDDEN
 62
   174
100
AcDbLine
 10
262.821191
 20
406.989449
 30
0.0
 11
238.821191
 21
406.989449
 31
0.0
  0
LINE
  5
156
100
AcDbEntity
  8
0
  6
HIDDEN
 62
   174
100
AcDbLine
 10
262.821191
 20
409.188427
 30
0.0
 11
262.821191
 21
389.449218
 31
0.0
  0
LINE
  5
157
100
AcDbEntity
  8
0
  6
HIDDEN
 62
   174
100
AcDbLine
 10
514.821191
 20
418.614449
 30
0.0
 11
514.821191
 21
417.864449
 31
0.0
  0
LINE
  5
158
100
AcDbEntity
  8
0
  6
HIDDEN
 62
   174
100
AcDbLine
 10
572.571191
 20
407.073448
 30
0.0
 11
572.571191
 21
389.449218
 31
0.0
  0
LINE
  5
159
100
AcDbEntity
  8
0
  6
HIDDEN
 62
   174
100
AcDbLine
 10
448.071191
 20
418.614449
 30
0.0
 11
448.071191
 21
417.864449
 31
0.0
  0
LINE
  5
15A
100
AcDbEntity
  8
0
  6
HIDDEN
 62
   174
100
AcDbLine
 10
548.571191
 20
409.104449
 30
0.0
 11
572.571191
 21
409.104449
 31
0.0
  0
LINE
  5
15B
100
AcDbEntity
  8
0
  6
HIDDEN
 62
   174
100
AcDbLine
 10
262.821191
 20
406.989449
 30
0.0
 11
238.821191
 21
406.989449
 31
0.0
  0
LINE
  5
15C
100
AcDbEntity
  8
0
  6
HIDDEN
 62
   174
100
AcDbLine
 10
572.571191
 20
389.449218
 30
0.0
 11
572.571191
 21
371.824988
 31
0.0
  0
LINE
  5
15D
100
AcDbEntity
  8
0
  6
HIDDEN
 62
   174
100
AcDbLine
 10
514.821191
 20
418.614449
 30
0.0
 11
514.821191
 21
417.864449
 31
0.0
  0
LINE
  5
15E
100
AcDbEntity
  8
0
  6
HIDDEN
 62
   174
100
AcDbLine
 10
496.791057
 20
417.864449
 30
0.0
 11
514.789438
 21
417.864449
 31
0.0
  0
LINE
  5
15F
100
AcDbEntity
  8
0
  6
HIDDEN
 62
   174
100
AcDbLine
 10
418.071191
 20
419.364449
 30
0.0
 11
418.071191
 21
418.614449
 31
0.0
  0
LINE
  5
160
100
AcDbEntity
  8
0
  6
HIDDEN
 62
   174
100
AcDbLine
 10
326.551429
 20
419.364449
 30
0.0
 11
327.972243
 21
419.364449
 31
0.0
  0
LINE
  5
161
100
AcDbEntity
  8
0
  6
HIDDEN
 62
   174
100
AcDbLine
 10
381.321191
 20
418.614449
 30
0.0
 11
381.321191
 21
417.864449
 31
0.0
  0
LINE
  5
162
100
AcDbEntity
  8
0
  6
HIDDEN
 62
   174
100
AcDbLine
 10
430.044678
 20
417.864449
 30
0.0
 11
448.043661
 21
417.864449
 31
0.0
  0
LINE
  5
163
100
AcDbEntity
  8
0
  6
HIDDEN
 62
   174
100
AcDbLine
 10
572.571191
 20
371.739449
 30
0.0
 11
542.571191
 21
371.739449
 31
0.0
  0
LINE
  5
164
100
AcDbEntity
  8
0
  6
HIDDEN
 62
   174
100
AcDbLine
 10
430.071191
 20
418.614449
 30
0.0
 11
430.071191
 21
417.864449
 31
0.0
  0
LINE
  5
165
100
AcDbEntity
  8
0
  6
HIDDEN
 62
   174
100
AcDbLine
 10
572.571191
 20
369.710009
 30
0.0
 11
572.571191
 21
389.449218
 31
0.0
  0
LINE
  5
166
100
AcDbEntity
  8
0
  6
HIDDEN
 62
   174
100
AcDbLine
 10
430.044678
 20
417.864449
 30
0.0
 11
448.043661
 21
417.864449
 31
0.0
  0
LINE
  5
167
100
AcDbEntity
  8
0
  6
HIDDEN
 62
   174
100
AcDbLine
 10
262.821191
 20
409.188427
 30
0.0
 11
262.821191
 21
389.449218
 31
0.0
  0
LINE
  5
168
100
AcDbEntity
  8
0
  6
HIDDEN
 62
   174
100
AcDbLine
 10
262.821191
 20
369.624449
 30
0.0
 11
238.821191
 21
369.624449
 31
0.0
  0
LINE
  5
169
100
AcDbEntity
  8
0
  6
HIDDEN
 62
   174
100
AcDbLine
 10
238.821191
 20
406.989449
 30
0.0
 11
268.821191
 21
406.989449
 31
0.0
  0
LINE
  5
16A
100
AcDbEntity
  8
0
  6
HIDDEN
 62
   174
100
AcDbLine
 10
496.821191
 20
418.614449
 30
0.0
 11
496.821191
 21
417.864449
 31
0.0
  0
LINE
  5
16B
100
AcDbEntity
  8
0
  6
HIDDEN
 62
   174
100
AcDbLine
 10
496.791057
 20
417.864449
 30
0.0
 11
514.789438
 21
417.864449
 31
0.0
  0
LINE
  5
16C
100
AcDbEntity
  8
0
  6
HIDDEN
 62
   174
100
AcDbLine
 10
496.821191
 20
418.614449
 30
0.0
 11
496.821191
 21
417.864449
 31
0.0
  0
LINE
  5
16D
100
AcDbEntity
  8
0
  6
HIDDEN
 62
   174
100
AcDbLine
 10
277.054527
 20
419.364449
 30
0.0
 11
284.553802
 21
419.364449
 31
0.0
  0
LINE
  5
16E
100
AcDbEntity
  8
0
  6
HIDDEN
 62
   174
100
AcDbLine
 10
381.321191
 20
418.614449
 30
0.0
 11
381.321191
 21
417.864449
 31
0.0
  0
LINE
  5
16F
100
AcDbEntity
  8
0
  6
HIDDEN
 62
   174
100
AcDbLine
 10
363.298901
 20
417.864449
 30
0.0
 11
381.297884
 21
417.864449
 31
0.0
  0
LINE
  5
170
100
AcDbEntity
  8
0
  6
HIDDEN
 62
   174
100
AcDbLine
 10
430.071191
 20
418.614449
 30
0.0
 11
430.071191
 21
417.864449
 31
0.0
  0
LINE
  5
171
100
AcDbEntity
  8
0
  6
HIDDEN
 62
   174
100
AcDbLine
 10
430.044678
 20
417.864449
 30
0.0
 11
448.043661
 21
417.864449
 31
0.0
  0
LINE
  5
172
100
AcDbEntity
  8
0
  6
HIDDEN
 62
   174
100
AcDbLine
 10
430.071191
 20
418.614449
 30
0.0
 11
430.071191
 21
417.864449
 31
0.0
  0
LINE
  5
173
100
AcDbEntity
  8
0
  6
HIDDEN
 62
   174
100
AcDbLine
 10
548.571191
 20
369.710009
 30
0.0
 11
548.571191
 21
389.449218
 31
0.0
  0
LINE
  5
174
100
AcDbEntity
  8
0
  6
HIDDEN
 62
   174
100
AcDbLine
 10
238.821191
 20
409.188427
 30
0.0
 11
238.821191
 21
389.449218
 31
0.0
  0
LINE
  5
175
100
AcDbEntity
  8
0
  6
HIDDEN
 62
   174
100
AcDbLine
 10
572.571191
 20
407.073448
 30
0.0
 11
572.571191
 21
389.449218
 31
0.0
  0
LINE
  5
176
100
AcDbEntity
  8
0
  6
HIDDEN
 62
   174
100
AcDbLine
 10
496.821191
 20
418.614449
 30
0.0
 11
496.821191
 21
417.864449
 31
0.0
  0
LINE
  5
177
100
AcDbEntity
  8
0
  6
HIDDEN
 62
   174
100
AcDbLine
 10
418.071191
 20
418.614449
 30
0.0
 11
418.071191
 21
419.364449
 31
0.0
  0
LINE
  5
178
100
AcDbEntity
  8
0
  6
HIDDEN
 62
   174
100
AcDbLine
 10
409.821191
 20
418.614449
 30
0.0
 11
409.821191
 21
419.364449
 31
0.0
  0
LINE
  5
179
100
AcDbEntity
  8
0
  6
HIDDEN
 62
   174
100
AcDbLine
 10
326.571191
 20
418.614449
 30
0.0
 11
326.571191
 21
419.364449
 31
0.0
  0
LINE
  5
17A
100
AcDbEntity
  8
0
  6
HIDDEN
 62
   174
100
AcDbLine
 10
327.972243
 20
419.364449
 30
0.0
 11
334.050704
 21
419.364449
 31
0.0
  0
LINE
  5
17B
100
AcDbEntity
  8
0
  6
HIDDEN
 62
   174
100
AcDbLine
 10
363.298901
 20
417.864449
 30
0.0
 11
381.297884
 21
417.864449
 31
0.0
  0
LINE
  5
17C
100
AcDbEntity
  8
0
  6
HIDDEN
 62
   174
100
AcDbLine
 10
363.321191
 20
418.614449
 30
0.0
 11
363.321191
 21
417.864449
 31
0.0
  0
LINE
  5
17D
100
AcDbEntity
  8
0
  6
HIDDEN
 62
   174
100
AcDbLine
 10
448.071191
 20
418.614449
 30
0.0
 11
448.071191
 21
417.864449
 31
0.0
  0
LINE
  5
17E
100
AcDbEntity
  8
0
  6
HIDDEN
 62
   174
100
AcDbLine
 10
548.571191
 20
371.739449
 30
0.0
 11
572.571191
 21
371.739449
 31
0.0
  0
LINE
  5
17F
100
AcDbEntity
  8
0
  6
HIDDEN
 62
   174
100
AcDbLine
 10
448.071191
 20
418.614449
 30
0.0
 11
448.071191
 21
417.864449
 31
0.0
  0
LINE
  5
180
100
AcDbEntity
  8
0
  6
HIDDEN
 62
   174
100
AcDbLine
 10
572.571191
 20
389.449218
 30
0.0
 11
572.571191
 21
409.188427
 31
0.0
  0
LINE
  5
181
100
AcDbEntity
  8
0
  6
HIDDEN
 62
   174
100
AcDbLine
 10
548.571191
 20
369.624449
 30
0.0
 11
572.571191
 21
369.624449
 31
0.0
  0
LINE
  5
182
100
AcDbEntity
  8
0
  6
HIDDEN
 62
   174
100
AcDbLine
 10
548.571191
 20
371.739449
 30
0.0
 11
572.571191
 21
371.739449
 31
0.0
  0
LINE
  5
183
100
AcDbEntity
  8
0
  6
HIDDEN
 62
   174
100
AcDbLine
 10
238.821191
 20
406.989449
 30
0.0
 11
268.821191
 21
406.989449
 31
0.0
  0
LINE
  5
184
100
AcDbEntity
  8
0
  6
HIDDEN
 62
   174
100
AcDbLine
 10
238.821191
 20
371.739449
 30
0.0
 11
268.821191
 21
371.739449
 31
0.0
  0
LINE
  5
185
100
AcDbEntity
  8
0
  6
HIDDEN
 62
   174
100
AcDbLine
 10
514.821191
 20
418.614449
 30
0.0
 11
514.821191
 21
417.864449
 31
0.0
  0
LINE
  5
186
100
AcDbEntity
  8
0
  6
HIDDEN
 62
   174
100
AcDbLine
 10
418.795464
 20
419.364449
 30
0.0
 11
409.795973
 21
419.364449
 31
0.0
  0
LINE
  5
187
100
AcDbEntity
  8
0
  6
HIDDEN
 62
   174
100
AcDbLine
 10
363.321191
 20
418.614449
 30
0.0
 11
363.321191
 21
417.864449
 31
0.0
  0
LINE
  5
188
100
AcDbEntity
  8
0
  6
HIDDEN
 62
   174
100
AcDbLine
 10
448.071191
 20
418.614449
 30
0.0
 11
448.071191
 21
417.864449
 31
0.0
  0
LINE
  5
189
100
AcDbEntity
  8
0
  6
HIDDEN
 62
   174
100
AcDbLine
 10
542.571191
 20
389.449218
 30
0.0
 11
542.571191
 21
371.824988
 31
0.0
  0
LINE
  5
18A
100
AcDbEntity
  8
0
  6
HIDDEN
 62
   174
100
AcDbLine
 10
548.571191
 20
406.989449
 30
0.0
 11
572.571191
 21
406.989449
 31
0.0
  0
LINE
  5
18B
100
AcDbEntity
  8
0
  6
HIDDEN
 62
   174
100
AcDbLine
 10
548.571191
 20
409.104449
 30
0.0
 11
572.571191
 21
409.104449
 31
0.0
  0
LINE
  5
18C
100
AcDbEntity
  8
0
  6
HIDDEN
 62
   174
100
AcDbLine
 10
572.571191
 20
406.989449
 30
0.0
 11
542.571191
 21
406.989449
 31
0.0
  0
LINE
  5
18D
100
AcDbEntity
  8
0
  6
HIDDEN
 62
   174
100
AcDbLine
 10
238.821191
 20
389.449218
 30
0.0
 11
238.821191
 21
369.710009
 31
0.0
  0
LINE
  5
18E
100
AcDbEntity
  8
0
  6
HIDDEN
 62
   174
100
AcDbLine
 10
238.821191
 20
371.739449
 30
0.0
 11
268.821191
 21
371.739449
 31
0.0
  0
LINE
  5
18F
100
AcDbEntity
  8
0
  6
HIDDEN
 62
   174
100
AcDbLine
 10
262.821191
 20
409.104449
 30
0.0
 11
238.821191
 21
409.104449
 31
0.0
  0
LINE
  5
190
100
AcDbEntity
  8
0
  6
HIDDEN
 62
   174
100
AcDbLine
 10
262.821191
 20
389.449218
 30
0.0
 11
262.821191
 21
369.710009
 31
0.0
  0
LINE
  5
191
100
AcDbEntity
  8
0
  6
HIDDEN
 62
   174
100
AcDbLine
 10
238.821191
 20
389.449218
 30
0.0
 11
238.821191
 21
369.710009
 31
0.0
  0
LINE
  5
192
100
AcDbEntity
  8
0
  6
HIDDEN
 62
   174
100
AcDbLine
 10
238.821191
 20
409.188427
 30
0.0
 11
238.821191
 21
389.449218
 31
0.0
  0
LINE
  5
193
100
AcDbEntity
  8
0
  6
HIDDEN
 62
   174
100
AcDbLine
 10
418.821191
 20
418.614449
 30
0.0
 11
418.821191
 21
419.364449
 31
0.0
  0
LINE
  5
194
100
AcDbEntity
  8
0
  6
HIDDEN
 62
   174
100
AcDbLine
 10
418.795464
 20
418.614449
 30
0.0
 11
409.795973
 21
418.614449
 31
0.0
  0
LINE
  5
195
100
AcDbEntity
  8
0
  6
HIDDEN
 62
   174
100
AcDbLine
 10
381.321191
 20
418.614449
 30
0.0
 11
381.321191
 21
417.864449
 31
0.0
  0
LINE
  5
196
100
AcDbEntity
  8
0
  6
HIDDEN
 62
   174
100
AcDbLine
 10
381.321191
 20
418.614449
 30
0.0
 11
381.321191
 21
417.864449
 31
0.0
  0
LINE
  5
197
100
AcDbEntity
  8
0
  6
HIDDEN
 62
   174
100
AcDbLine
 10
430.071191
 20
418.614449
 30
0.0
 11
430.071191
 21
417.864449
 31
0.0
  0
LINE
  5
198
100
AcDbEntity
  8
0
  6
HIDDEN
 62
   174
100
AcDbLine
 10
542.571191
 20
389.449218
 30
0.0
 11
542.571191
 21
407.073448
 31
0.0
  0
LINE
  5
199
100
AcDbEntity
  8
0
  6
HIDDEN
 62
   174
100
AcDbLine
 10
548.571191
 20
406.989449
 30
0.0
 11
572.571191
 21
406.989449
 31
0.0
  0
LINE
  5
19A
100
AcDbEntity
  8
0
  6
HIDDEN
 62
   174
100
AcDbLine
 10
572.571191
 20
369.710009
 30
0.0
 11
572.571191
 21
389.449218
 31
0.0
  0
LINE
  5
19B
100
AcDbEntity
  8
0
  6
HIDDEN
 62
   174
100
AcDbLine
 10
548.571191
 20
369.710009
 30
0.0
 11
548.571191
 21
389.449218
 31
0.0
  0
LINE
  5
19C
100
AcDbEntity
  8
0
  6
HIDDEN
 62
   174
100
AcDbLine
 10
430.071191
 20
418.614449
 30
0.0
 11
430.071191
 21
417.864449
 31
0.0
  0
LINE
  5
19D
100
AcDbEntity
  8
0
  6
HIDDEN
 62
   174
100
AcDbLine
 10
262.821191
 20
369.624449
 30
0.0
 11
238.821191
 21
369.624449
 31
0.0
  0
LINE
  5
19E
100
AcDbEntity
  8
0
  6
HIDDEN
 62
   174
100
AcDbLine
 10
262.821191
 20
389.449218
 30
0.0
 11
262.821191
 21
369.710009
 31
0.0
  0
LINE
  5
19F
100
AcDbEntity
  8
0
  6
HIDDEN
 62
   174
100
AcDbLine
 10
262.821191
 20
371.739449
 30
0.0
 11
238.821191
 21
371.739449
 31
0.0
  0
LINE
  5
1A0
100
AcDbEntity
  8
0
  6
HIDDEN
 62
   174
100
AcDbLine
 10
496.821191
 20
418.614449
 30
0.0
 11
496.821191
 21
417.864449
 31
0.0
  0
LINE
  5
1A1
100
AcDbEntity
  8
0
  6
HIDDEN
 62
   174
100
AcDbLine
 10
572.571191
 20
389.449218
 30
0.0
 11
572.571191
 21
371.824988
 31
0.0
  0
LINE
  5
1A2
100
AcDbEntity
  8
0
  6
HIDDEN
 62
   174
100
AcDbLine
 10
514.821191
 20
418.614449
 30
0.0
 11
514.821191
 21
417.864449
 31
0.0
  0
LINE
  5
1A3
100
AcDbEntity
  8
0
  6
HIDDEN
 62
   174
100
AcDbLine
 10
418.821191
 20
418.614449
 30
0.0
 11
418.821191
 21
419.364449
 31
0.0
  0
LINE
  5
1A4
100
AcDbEntity
  8
0
  6
HIDDEN
 62
   174
100
AcDbLine
 10
496.821191
 20
418.614449
 30
0.0
 11
496.821191
 21
417.864449
 31
0.0
  0
LINE
  5
1A5
100
AcDbEntity
  8
0
  6
HIDDEN
 62
   174
100
AcDbLine
 10
400.821191
 20
418.614449
 30
0.0
 11
400.821191
 21
419.364449
 31
0.0
  0
LINE
  5
1A6
100
AcDbEntity
  8
0
  6
HIDDEN
 62
   174
100
AcDbLine
 10
514.965085
 20
419.364449
 30
0.0
 11
528.288976
 21
419.364449
 31
0.0
  0
LINE
  5
1A7
100
AcDbEntity
  8
0
  6
HIDDEN
 62
   174
100
AcDbLine
 10
527.503979
 20
419.364449
 30
0.0
 11
528.288976
 21
419.364449
 31
0.0
  0
LINE
  5
1A8
100
AcDbEntity
  8
0
  6
HIDDEN
 62
   174
100
AcDbLine
 10
296.571191
 20
418.614449
 30
0.0
 11
296.571191
 21
417.864449
 31
0.0
  0
LINE
  5
1A9
100
AcDbEntity
  8
0
  6
HIDDEN
 62
   174
100
AcDbLine
 10
561.321191
 20
419.364449
 30
0.0
 11
561.321191
 21
359.364449
 31
0.0
  0
LINE
  5
1AA
100
AcDbEntity
  8
0
  6
HIDDEN
 62
   174
100
AcDbLine
 10
514.789438
 20
418.614449
 30
0.0
 11
496.791057
 21
418.614449
 31
0.0
  0
LINE
  5
1AB
100
AcDbEntity
  8
0
  6
HIDDEN
 62
   174
100
AcDbLine
 10
528.321191
 20
419.364449
 30
0.0
 11
528.321191
 21
418.614449
 31
0.0
  0
LINE
  5
1AC
100
AcDbEntity
  8
0
  6
HIDDEN
 62
   174
100
AcDbLine
 10
328.071191
 20
419.364449
 30
0.0
 11
328.071191
 21
418.614449
 31
0.0
  0
LINE
  5
1AD
100
AcDbEntity
  8
0
  6
HIDDEN
 62
   174
100
AcDbLine
 10
535.071191
 20
418.614449
 30
0.0
 11
535.071191
 21
419.364449
 31
0.0
  0
LINE
  5
1AE
100
AcDbEntity
  8
0
  6
HIDDEN
 62
   174
100
AcDbLine
 10
468.321191
 20
418.614449
 30
0.0
 11
468.321191
 21
419.364449
 31
0.0
  0
LINE
  5
1AF
100
AcDbEntity
  8
0
  6
HIDDEN
 62
   174
100
AcDbLine
 10
484.821191
 20
419.364449
 30
0.0
 11
484.821191
 21
418.614449
 31
0.0
  0
LINE
  5
1B0
100
AcDbEntity
  8
0
  6
HIDDEN
 62
   174
100
AcDbLine
 10
514.965085
 20
419.364449
 30
0.0
 11
528.288976
 21
419.364449
 31
0.0
  0
LINE
  5
1B1
100
AcDbEntity
  8
0
  6
HIDDEN
 62
   174
100
AcDbLine
 10
296.377477
 20
419.364449
 30
0.0
 11
314.727754
 21
419.364449
 31
0.0
  0
LINE
  5
1B2
100
AcDbEntity
  8
0
  6
HIDDEN
 62
   174
100
AcDbLine
 10
381.321191
 20
418.614449
 30
0.0
 11
381.321191
 21
417.864449
 31
0.0
  0
LINE
  5
1B3
100
AcDbEntity
  8
0
  6
HIDDEN
 62
   174
100
AcDbLine
 10
285.30391
 20
418.614449
 30
0.0
 11
276.304419
 21
418.614449
 31
0.0
  0
LINE
  5
1B4
100
AcDbEntity
  8
0
  6
HIDDEN
 62
   174
100
AcDbLine
 10
343.821191
 20
418.614449
 30
0.0
 11
343.821191
 21
419.364449
 31
0.0
  0
LINE
  5
1B5
100
AcDbEntity
  8
0
  6
HIDDEN
 62
   174
100
AcDbLine
 10
467.571191
 20
418.614449
 30
0.0
 11
467.571191
 21
419.364449
 31
0.0
  0
LINE
  5
1B6
100
AcDbEntity
  8
0
  6
HIDDEN
 62
   174
100
AcDbLine
 10
381.297884
 20
418.614449
 30
0.0
 11
363.298901
 21
418.614449
 31
0.0
  0
LINE
  5
1B7
100
AcDbEntity
  8
0
  6
HIDDEN
 62
   174
100
AcDbLine
 10
250.056052
 20
419.364449
 30
0.0
 11
263.554989
 21
419.364449
 31
0.0
  0
LINE
  5
1B8
100
AcDbEntity
  8
0
  6
HIDDEN
 62
   174
100
AcDbLine
 10
483.291519
 20
418.614449
 30
0.0
 11
528.288976
 21
418.614449
 31
0.0
  0
LINE
  5
1B9
100
AcDbEntity
  8
0
  6
HIDDEN
 62
   174
100
AcDbLine
 10
350.58436
 20
419.364449
 30
0.0
 11
363.123856
 21
419.364449
 31
0.0
  0
LINE
  5
1BA
100
AcDbEntity
  8
0
  6
HIDDEN
 62
   174
100
AcDbLine
 10
410.546081
 20
419.364449
 30
0.0
 11
418.045356
 21
419.364449
 31
0.0
  0
LINE
  5
1BB
100
AcDbEntity
  8
0
  6
HIDDEN
 62
   174
100
AcDbLine
 10
410.571191
 20
419.364449
 30
0.0
 11
410.571191
 21
418.614449
 31
0.0
  0
LINE
  5
1BC
100
AcDbEntity
  8
0
  6
HIDDEN
 62
   174
100
AcDbLine
 10
416.571191
 20
419.364449
 30
0.0
 11
416.571191
 21
418.614449
 31
0.0
  0
LINE
  5
1BD
100
AcDbEntity
  8
0
  6
HIDDEN
 62
   174
100
AcDbLine
 10
393.321191
 20
418.614449
 30
0.0
 11
393.321191
 21
419.364449
 31
0.0
  0
LINE
  5
1BE
100
AcDbEntity
  8
0
  6
HIDDEN
 62
   174
100
AcDbLine
 10
534.321191
 20
418.614449
 30
0.0
 11
534.321191
 21
419.364449
 31
0.0
  0
LINE
  5
1BF
100
AcDbEntity
  8
0
  6
HIDDEN
 62
   174
100
AcDbLine
 10
250.071191
 20
419.364449
 30
0.0
 11
250.071191
 21
359.364449
 31
0.0
  0
LINE
  5
1C0
100
AcDbEntity
  8
0
  6
HIDDEN
 62
   174
100
AcDbLine
 10
349.821191
 20
419.364449
 30
0.0
 11
349.821191
 21
418.614449
 31
0.0
  0
LINE
  5
1C1
100
AcDbEntity
  8
0
  6
HIDDEN
 62
   174
100
AcDbLine
 10
350.58436
 20
419.364449
 30
0.0
 11
363.123856
 21
419.364449
 31
0.0
  0
LINE
  5
1C2
100
AcDbEntity
  8
0
  6
HIDDEN
 62
   174
100
AcDbLine
 10
314.552107
 20
418.614449
 30
0.0
 11
296.553124
 21
418.614449
 31
0.0
  0
LINE
  5
1C3
100
AcDbEntity
  8
0
  6
HIDDEN
 62
   174
100
AcDbLine
 10
314.571191
 20
418.614449
 30
0.0
 11
314.571191
 21
417.864449
 31
0.0
  0
LINE
  5
1C4
100
AcDbEntity
  8
0
  6
HIDDEN
 62
   174
100
AcDbLine
 10
283.838583
 20
419.364449
 30
0.0
 11
296.377477
 21
419.364449
 31
0.0
  0
LINE
  5
1C5
100
AcDbEntity
  8
0
  6
HIDDEN
 62
   174
100
AcDbLine
 10
514.821191
 20
418.614449
 30
0.0
 11
514.821191
 21
417.864449
 31
0.0
  0
LINE
  5
1C6
100
AcDbEntity
  8
0
  6
HIDDEN
 62
   174
100
AcDbLine
 10
429.869633
 20
419.364449
 30
0.0
 11
448.219308
 21
419.364449
 31
0.0
  0
LINE
  5
1C7
100
AcDbEntity
  8
0
  6
HIDDEN
 62
   174
100
AcDbLine
 10
314.571191
 20
418.614449
 30
0.0
 11
314.571191
 21
417.864449
 31
0.0
  0
LINE
  5
1C8
100
AcDbEntity
  8
0
  6
HIDDEN
 62
   174
100
AcDbLine
 10
528.209574
 20
419.364449
 30
0.0
 11
534.288637
 21
419.364449
 31
0.0
  0
LINE
  5
1C9
100
AcDbEntity
  8
0
  6
HIDDEN
 62
   174
100
AcDbLine
 10
448.043661
 20
418.614449
 30
0.0
 11
430.044678
 21
418.614449
 31
0.0
  0
LINE
  5
1CA
100
AcDbEntity
  8
0
  6
HIDDEN
 62
   174
100
AcDbLine
 10
283.071191
 20
419.364449
 30
0.0
 11
283.071191
 21
418.614449
 31
0.0
  0
LINE
  5
1CB
100
AcDbEntity
  8
0
  6
HIDDEN
 62
   174
100
AcDbLine
 10
535.038745
 20
419.364449
 30
0.0
 11
526.039254
 21
419.364449
 31
0.0
  0
LINE
  5
1CC
100
AcDbEntity
  8
0
  6
HIDDEN
 62
   174
100
AcDbLine
 10
459.321191
 20
418.614449
 30
0.0
 11
459.321191
 21
419.364449
 31
0.0
  0
LINE
  5
1CD
100
AcDbEntity
  8
0
  6
HIDDEN
 62
   174
100
AcDbLine
 10
485.571191
 20
418.614449
 30
0.0
 11
485.571191
 21
419.364449
 31
0.0
  0
LINE
  5
1CE
100
AcDbEntity
  8
0
  6
HIDDEN
 62
   174
100
AcDbLine
 10
351.321191
 20
418.614449
 30
0.0
 11
351.321191
 21
419.364449
 31
0.0
  0
LINE
  5
1CF
100
AcDbEntity
  8
0
  6
HIDDEN
 62
   174
100
AcDbLine
 10
460.071191
 20
418.614449
 30
0.0
 11
460.071191
 21
419.364449
 31
0.0
  0
LINE
  5
1D0
100
AcDbEntity
  8
0
  6
HIDDEN
 62
   174
100
AcDbLine
 10
483.291519
 20
418.614449
 30
0.0
 11
528.288976
 21
418.614449
 31
0.0
  0
LINE
  5
1D1
100
AcDbEntity
  8
0
  6
HIDDEN
 62
   174
100
AcDbLine
 10
238.821191
 20
389.449218
 30
0.0
 11
238.821191
 21
407.073448
 31
0.0
  0
LINE
  5
1D2
100
AcDbEntity
  8
0
  6
HIDDEN
 62
   174
100
AcDbLine
 10
418.071191
 20
419.364449
 30
0.0
 11
418.071191
 21
418.614449
 31
0.0
  0
LINE
  5
1D3
100
AcDbEntity
  8
0
  6
HIDDEN
 62
   174
100
AcDbLine
 10
461.571191
 20
419.364449
 30
0.0
 11
461.571191
 21
418.614449
 31
0.0
  0
LINE
  5
1D4
100
AcDbEntity
  8
0
  6
HIDDEN
 62
   174
100
AcDbLine
 10
416.571191
 20
419.364449
 30
0.0
 11
416.571191
 21
418.614449
 31
0.0
  0
LINE
  5
1D5
100
AcDbEntity
  8
0
  6
HIDDEN
 62
   174
100
AcDbLine
 10
349.799965
 20
419.364449
 30
0.0
 11
350.58436
 21
419.364449
 31
0.0
  0
LINE
  5
1D6
100
AcDbEntity
  8
0
  6
HIDDEN
 62
   174
100
AcDbLine
 10
268.821191
 20
407.073448
 30
0.0
 11
268.821191
 21
389.449218
 31
0.0
  0
LINE
  5
1D7
100
AcDbEntity
  8
0
  6
HIDDEN
 62
   174
100
AcDbLine
 10
400.821191
 20
418.614449
 30
0.0
 11
400.821191
 21
419.364449
 31
0.0
  0
LINE
  5
1D8
100
AcDbEntity
  8
0
  6
HIDDEN
 62
   174
100
AcDbLine
 10
526.821191
 20
418.614449
 30
0.0
 11
526.821191
 21
419.364449
 31
0.0
  0
LINE
  5
1D9
100
AcDbEntity
  8
0
  6
HIDDEN
 62
   174
100
AcDbLine
 10
263.571191
 20
419.364449
 30
0.0
 11
263.571191
 21
359.364449
 31
0.0
  0
LINE
  5
1DA
100
AcDbEntity
  8
0
  6
HIDDEN
 62
   174
100
AcDbLine
 10
394.821191
 20
419.364449
 30
0.0
 11
394.821191
 21
418.614449
 31
0.0
  0
LINE
  5
1DB
100
AcDbEntity
  8
0
  6
HIDDEN
 62
   174
100
AcDbLine
 10
416.545742
 20
419.364449
 30
0.0
 11
417.330739
 21
419.364449
 31
0.0
  0
LINE
  5
1DC
100
AcDbEntity
  8
0
  6
HIDDEN
 62
   174
100
AcDbLine
 10
296.571191
 20
418.614449
 30
0.0
 11
296.571191
 21
417.864449
 31
0.0
  0
LINE
  5
1DD
100
AcDbEntity
  8
0
  6
HIDDEN
 62
   174
100
AcDbLine
 10
314.727754
 20
419.364449
 30
0.0
 11
328.051043
 21
419.364449
 31
0.0
  0
LINE
  5
1DE
100
AcDbEntity
  8
0
  6
HIDDEN
 62
   174
100
AcDbLine
 10
277.054527
 20
418.614449
 30
0.0
 11
284.553802
 21
418.614449
 31
0.0
  0
LINE
  5
1DF
100
AcDbEntity
  8
0
  6
HIDDEN
 62
   174
100
AcDbLine
 10
285.321191
 20
418.614449
 30
0.0
 11
285.321191
 21
419.364449
 31
0.0
  0
LINE
  5
1E0
100
AcDbEntity
  8
0
  6
HIDDEN
 62
   174
100
AcDbLine
 10
363.123856
 20
419.364449
 30
0.0
 11
381.473531
 21
419.364449
 31
0.0
  0
LINE
  5
1E1
100
AcDbEntity
  8
0
  6
HIDDEN
 62
   174
100
AcDbLine
 10
328.071191
 20
419.364449
 30
0.0
 11
328.071191
 21
418.614449
 31
0.0
  0
LINE
  5
1E2
100
AcDbEntity
  8
0
  6
HIDDEN
 62
   174
100
AcDbLine
 10
476.571191
 20
418.614449
 30
0.0
 11
476.571191
 21
419.364449
 31
0.0
  0
LINE
  5
1E3
100
AcDbEntity
  8
0
  6
HIDDEN
 62
   174
100
AcDbLine
 10
485.541241
 20
419.364449
 30
0.0
 11
476.542351
 21
419.364449
 31
0.0
  0
LINE
  5
1E4
100
AcDbEntity
  8
0
  6
HIDDEN
 62
   174
100
AcDbLine
 10
268.821191
 20
407.073448
 30
0.0
 11
268.821191
 21
389.449218
 31
0.0
  0
LINE
  5
1E5
100
AcDbEntity
  8
0
  6
HIDDEN
 62
   174
100
AcDbLine
 10
343.821191
 20
418.614449
 30
0.0
 11
343.821191
 21
419.364449
 31
0.0
  0
LINE
  5
1E6
100
AcDbEntity
  8
0
  6
HIDDEN
 62
   174
100
AcDbLine
 10
460.071191
 20
419.364449
 30
0.0
 11
460.071191
 21
418.614449
 31
0.0
  0
LINE
  5
1E7
100
AcDbEntity
  8
0
  6
HIDDEN
 62
   174
100
AcDbLine
 10
349.799965
 20
418.614449
 30
0.0
 11
394.79682
 21
418.614449
 31
0.0
  0
LINE
  5
1E8
100
AcDbEntity
  8
0
  6
HIDDEN
 62
   174
100
AcDbLine
 10
250.056052
 20
419.364449
 30
0.0
 11
263.554989
 21
419.364449
 31
0.0
  0
LINE
  5
1E9
100
AcDbEntity
  8
0
  6
Continuous
 62
   174
100
AcDbLine
 10
238.821191
 20
359.364449
 30
0.0
 11
572.571191
 21
359.364449
 31
0.0
  0
LINE
  5
1EA
100
AcDbEntity
  8
0
  6
HIDDEN
 62
   174
100
AcDbLine
 10
349.821191
 20
419.364449
 30
0.0
 11
349.821191
 21
418.614449
 31
0.0
  0
LINE
  5
1EB
100
AcDbEntity
  8
0
  6
HIDDEN
 62
   174
100
AcDbLine
 10
363.123856
 20
419.364449
 30
0.0
 11
381.473531
 21
419.364449
 31
0.0
  0
LINE
  5
1EC
100
AcDbEntity
  8
0
  6
HIDDEN
 62
   174
100
AcDbLine
 10
296.553124
 20
417.864449
 30
0.0
 11
314.552107
 21
417.864449
 31
0.0
  0
LINE
  5
1ED
100
AcDbEntity
  8
0
  6
HIDDEN
 62
   174
100
AcDbLine
 10
296.377477
 20
419.364449
 30
0.0
 11
314.727754
 21
419.364449
 31
0.0
  0
LINE
  5
1EE
100
AcDbEntity
  8
0
  6
HIDDEN
 62
   174
100
AcDbLine
 10
460.042983
 20
419.364449
 30
0.0
 11
461.463797
 21
419.364449
 31
0.0
  0
LINE
  5
1EF
100
AcDbEntity
  8
0
  6
HIDDEN
 62
   174
100
AcDbLine
 10
496.791057
 20
417.864449
 30
0.0
 11
514.789438
 21
417.864449
 31
0.0
  0
LINE
  5
1F0
100
AcDbEntity
  8
0
  6
HIDDEN
 62
   174
100
AcDbLine
 10
416.571191
 20
419.364449
 30
0.0
 11
416.571191
 21
418.614449
 31
0.0
  0
LINE
  5
1F1
100
AcDbEntity
  8
0
  6
HIDDEN
 62
   174
100
AcDbLine
 10
461.571191
 20
419.364449
 30
0.0
 11
461.571191
 21
418.614449
 31
0.0
  0
LINE
  5
1F2
100
AcDbEntity
  8
0
  6
HIDDEN
 62
   174
100
AcDbLine
 10
448.219308
 20
419.364449
 30
0.0
 11
460.758202
 21
419.364449
 31
0.0
  0
LINE
  5
1F3
100
AcDbEntity
  8
0
  6
HIDDEN
 62
   174
100
AcDbLine
 10
393.321191
 20
418.614449
 30
0.0
 11
393.321191
 21
419.364449
 31
0.0
  0
LINE
  5
1F4
100
AcDbEntity
  8
0
  6
HIDDEN
 62
   174
100
AcDbLine
 10
535.038745
 20
418.614449
 30
0.0
 11
526.039254
 21
418.614449
 31
0.0
  0
LINE
  5
1F5
100
AcDbEntity
  8
0
  6
HIDDEN
 62
   174
100
AcDbLine
 10
534.321191
 20
418.614449
 30
0.0
 11
534.321191
 21
419.364449
 31
0.0
  0
LINE
  5
1F6
100
AcDbEntity
  8
0
  6
HIDDEN
 62
   174
100
AcDbLine
 10
283.054188
 20
418.614449
 30
0.0
 11
328.051043
 21
418.614449
 31
0.0
  0
LINE
  5
1F7
100
AcDbEntity
  8
0
  6
HIDDEN
 62
   174
100
AcDbLine
 10
314.571191
 20
418.614449
 30
0.0
 11
314.571191
 21
417.864449
 31
0.0
  0
LINE
  5
1F8
100
AcDbEntity
  8
0
  6
HIDDEN
 62
   174
100
AcDbLine
 10
485.571191
 20
418.614449
 30
0.0
 11
485.571191
 21
419.364449
 31
0.0
  0
LINE
  5
1F9
100
AcDbEntity
  8
0
  6
HIDDEN
 62
   174
100
AcDbLine
 10
284.571191
 20
418.614449
 30
0.0
 11
284.571191
 21
419.364449
 31
0.0
  0
LINE
  5
1FA
100
AcDbEntity
  8
0
  6
HIDDEN
 62
   174
100
AcDbLine
 10
285.30391
 20
419.364449
 30
0.0
 11
276.304419
 21
419.364449
 31
0.0
  0
LINE
  5
1FB
100
AcDbEntity
  8
0
  6
Continuous
 62
   174
100
AcDbLine
 10
238.821191
 20
419.364449
 30
0.0
 11
572.571191
 21
419.364449
 31
0.0
  0
LINE
  5
1FC
100
AcDbEntity
  8
0
  6
HIDDEN
 62
   174
100
AcDbLine
 10
483.321191
 20
419.364449
 30
0.0
 11
483.321191
 21
418.614449
 31
0.0
  0
LINE
  5
1FD
100
AcDbEntity
  8
0
  6
HIDDEN
 62
   174
100
AcDbLine
 10
350.58436
 20
419.364449
 30
0.0
 11
363.123856
 21
419.364449
 31
0.0
  0
LINE
  5
1FE
100
AcDbEntity
  8
0
  6
HIDDEN
 62
   174
100
AcDbLine
 10
268.821191
 20
371.824988
 30
0.0
 11
268.821191
 21
389.449218
 31
0.0
  0
LINE
  5
1FF
100
AcDbEntity
  8
0
  6
HIDDEN
 62
   174
100
AcDbLine
 10
238.821191
 20
371.824988
 30
0.0
 11
238.821191
 21
389.449218
 31
0.0
  0
LINE
  5
200
100
AcDbEntity
  8
0
  6
HIDDEN
 62
   174
100
AcDbLine
 10
352.049687
 20
419.364449
 30
0.0
 11
343.050196
 21
419.364449
 31
0.0
  0
LINE
  5
201
100
AcDbEntity
  8
0
  6
HIDDEN
 62
   174
100
AcDbLine
 10
514.789438
 20
418.614449
 30
0.0
 11
496.791057
 21
418.614449
 31
0.0
  0
LINE
  5
202
100
AcDbEntity
  8
0
  6
HIDDEN
 62
   174
100
AcDbLine
 10
417.330739
 20
419.364449
 30
0.0
 11
429.869633
 21
419.364449
 31
0.0
  0
LINE
  5
203
100
AcDbEntity
  8
0
  6
HIDDEN
 62
   174
100
AcDbLine
 10
283.054188
 20
418.614449
 30
0.0
 11
328.051043
 21
418.614449
 31
0.0
  0
LINE
  5
204
100
AcDbEntity
  8
0
  6
HIDDEN
 62
   174
100
AcDbLine
 10
343.821191
 20
419.364449
 30
0.0
 11
343.821191
 21
418.614449
 31
0.0
  0
LINE
  5
205
100
AcDbEntity
  8
0
  6
HIDDEN
 62
   174
100
AcDbLine
 10
467.571191
 20
419.364449
 30
0.0
 11
467.571191
 21
418.614449
 31
0.0
  0
LINE
  5
206
100
AcDbEntity
  8
0
  6
HIDDEN
 62
   174
100
AcDbLine
 10
394.821191
 20
419.364449
 30
0.0
 11
394.821191
 21
418.614449
 31
0.0
  0
LINE
  5
207
100
AcDbEntity
  8
0
  6
HIDDEN
 62
   174
100
AcDbLine
 10
283.071191
 20
419.364449
 30
0.0
 11
283.071191
 21
418.614449
 31
0.0
  0
LINE
  5
208
100
AcDbEntity
  8
0
  6
HIDDEN
 62
   174
100
AcDbLine
 10
461.571191
 20
419.364449
 30
0.0
 11
461.571191
 21
418.614449
 31
0.0
  0
LINE
  5
209
100
AcDbEntity
  8
0
  6
HIDDEN
 62
   174
100
AcDbLine
 10
416.571191
 20
419.364449
 30
0.0
 11
416.571191
 21
418.614449
 31
0.0
  0
LINE
  5
20A
100
AcDbEntity
  8
0
  6
HIDDEN
 62
   174
100
AcDbLine
 10
381.473531
 20
419.364449
 30
0.0
 11
394.79682
 21
419.364449
 31
0.0
  0
LINE
  5
20B
100
AcDbEntity
  8
0
  6
HIDDEN
 62
   174
100
AcDbLine
 10
283.054188
 20
419.364449
 30
0.0
 11
283.838583
 21
419.364449
 31
0.0
  0
LINE
  5
20C
100
AcDbEntity
  8
0
  6
HIDDEN
 62
   174
100
AcDbLine
 10
393.321191
 20
419.364449
 30
0.0
 11
393.321191
 21
418.614449
 31
0.0
  0
LINE
  5
20D
100
AcDbEntity
  8
0
  6
HIDDEN
 62
   174
100
AcDbLine
 10
526.821191
 20
418.614449
 30
0.0
 11
526.821191
 21
419.364449
 31
0.0
  0
LINE
  5
20E
100
AcDbEntity
  8
0
  6
HIDDEN
 62
   174
100
AcDbLine
 10
485.541241
 20
418.614449
 30
0.0
 11
476.542351
 21
418.614449
 31
0.0
  0
LINE
  5
20F
100
AcDbEntity
  8
0
  6
HIDDEN
 62
   174
100
AcDbLine
 10
448.043661
 20
418.614449
 30
0.0
 11
430.044678
 21
418.614449
 31
0.0
  0
LINE
  5
210
100
AcDbEntity
  8
0
  6
HIDDEN
 62
   174
100
AcDbLine
 10
268.821191
 20
371.824988
 30
0.0
 11
268.821191
 21
389.449218
 31
0.0
  0
LINE
  5
211
100
AcDbEntity
  8
0
  6
HIDDEN
 62
   174
100
AcDbLine
 10
483.291519
 20
419.364449
 30
0.0
 11
484.076516
 21
419.364449
 31
0.0
  0
LINE
  5
212
100
AcDbEntity
  8
0
  6
HIDDEN
 62
   174
100
AcDbLine
 10
476.571191
 20
418.614449
 30
0.0
 11
476.571191
 21
419.364449
 31
0.0
  0
LINE
  5
213
100
AcDbEntity
  8
0
  6
HIDDEN
 62
   174
100
AcDbLine
 10
381.473531
 20
419.364449
 30
0.0
 11
394.79682
 21
419.364449
 31
0.0
  0
LINE
  5
214
100
AcDbEntity
  8
0
  6
HIDDEN
 62
   174
100
AcDbLine
 10
314.727754
 20
419.364449
 30
0.0
 11
327.266648
 21
419.364449
 31
0.0
  0
LINE
  5
215
100
AcDbEntity
  8
0
  6
HIDDEN
 62
   174
100
AcDbLine
 10
277.071191
 20
418.614449
 30
0.0
 11
277.071191
 21
419.364449
 31
0.0
  0
LINE
  5
216
100
AcDbEntity
  8
0
  6
HIDDEN
 62
   174
100
AcDbLine
 10
528.321191
 20
419.364449
 30
0.0
 11
528.321191
 21
418.614449
 31
0.0
  0
LINE
  5
217
100
AcDbEntity
  8
0
  6
HIDDEN
 62
   174
100
AcDbLine
 10
460.758202
 20
419.364449
 30
0.0
 11
461.543199
 21
419.364449
 31
0.0
  0
LINE
  5
218
100
AcDbEntity
  8
0
  6
HIDDEN
 62
   174
100
AcDbLine
 10
410.546081
 20
418.614449
 30
0.0
 11
418.045356
 21
418.614449
 31
0.0
  0
LINE
  5
219
100
AcDbEntity
  8
0
  6
HIDDEN
 62
   174
100
AcDbLine
 10
461.463797
 20
419.364449
 30
0.0
 11
467.54286
 21
419.364449
 31
0.0
  0
LINE
  5
21A
100
AcDbEntity
  8
0
  6
HIDDEN
 62
   174
100
AcDbLine
 10
547.787574
 20
359.364449
 30
0.0
 11
561.287112
 21
359.364449
 31
0.0
  0
LINE
  5
21B
100
AcDbEntity
  8
0
  6
HIDDEN
 62
   174
100
AcDbLine
 10
351.321191
 20
419.364449
 30
0.0
 11
351.321191
 21
418.614449
 31
0.0
  0
LINE
  5
21C
100
AcDbEntity
  8
0
  6
HIDDEN
 62
   174
100
AcDbLine
 10
526.071191
 20
418.614449
 30
0.0
 11
526.071191
 21
419.364449
 31
0.0
  0
LINE
  5
21D
100
AcDbEntity
  8
0
  6
HIDDEN
 62
   174
100
AcDbLine
 10
460.071191
 20
419.364449
 30
0.0
 11
460.071191
 21
418.614449
 31
0.0
  0
LINE
  5
21E
100
AcDbEntity
  8
0
  6
HIDDEN
 62
   174
100
AcDbLine
 10
547.787574
 20
419.364449
 30
0.0
 11
561.287112
 21
419.364449
 31
0.0
  0
LINE
  5
21F
100
AcDbEntity
  8
0
  6
HIDDEN
 62
   174
100
AcDbLine
 10
547.787574
 20
359.364449
 30
0.0
 11
561.287112
 21
359.364449
 31
0.0
  0
LINE
  5
220
100
AcDbEntity
  8
0
  6
HIDDEN
 62
   174
100
AcDbLine
 10
416.545742
 20
418.614449
 30
0.0
 11
461.543199
 21
418.614449
 31
0.0
  0
LINE
  5
221
100
AcDbEntity
  8
0
  6
HIDDEN
 62
   174
100
AcDbLine
 10
349.821191
 20
419.364449
 30
0.0
 11
349.821191
 21
418.614449
 31
0.0
  0
LINE
  5
222
100
AcDbEntity
  8
0
  6
HIDDEN
 62
   174
100
AcDbLine
 10
343.800304
 20
418.614449
 30
0.0
 11
351.299579
 21
418.614449
 31
0.0
  0
LINE
  5
223
100
AcDbEntity
  8
0
  6
HIDDEN
 62
   174
100
AcDbLine
 10
328.071191
 20
419.364449
 30
0.0
 11
328.071191
 21
418.614449
 31
0.0
  0
LINE
  5
224
100
AcDbEntity
  8
0
  6
HIDDEN
 62
   174
100
AcDbLine
 10
276.321191
 20
418.614449
 30
0.0
 11
276.321191
 21
419.364449
 31
0.0
  0
LINE
  5
225
100
AcDbEntity
  8
0
  6
HIDDEN
 62
   174
100
AcDbLine
 10
352.049687
 20
418.614449
 30
0.0
 11
343.050196
 21
418.614449
 31
0.0
  0
LINE
  5
226
100
AcDbEntity
  8
0
  6
HIDDEN
 62
   174
100
AcDbLine
 10
484.821191
 20
418.614449
 30
0.0
 11
484.821191
 21
419.364449
 31
0.0
  0
LINE
  5
227
100
AcDbEntity
  8
0
  6
HIDDEN
 62
   174
100
AcDbLine
 10
461.571191
 20
419.364449
 30
0.0
 11
461.571191
 21
418.614449
 31
0.0
  0
LINE
  5
228
100
AcDbEntity
  8
0
  6
HIDDEN
 62
   174
100
AcDbLine
 10
400.821191
 20
419.364449
 30
0.0
 11
400.821191
 21
418.614449
 31
0.0
  0
LINE
  5
229
100
AcDbEntity
  8
0
  6
HIDDEN
 62
   174
100
AcDbLine
 10
526.821191
 20
419.364449
 30
0.0
 11
526.821191
 21
418.614449
 31
0.0
  0
LINE
  5
22A
100
AcDbEntity
  8
0
  6
HIDDEN
 62
   174
100
AcDbLine
 10
363.123856
 20
419.364449
 30
0.0
 11
381.473531
 21
419.364449
 31
0.0
  0
LINE
  5
22B
100
AcDbEntity
  8
0
  6
HIDDEN
 62
   174
100
AcDbLine
 10
393.297206
 20
418.614449
 30
0.0
 11
400.796481
 21
418.614449
 31
0.0
  0
LINE
  5
22C
100
AcDbEntity
  8
0
  6
HIDDEN
 62
   174
100
AcDbLine
 10
250.071191
 20
419.364449
 30
0.0
 11
250.071191
 21
359.364449
 31
0.0
  0
LINE
  5
22D
100
AcDbEntity
  8
0
  6
HIDDEN
 62
   174
100
AcDbLine
 10
349.821191
 20
419.364449
 30
0.0
 11
349.821191
 21
418.614449
 31
0.0
  0
LINE
  5
22E
100
AcDbEntity
  8
0
  6
HIDDEN
 62
   174
100
AcDbLine
 10
429.869633
 20
419.364449
 30
0.0
 11
448.219308
 21
419.364449
 31
0.0
  0
LINE
  5
22F
100
AcDbEntity
  8
0
  6
HIDDEN
 62
   174
100
AcDbLine
 10
284.571191
 20
418.614449
 30
0.0
 11
284.571191
 21
419.364449
 31
0.0
  0
LINE
  5
230
100
AcDbEntity
  8
0
  6
HIDDEN
 62
   174
100
AcDbLine
 10
483.321191
 20
419.364449
 30
0.0
 11
483.321191
 21
418.614449
 31
0.0
  0
LINE
  5
231
100
AcDbEntity
  8
0
  6
HIDDEN
 62
   174
100
AcDbLine
 10
296.571191
 20
418.614449
 30
0.0
 11
296.571191
 21
417.864449
 31
0.0
  0
LINE
  5
232
100
AcDbEntity
  8
0
  6
HIDDEN
 62
   174
100
AcDbLine
 10
483.291519
 20
418.614449
 30
0.0
 11
528.288976
 21
418.614449
 31
0.0
  0
LINE
  5
233
100
AcDbEntity
  8
0
  6
HIDDEN
 62
   174
100
AcDbLine
 10
484.076516
 20
419.364449
 30
0.0
 11
496.61541
 21
419.364449
 31
0.0
  0
LINE
  5
234
100
AcDbEntity
  8
0
  6
HIDDEN
 62
   174
100
AcDbLine
 10
283.071191
 20
419.364449
 30
0.0
 11
283.071191
 21
418.614449
 31
0.0
  0
LINE
  5
235
100
AcDbEntity
  8
0
  6
HIDDEN
 62
   174
100
AcDbLine
 10
283.838583
 20
419.364449
 30
0.0
 11
296.377477
 21
419.364449
 31
0.0
  0
LINE
  5
236
100
AcDbEntity
  8
0
  6
HIDDEN
 62
   174
100
AcDbLine
 10
343.821191
 20
419.364449
 30
0.0
 11
343.821191
 21
418.614449
 31
0.0
  0
LINE
  5
237
100
AcDbEntity
  8
0
  6
HIDDEN
 62
   174
100
AcDbLine
 10
535.071191
 20
418.614449
 30
0.0
 11
535.071191
 21
419.364449
 31
0.0
  0
LINE
  5
238
100
AcDbEntity
  8
0
  6
HIDDEN
 62
   174
100
AcDbLine
 10
467.571191
 20
419.364449
 30
0.0
 11
467.571191
 21
418.614449
 31
0.0
  0
LINE
  5
239
100
AcDbEntity
  8
0
  6
HIDDEN
 62
   174
100
AcDbLine
 10
547.821191
 20
419.364449
 30
0.0
 11
547.821191
 21
359.364449
 31
0.0
  0
LINE
  5
23A
100
AcDbEntity
  8
0
  6
HIDDEN
 62
   174
100
AcDbLine
 10
394.821191
 20
419.364449
 30
0.0
 11
394.821191
 21
418.614449
 31
0.0
  0
LINE
  5
23B
100
AcDbEntity
  8
0
  6
HIDDEN
 62
   174
100
AcDbLine
 10
283.071191
 20
419.364449
 30
0.0
 11
283.071191
 21
418.614449
 31
0.0
  0
LINE
  5
23C
100
AcDbEntity
  8
0
  6
HIDDEN
 62
   174
100
AcDbLine
 10
285.321191
 20
418.614449
 30
0.0
 11
285.321191
 21
419.364449
 31
0.0
  0
LINE
  5
23D
100
AcDbEntity
  8
0
  6
HIDDEN
 62
   174
100
AcDbLine
 10
477.321191
 20
418.614449
 30
0.0
 11
477.321191
 21
419.364449
 31
0.0
  0
LINE
  5
23E
100
AcDbEntity
  8
0
  6
HIDDEN
 62
   174
100
AcDbLine
 10
416.545742
 20
419.364449
 30
0.0
 11
417.330739
 21
419.364449
 31
0.0
  0
LINE
  5
23F
100
AcDbEntity
  8
0
  6
HIDDEN
 62
   174
100
AcDbLine
 10
327.266648
 20
419.364449
 30
0.0
 11
328.051043
 21
419.364449
 31
0.0
  0
LINE
  5
240
100
AcDbEntity
  8
0
  6
HIDDEN
 62
   174
100
AcDbLine
 10
393.297206
 20
419.364449
 30
0.0
 11
394.71802
 21
419.364449
 31
0.0
  0
LINE
  5
241
100
AcDbEntity
  8
0
  6
HIDDEN
 62
   174
100
AcDbLine
 10
393.321191
 20
419.364449
 30
0.0
 11
393.321191
 21
418.614449
 31
0.0
  0
LINE
  5
242
100
AcDbEntity
  8
0
  6
HIDDEN
 62
   174
100
AcDbLine
 10
416.545742
 20
418.614449
 30
0.0
 11
461.543199
 21
418.614449
 31
0.0
  0
LINE
  5
243
100
AcDbEntity
  8
0
  6
HIDDEN
 62
   174
100
AcDbLine
 10
483.291519
 20
419.364449
 30
0.0
 11
484.076516
 21
419.364449
 31
0.0
  0
LINE
  5
244
100
AcDbEntity
  8
0
  6
HIDDEN
 62
   174
100
AcDbLine
 10
343.071191
 20
418.614449
 30
0.0
 11
343.071191
 21
419.364449
 31
0.0
  0
LINE
  5
245
100
AcDbEntity
  8
0
  6
HIDDEN
 62
   174
100
AcDbLine
 10
263.571191
 20
419.364449
 30
0.0
 11
263.571191
 21
359.364449
 31
0.0
  0
LINE
  5
246
100
AcDbEntity
  8
0
  6
HIDDEN
 62
   174
100
AcDbLine
 10
394.821191
 20
419.364449
 30
0.0
 11
394.821191
 21
418.614449
 31
0.0
  0
LINE
  5
247
100
AcDbEntity
  8
0
  6
HIDDEN
 62
   174
100
AcDbLine
 10
483.321191
 20
419.364449
 30
0.0
 11
483.321191
 21
418.614449
 31
0.0
  0
LINE
  5
248
100
AcDbEntity
  8
0
  6
HIDDEN
 62
   174
100
AcDbLine
 10
277.071191
 20
418.614449
 30
0.0
 11
277.071191
 21
419.364449
 31
0.0
  0
LINE
  5
249
100
AcDbEntity
  8
0
  6
HIDDEN
 62
   174
100
AcDbLine
 10
484.821191
 20
418.614449
 30
0.0
 11
484.821191
 21
419.364449
 31
0.0
  0
LINE
  5
24A
100
AcDbEntity
  8
0
  6
HIDDEN
 62
   174
100
AcDbLine
 10
250.056052
 20
359.364449
 30
0.0
 11
263.554989
 21
359.364449
 31
0.0
  0
LINE
  5
24B
100
AcDbEntity
  8
0
  6
HIDDEN
 62
   174
100
AcDbLine
 10
528.321191
 20
419.364449
 30
0.0
 11
528.321191
 21
418.614449
 31
0.0
  0
LINE
  5
24C
100
AcDbEntity
  8
0
  6
HIDDEN
 62
   174
100
AcDbLine
 10
483.291519
 20
419.364449
 30
0.0
 11
484.076516
 21
419.364449
 31
0.0
  0
LINE
  5
24D
100
AcDbEntity
  8
0
  6
HIDDEN
 62
   174
100
AcDbLine
 10
314.571191
 20
418.614449
 30
0.0
 11
314.571191
 21
417.864449
 31
0.0
  0
LINE
  5
24E
100
AcDbEntity
  8
0
  6
HIDDEN
 62
   174
100
AcDbLine
 10
296.553124
 20
417.864449
 30
0.0
 11
314.552107
 21
417.864449
 31
0.0
  0
LINE
  5
24F
100
AcDbEntity
  8
0
  6
HIDDEN
 62
   174
100
AcDbLine
 10
326.551429
 20
418.614449
 30
0.0
 11
334.050704
 21
418.614449
 31
0.0
  0
LINE
  5
250
100
AcDbEntity
  8
0
  6
HIDDEN
 62
   174
100
AcDbLine
 10
381.473531
 20
419.364449
 30
0.0
 11
394.012425
 21
419.364449
 31
0.0
  0
LINE
  5
251
100
AcDbEntity
  8
0
  6
HIDDEN
 62
   174
100
AcDbLine
 10
328.071191
 20
419.364449
 30
0.0
 11
328.071191
 21
418.614449
 31
0.0
  0
LINE
  5
252
100
AcDbEntity
  8
0
  6
HIDDEN
 62
   174
100
AcDbLine
 10
351.321191
 20
419.364449
 30
0.0
 11
351.321191
 21
418.614449
 31
0.0
  0
LINE
  5
253
100
AcDbEntity
  8
0
  6
HIDDEN
 62
   174
100
AcDbLine
 10
401.546589
 20
418.614449
 30
0.0
 11
392.547098
 21
418.614449
 31
0.0
  0
LINE
  5
254
100
AcDbEntity
  8
0
  6
HIDDEN
 62
   174
100
AcDbLine
 10
526.071191
 20
418.614449
 30
0.0
 11
526.071191
 21
419.364449
 31
0.0
  0
LINE
  5
255
100
AcDbEntity
  8
0
  6
HIDDEN
 62
   174
100
AcDbLine
 10
468.321191
 20
418.614449
 30
0.0
 11
468.321191
 21
419.364449
 31
0.0
  0
LINE
  5
256
100
AcDbEntity
  8
0
  6
HIDDEN
 62
   174
100
AcDbLine
 10
561.321191
 20
419.364449
 30
0.0
 11
561.321191
 21
359.364449
 31
0.0
  0
LINE
  5
257
100
AcDbEntity
  8
0
  6
HIDDEN
 62
   174
100
AcDbLine
 10
547.787574
 20
419.364449
 30
0.0
 11
561.287112
 21
419.364449
 31
0.0
  0
LINE
  5
258
100
AcDbEntity
  8
0
  6
HIDDEN
 62
   174
100
AcDbLine
 10
381.297884
 20
418.614449
 30
0.0
 11
363.298901
 21
418.614449
 31
0.0
  0
LINE
  5
259
100
AcDbEntity
  8
0
  6
HIDDEN
 62
   174
100
AcDbLine
 10
448.219308
 20
419.364449
 30
0.0
 11
461.543199
 21
419.364449
 31
0.0
  0
LINE
  5
25A
100
AcDbEntity
  8
0
  6
HIDDEN
 62
   174
100
AcDbLine
 10
314.552107
 20
418.614449
 30
0.0
 11
296.553124
 21
418.614449
 31
0.0
  0
LINE
  5
25B
100
AcDbEntity
  8
0
  6
HIDDEN
 62
   174
100
AcDbLine
 10
328.071191
 20
419.364449
 30
0.0
 11
328.071191
 21
418.614449
 31
0.0
  0
LINE
  5
25C
100
AcDbEntity
  8
0
  6
HIDDEN
 62
   174
100
AcDbLine
 10
276.321191
 20
418.614449
 30
0.0
 11
276.321191
 21
419.364449
 31
0.0
  0
LINE
  5
25D
100
AcDbEntity
  8
0
  6
HIDDEN
 62
   174
100
AcDbLine
 10
352.071191
 20
418.614449
 30
0.0
 11
352.071191
 21
419.364449
 31
0.0
  0
LINE
  5
25E
100
AcDbEntity
  8
0
  6
HIDDEN
 62
   174
100
AcDbLine
 10
400.821191
 20
419.364449
 30
0.0
 11
400.821191
 21
418.614449
 31
0.0
  0
LINE
  5
25F
100
AcDbEntity
  8
0
  6
HIDDEN
 62
   174
100
AcDbLine
 10
416.571191
 20
419.364449
 30
0.0
 11
416.571191
 21
418.614449
 31
0.0
  0
LINE
  5
260
100
AcDbEntity
  8
0
  6
HIDDEN
 62
   174
100
AcDbLine
 10
296.377477
 20
419.364449
 30
0.0
 11
314.727754
 21
419.364449
 31
0.0
  0
LINE
  5
261
100
AcDbEntity
  8
0
  6
HIDDEN
 62
   174
100
AcDbLine
 10
477.321191
 20
418.614449
 30
0.0
 11
477.321191
 21
419.364449
 31
0.0
  0
LINE
  5
262
100
AcDbEntity
  8
0
  6
HIDDEN
 62
   174
100
AcDbLine
 10
349.821191
 20
419.364449
 30
0.0
 11
349.821191
 21
418.614449
 31
0.0
  0
LINE
  5
263
100
AcDbEntity
  8
0
  6
HIDDEN
 62
   174
100
AcDbLine
 10
528.321191
 20
419.364449
 30
0.0
 11
528.321191
 21
418.614449
 31
0.0
  0
LINE
  5
264
100
AcDbEntity
  8
0
  6
HIDDEN
 62
   174
100
AcDbLine
 10
496.61541
 20
419.364449
 30
0.0
 11
514.965085
 21
419.364449
 31
0.0
  0
LINE
  5
265
100
AcDbEntity
  8
0
  6
HIDDEN
 62
   174
100
AcDbLine
 10
277.071191
 20
419.364449
 30
0.0
 11
277.071191
 21
418.614449
 31
0.0
  0
LINE
  5
266
100
AcDbEntity
  8
0
  6
HIDDEN
 62
   174
100
AcDbLine
 10
349.799965
 20
418.614449
 30
0.0
 11
394.79682
 21
418.614449
 31
0.0
  0
LINE
  5
267
100
AcDbEntity
  8
0
  6
HIDDEN
 62
   174
100
AcDbLine
 10
296.571191
 20
418.614449
 30
0.0
 11
296.571191
 21
417.864449
 31
0.0
  0
LINE
  5
268
100
AcDbEntity
  8
0
  6
HIDDEN
 62
   174
100
AcDbLine
 10
394.71802
 20
419.364449
 30
0.0
 11
400.796481
 21
419.364449
 31
0.0
  0
LINE
  5
269
100
AcDbEntity
  8
0
  6
HIDDEN
 62
   174
100
AcDbLine
 10
468.292367
 20
419.364449
 30
0.0
 11
459.292875
 21
419.364449
 31
0.0
  0
LINE
  5
26A
100
AcDbEntity
  8
0
  6
HIDDEN
 62
   174
100
AcDbLine
 10
514.789438
 20
418.614449
 30
0.0
 11
496.791057
 21
418.614449
 31
0.0
  0
LINE
  5
26B
100
AcDbEntity
  8
0
  6
HIDDEN
 62
   174
100
AcDbLine
 10
417.330739
 20
419.364449
 30
0.0
 11
429.869633
 21
419.364449
 31
0.0
  0
LINE
  5
26C
100
AcDbEntity
  8
0
  6
HIDDEN
 62
   174
100
AcDbLine
 10
283.071191
 20
419.364449
 30
0.0
 11
283.071191
 21
418.614449
 31
0.0
  0
LINE
  5
26D
100
AcDbEntity
  8
0
  6
HIDDEN
 62
   174
100
AcDbLine
 10
343.071191
 20
418.614449
 30
0.0
 11
343.071191
 21
419.364449
 31
0.0
  0
LINE
  5
26E
100
AcDbEntity
  8
0
  6
HIDDEN
 62
   174
100
AcDbLine
 10
352.071191
 20
418.614449
 30
0.0
 11
352.071191
 21
419.364449
 31
0.0
  0
LINE
  5
26F
100
AcDbEntity
  8
0
  6
HIDDEN
 62
   174
100
AcDbLine
 10
547.821191
 20
419.364449
 30
0.0
 11
547.821191
 21
359.364449
 31
0.0
  0
LINE
  5
270
100
AcDbEntity
  8
0
  6
HIDDEN
 62
   174
100
AcDbLine
 10
547.821191
 20
419.364449
 30
0.0
 11
547.821191
 21
359.364449
 31
0.0
  0
LINE
  5
271
100
AcDbEntity
  8
0
  6
HIDDEN
 62
   174
100
AcDbLine
 10
484.076516
 20
419.364449
 30
0.0
 11
496.61541
 21
419.364449
 31
0.0
  0
LINE
  5
272
100
AcDbEntity
  8
0
  6
HIDDEN
 62
   174
100
AcDbLine
 10
483.321191
 20
419.364449
 30
0.0
 11
483.321191
 21
418.614449
 31
0.0
  0
LINE
  5
273
100
AcDbEntity
  8
0
  6
HIDDEN
 62
   174
100
AcDbLine
 10
283.054188
 20
419.364449
 30
0.0
 11
283.838583
 21
419.364449
 31
0.0
  0
LINE
  5
274
100
AcDbEntity
  8
0
  6
HIDDEN
 62
   174
100
AcDbLine
 10
401.571191
 20
418.614449
 30
0.0
 11
401.571191
 21
419.364449
 31
0.0
  0
LINE
  5
275
100
AcDbEntity
  8
0
  6
HIDDEN
 62
   174
100
AcDbLine
 10
448.043661
 20
418.614449
 30
0.0
 11
430.044678
 21
418.614449
 31
0.0
  0
LINE
  5
276
100
AcDbEntity
  8
0
  6
HIDDEN
 62
   174
100
AcDbLine
 10
461.571191
 20
419.364449
 30
0.0
 11
461.571191
 21
418.614449
 31
0.0
  0
LINE
  5
277
100
AcDbEntity
  8
0
  6
HIDDEN
 62
   174
100
AcDbLine
 10
484.076516
 20
419.364449
 30
0.0
 11
496.61541
 21
419.364449
 31
0.0
  0
LINE
  5
278
100
AcDbEntity
  8
0
  6
HIDDEN
 62
   174
100
AcDbLine
 10
392.571191
 20
418.614449
 30
0.0
 11
392.571191
 21
419.364449
 31
0.0
  0
LINE
  5
279
100
AcDbEntity
  8
0
  6
HIDDEN
 62
   174
100
AcDbLine
 10
534.321191
 20
419.364449
 30
0.0
 11
534.321191
 21
418.614449
 31
0.0
  0
LINE
  5
27A
100
AcDbEntity
  8
0
  6
HIDDEN
 62
   174
100
AcDbLine
 10
477.321191
 20
419.364449
 30
0.0
 11
477.321191
 21
418.614449
 31
0.0
  0
LINE
  5
27B
100
AcDbEntity
  8
0
  6
HIDDEN
 62
   174
100
AcDbLine
 10
394.821191
 20
419.364449
 30
0.0
 11
394.821191
 21
418.614449
 31
0.0
  0
LINE
  5
27C
100
AcDbEntity
  8
0
  6
HIDDEN
 62
   174
100
AcDbLine
 10
483.321191
 20
419.364449
 30
0.0
 11
483.321191
 21
418.614449
 31
0.0
  0
LINE
  5
27D
100
AcDbEntity
  8
0
  6
HIDDEN
 62
   174
100
AcDbLine
 10
394.012425
 20
419.364449
 30
0.0
 11
394.79682
 21
419.364449
 31
0.0
  0
LINE
  5
27E
100
AcDbEntity
  8
0
  6
HIDDEN
 62
   174
100
AcDbLine
 10
477.291858
 20
418.614449
 30
0.0
 11
484.791735
 21
418.614449
 31
0.0
  0
LINE
  5
27F
100
AcDbEntity
  8
0
  6
HIDDEN
 62
   174
100
AcDbLine
 10
363.321191
 20
418.614449
 30
0.0
 11
363.321191
 21
417.864449
 31
0.0
  0
LINE
  5
280
100
AcDbEntity
  8
0
  6
HIDDEN
 62
   174
100
AcDbLine
 10
284.571191
 20
419.364449
 30
0.0
 11
284.571191
 21
418.614449
 31
0.0
  0
LINE
  5
281
100
AcDbEntity
  8
0
  6
HIDDEN
 62
   174
100
AcDbLine
 10
250.056052
 20
359.364449
 30
0.0
 11
263.554989
 21
359.364449
 31
0.0
  0
LINE
  5
282
100
AcDbEntity
  8
0
  6
HIDDEN
 62
   174
100
AcDbLine
 10
314.571191
 20
418.614449
 30
0.0
 11
314.571191
 21
417.864449
 31
0.0
  0
LINE
  5
283
100
AcDbEntity
  8
0
  6
HIDDEN
 62
   174
100
AcDbLine
 10
314.552107
 20
418.614449
 30
0.0
 11
296.553124
 21
418.614449
 31
0.0
  0
LINE
  5
284
100
AcDbEntity
  8
0
  6
HIDDEN
 62
   174
100
AcDbLine
 10
477.291858
 20
419.364449
 30
0.0
 11
484.791735
 21
419.364449
 31
0.0
  0
LINE
  5
285
100
AcDbEntity
  8
0
  6
HIDDEN
 62
   174
100
AcDbLine
 10
410.571191
 20
418.614449
 30
0.0
 11
410.571191
 21
419.364449
 31
0.0
  0
LINE
  5
286
100
AcDbEntity
  8
0
  6
HIDDEN
 62
   174
100
AcDbLine
 10
561.321191
 20
419.364449
 30
0.0
 11
561.321191
 21
359.364449
 31
0.0
  0
LINE
  5
287
100
AcDbEntity
  8
0
  6
HIDDEN
 62
   174
100
AcDbLine
 10
328.071191
 20
419.364449
 30
0.0
 11
328.071191
 21
418.614449
 31
0.0
  0
LINE
  5
288
100
AcDbEntity
  8
0
  6
HIDDEN
 62
   174
100
AcDbLine
 10
561.321191
 20
419.364449
 30
0.0
 11
561.321191
 21
359.364449
 31
0.0
  0
LINE
  5
289
100
AcDbEntity
  8
0
  6
HIDDEN
 62
   174
100
AcDbLine
 10
349.799965
 20
418.614449
 30
0.0
 11
394.79682
 21
418.614449
 31
0.0
  0
LINE
  5
28A
100
AcDbEntity
  8
0
  6
HIDDEN
 62
   174
100
AcDbLine
 10
416.545742
 20
419.364449
 30
0.0
 11
417.330739
 21
419.364449
 31
0.0
  0
LINE
  5
28B
100
AcDbEntity
  8
0
  6
HIDDEN
 62
   174
100
AcDbLine
 10
514.965085
 20
419.364449
 30
0.0
 11
527.503979
 21
419.364449
 31
0.0
  0
LINE
  5
28C
100
AcDbEntity
  8
0
  6
HIDDEN
 62
   174
100
AcDbLine
 10
283.054188
 20
418.614449
 30
0.0
 11
328.051043
 21
418.614449
 31
0.0
  0
LINE
  5
28D
100
AcDbEntity
  8
0
  6
HIDDEN
 62
   174
100
AcDbLine
 10
314.727754
 20
419.364449
 30
0.0
 11
328.051043
 21
419.364449
 31
0.0
  0
LINE
  5
28E
100
AcDbEntity
  8
0
  6
HIDDEN
 62
   174
100
AcDbLine
 10
496.821191
 20
418.614449
 30
0.0
 11
496.821191
 21
417.864449
 31
0.0
  0
LINE
  5
28F
100
AcDbEntity
  8
0
  6
HIDDEN
 62
   174
100
AcDbLine
 10
468.292367
 20
418.614449
 30
0.0
 11
459.292875
 21
418.614449
 31
0.0
  0
LINE
  5
290
100
AcDbEntity
  8
0
  6
HIDDEN
 62
   174
100
AcDbLine
 10
250.071191
 20
419.364449
 30
0.0
 11
250.071191
 21
359.364449
 31
0.0
  0
LINE
  5
291
100
AcDbEntity
  8
0
  6
HIDDEN
 62
   174
100
AcDbLine
 10
528.321191
 20
419.364449
 30
0.0
 11
528.321191
 21
418.614449
 31
0.0
  0
LINE
  5
292
100
AcDbEntity
  8
0
  6
HIDDEN
 62
   174
100
AcDbLine
 10
238.821191
 20
389.449218
 30
0.0
 11
238.821191
 21
407.073448
 31
0.0
  0
LINE
  5
293
100
AcDbEntity
  8
0
  6
HIDDEN
 62
   174
100
AcDbLine
 10
296.571191
 20
418.614449
 30
0.0
 11
296.571191
 21
417.864449
 31
0.0
  0
LINE
  5
294
100
AcDbEntity
  8
0
  6
HIDDEN
 62
   174
100
AcDbLine
 10
401.546589
 20
419.364449
 30
0.0
 11
392.547098
 21
419.364449
 31
0.0
  0
LINE
  5
295
100
AcDbEntity
  8
0
  6
HIDDEN
 62
   174
100
AcDbLine
 10
416.571191
 20
419.364449
 30
0.0
 11
416.571191
 21
418.614449
 31
0.0
  0
LINE
  5
296
100
AcDbEntity
  8
0
  6
HIDDEN
 62
   174
100
AcDbLine
 10
429.869633
 20
419.364449
 30
0.0
 11
448.219308
 21
419.364449
 31
0.0
  0
LINE
  5
297
100
AcDbEntity
  8
0
  6
HIDDEN
 62
   174
100
AcDbLine
 10
401.571191
 20
418.614449
 30
0.0
 11
401.571191
 21
419.364449
 31
0.0
  0
LINE
  5
298
100
AcDbEntity
  8
0
  6
HIDDEN
 62
   174
100
AcDbLine
 10
526.821191
 20
419.364449
 30
0.0
 11
526.821191
 21
418.614449
 31
0.0
  0
LINE
  5
299
100
AcDbEntity
  8
0
  6
HIDDEN
 62
   174
100
AcDbLine
 10
484.821191
 20
419.364449
 30
0.0
 11
484.821191
 21
418.614449
 31
0.0
  0
LINE
  5
29A
100
AcDbEntity
  8
0
  6
Continuous
 62
   174
100
AcDbLine
 10
238.821191
 20
359.364449
 30
0.0
 11
238.821191
 21
419.364449
 31
0.0
  0
LINE
  5
29B
100
AcDbEntity
  8
0
  6
HIDDEN
 62
   174
100
AcDbLine
 10
528.321191
 20
419.364449
 30
0.0
 11
528.321191
 21
418.614449
 31
0.0
  0
LINE
  5
29C
100
AcDbEntity
  8
0
  6
HIDDEN
 62
   174
100
AcDbLine
 10
496.61541
 20
419.364449
 30
0.0
 11
514.965085
 21
419.364449
 31
0.0
  0
LINE
  5
29D
100
AcDbEntity
  8
0
  6
HIDDEN
 62
   174
100
AcDbLine
 10
381.321191
 20
418.614449
 30
0.0
 11
381.321191
 21
417.864449
 31
0.0
  0
LINE
  5
29E
100
AcDbEntity
  8
0
  6
HIDDEN
 62
   174
100
AcDbLine
 10
277.071191
 20
419.364449
 30
0.0
 11
277.071191
 21
418.614449
 31
0.0
  0
LINE
  5
29F
100
AcDbEntity
  8
0
  6
HIDDEN
 62
   174
100
AcDbLine
 10
467.571191
 20
418.614449
 30
0.0
 11
467.571191
 21
419.364449
 31
0.0
  0
LINE
  5
2A0
100
AcDbEntity
  8
0
  6
HIDDEN
 62
   174
100
AcDbLine
 10
283.838583
 20
419.364449
 30
0.0
 11
296.377477
 21
419.364449
 31
0.0
  0
LINE
  5
2A1
100
AcDbEntity
  8
0
  6
HIDDEN
 62
   174
100
AcDbLine
 10
343.800304
 20
419.364449
 30
0.0
 11
351.299579
 21
419.364449
 31
0.0
  0
LINE
  5
2A2
100
AcDbEntity
  8
0
  6
HIDDEN
 62
   174
100
AcDbLine
 10
418.071191
 20
418.614449
 30
0.0
 11
418.071191
 21
419.364449
 31
0.0
  0
LINE
  5
2A3
100
AcDbEntity
  8
0
  6
HIDDEN
 62
   174
100
AcDbLine
 10
496.61541
 20
419.364449
 30
0.0
 11
514.965085
 21
419.364449
 31
0.0
  0
LINE
  5
2A4
100
AcDbEntity
  8
0
  6
HIDDEN
 62
   174
100
AcDbLine
 10
250.071191
 20
419.364449
 30
0.0
 11
250.071191
 21
359.364449
 31
0.0
  0
LINE
  5
2A5
100
AcDbEntity
  8
0
  6
HIDDEN
 62
   174
100
AcDbLine
 10
349.821191
 20
419.364449
 30
0.0
 11
349.821191
 21
418.614449
 31
0.0
  0
LINE
  5
2A6
100
AcDbEntity
  8
0
  6
HIDDEN
 62
   174
100
AcDbLine
 10
296.553124
 20
417.864449
 30
0.0
 11
314.552107
 21
417.864449
 31
0.0
  0
LINE
  5
2A7
100
AcDbEntity
  8
0
  6
HIDDEN
 62
   174
100
AcDbLine
 10
514.821191
 20
418.614449
 30
0.0
 11
514.821191
 21
417.864449
 31
0.0
  0
LINE
  5
2A8
100
AcDbEntity
  8
0
  6
HIDDEN
 62
   174
100
AcDbLine
 10
263.571191
 20
419.364449
 30
0.0
 11
263.571191
 21
359.364449
 31
0.0
  0
LINE
  5
2A9
100
AcDbEntity
  8
0
  6
HIDDEN
 62
   174
100
AcDbLine
 10
483.321191
 20
419.364449
 30
0.0
 11
483.321191
 21
418.614449
 31
0.0
  0
LINE
  5
2AA
100
AcDbEntity
  8
0
  6
HIDDEN
 62
   174
100
AcDbLine
 10
349.799965
 20
419.364449
 30
0.0
 11
350.58436
 21
419.364449
 31
0.0
  0
LINE
  5
2AB
100
AcDbEntity
  8
0
  6
HIDDEN
 62
   174
100
AcDbLine
 10
314.571191
 20
418.614449
 30
0.0
 11
314.571191
 21
417.864449
 31
0.0
  0
LINE
  5
2AC
100
AcDbEntity
  8
0
  6
HIDDEN
 62
   174
100
AcDbLine
 10
547.821191
 20
419.364449
 30
0.0
 11
547.821191
 21
359.364449
 31
0.0
  0
LINE
  5
2AD
100
AcDbEntity
  8
0
  6
HIDDEN
 62
   174
100
AcDbLine
 10
416.545742
 20
418.614449
 30
0.0
 11
461.543199
 21
418.614449
 31
0.0
  0
LINE
  5
2AE
100
AcDbEntity
  8
0
  6
HIDDEN
 62
   174
100
AcDbLine
 10
461.571191
 20
419.364449
 30
0.0
 11
461.571191
 21
418.614449
 31
0.0
  0
LINE
  5
2AF
100
AcDbEntity
  8
0
  6
HIDDEN
 62
   174
100
AcDbLine
 10
283.071191
 20
419.364449
 30
0.0
 11
283.071191
 21
418.614449
 31
0.0
  0
LINE
  5
2B0
100
AcDbEntity
  8
0
  6
HIDDEN
 62
   174
100
AcDbLine
 10
392.571191
 20
418.614449
 30
0.0
 11
392.571191
 21
419.364449
 31
0.0
  0
LINE
  5
2B1
100
AcDbEntity
  8
0
  6
HIDDEN
 62
   174
100
AcDbLine
 10
534.321191
 20
419.364449
 30
0.0
 11
534.321191
 21
418.614449
 31
0.0
  0
LINE
  5
2B2
100
AcDbEntity
  8
0
  6
HIDDEN
 62
   174
100
AcDbLine
 10
459.321191
 20
418.614449
 30
0.0
 11
459.321191
 21
419.364449
 31
0.0
  0
LINE
  5
2B3
100
AcDbEntity
  8
0
  6
HIDDEN
 62
   174
100
AcDbLine
 10
477.321191
 20
419.364449
 30
0.0
 11
477.321191
 21
418.614449
 31
0.0
  0
LINE
  5
2B4
100
AcDbEntity
  8
0
  6
HIDDEN
 62
   174
100
AcDbLine
 10
349.799965
 20
419.364449
 30
0.0
 11
350.58436
 21
419.364449
 31
0.0
  0
LINE
  5
2B5
100
AcDbEntity
  8
0
  6
HIDDEN
 62
   174
100
AcDbLine
 10
283.054188
 20
419.364449
 30
0.0
 11
283.838583
 21
419.364449
 31
0.0
  0
LINE
  5
2B6
100
AcDbEntity
  8
0
  6
HIDDEN
 62
   174
100
AcDbLine
 10
363.321191
 20
418.614449
 30
0.0
 11
363.321191
 21
417.864449
 31
0.0
  0
LINE
  5
2B7
100
AcDbEntity
  8
0
  6
HIDDEN
 62
   174
100
AcDbLine
 10
284.571191
 20
419.364449
 30
0.0
 11
284.571191
 21
418.614449
 31
0.0
  0
LINE
  5
2B8
100
AcDbEntity
  8
0
  6
HIDDEN
 62
   174
100
AcDbLine
 10
351.321191
 20
418.614449
 30
0.0
 11
351.321191
 21
419.364449
 31
0.0
  0
LINE
  5
2B9
100
AcDbEntity
  8
0
  6
HIDDEN
 62
   174
100
AcDbLine
 10
460.071191
 20
418.614449
 30
0.0
 11
460.071191
 21
419.364449
 31
0.0
  0
LINE
  5
2BA
100
AcDbEntity
  8
0
  6
HIDDEN
 62
   174
100
AcDbLine
 10
381.297884
 20
418.614449
 30
0.0
 11
363.298901
 21
418.614449
 31
0.0
  0
LINE
  5
2BB
100
AcDbEntity
  8
0
  6
HIDDEN
 62
   174
100
AcDbLine
 10
417.330739
 20
419.364449
 30
0.0
 11
429.869633
 21
419.364449
 31
0.0
  0
LINE
  5
2BC
100
AcDbEntity
  8
0
  6
HIDDEN
 62
   174
100
AcDbLine
 10
238.821191
 20
371.824988
 30
0.0
 11
238.821191
 21
389.449218
 31
0.0
  0
LINE
  5
2BD
100
AcDbEntity
  8
0
  6
HIDDEN
 62
   174
100
AcDbLine
 10
460.042983
 20
418.614449
 30
0.0
 11
467.54286
 21
418.614449
 31
0.0
  0
LINE
  5
2BE
100
AcDbEntity
  8
0
  6
HIDDEN
 62
   174
100
AcDbLine
 10
526.78876
 20
419.364449
 30
0.0
 11
528.209574
 21
419.364449
 31
0.0
  0
LINE
  5
2BF
100
AcDbEntity
  8
0
  6
HIDDEN
 62
   174
100
AcDbLine
 10
410.571191
 20
418.614449
 30
0.0
 11
410.571191
 21
419.364449
 31
0.0
  0
LINE
  5
2C0
100
AcDbEntity
  8
0
  6
Continuous
 62
   174
100
AcDbLine
 10
572.571191
 20
359.364449
 30
0.0
 11
572.571191
 21
419.364449
 31
0.0
  0
LINE
  5
2C1
100
AcDbEntity
  8
0
  6
HIDDEN
 62
   174
100
AcDbLine
 10
263.571191
 20
419.364449
 30
0.0
 11
263.571191
 21
359.364449
 31
0.0
  0
LINE
  5
2C2
100
AcDbEntity
  8
0
  6
HIDDEN
 62
   174
100
AcDbLine
 10
394.821191
 20
419.364449
 30
0.0
 11
394.821191
 21
418.614449
 31
0.0
  0
LINE
  5
2C3
100
AcDbEntity
  8
0
  6
HIDDEN
 62
   174
100
AcDbLine
 10
448.219308
 20
419.364449
 30
0.0
 11
461.543199
 21
419.364449
 31
0.0
  0
LINE
  5
2C4
100
AcDbEntity
  8
0
  6
HIDDEN
 62
   174
100
AcDbLine
 10
296.571191
 20
418.614449
 30
0.0
 11
296.571191
 21
417.864449
 31
0.0
  0
LINE
  5
2C5
100
AcDbEntity
  8
0
  6
HIDDEN
 62
   174
100
AcDbLine
 10
526.78876
 20
418.614449
 30
0.0
 11
534.288637
 21
418.614449
 31
0.0
  0
ENDBLK
  5
2C6
100
AcDbEntity
  8
0
100
AcDbBlockEnd
  0
BLOCK
  5
2C9
100
AcDbEntity
  8
0
100
AcDbBlockBegin
  2
*B3
 70
     0
 10
0.0
 20
0.0
 30
0.0
  3
*B3
  1

  0
LINE
  5
2CA
100
AcDbEntity
  8
0
  6
HIDDEN
 62
   172
100
AcDbLine
 10
406.071191
 20
527.364449
 30
0.0
 11
406.071191
 21
419.364449
 31
0.0
  0
LINE
  5
2CB
100
AcDbEntity
  8
0
  6
HIDDEN
 62
   172
100
AcDbLine
 10
472.071191
 20
527.364449
 30
0.0
 11
406.071191
 21
527.364449
 31
0.0
  0
LINE
  5
2CC
100
AcDbEntity
  8
0
  6
HIDDEN
 62
   172
100
AcDbLine
 10
472.071191
 20
419.364449
 30
0.0
 11
472.071191
 21
527.364449
 31
0.0
  0
LINE
  5
2CD
100
AcDbEntity
  8
0
  6
HIDDEN
 62
   172
100
AcDbLine
 10
406.071191
 20
419.364449
 30
0.0
 11
472.071191
 21
419.364449
 31
0.0
  0
LINE
  5
2CE
100
AcDbEntity
  8
0
  6
HIDDEN
 62
   172
100
AcDbLine
 10
339.321191
 20
527.364449
 30
0.0
 11
339.321191
 21
419.364449
 31
0.0
  0
LINE
  5
2CF
100
AcDbEntity
  8
0
  6
HIDDEN
 62
   172
100
AcDbLine
 10
405.321191
 20
527.364449
 30
0.0
 11
339.321191
 21
527.364449
 31
0.0
  0
LINE
  5
2D0
100
AcDbEntity
  8
0
  6
HIDDEN
 62
   172
100
AcDbLine
 10
405.321191
 20
419.364449
 30
0.0
 11
405.321191
 21
527.364449
 31
0.0
  0
LINE
  5
2D1
100
AcDbEntity
  8
0
  6
HIDDEN
 62
   172
100
AcDbLine
 10
339.321191
 20
419.364449
 30
0.0
 11
405.321191
 21
419.364449
 31
0.0
  0
LINE
  5
2D2
100
AcDbEntity
  8
0
  6
HIDDEN
 62
   172
100
AcDbLine
 10
272.571191
 20
527.364449
 30
0.0
 11
272.571191
 21
419.364449
 31
0.0
  0
LINE
  5
2D3
100
AcDbEntity
  8
0
  6
HIDDEN
 62
   172
100
AcDbLine
 10
338.571191
 20
527.364449
 30
0.0
 11
272.571191
 21
527.364449
 31
0.0
  0
LINE
  5
2D4
100
AcDbEntity
  8
0
  6
HIDDEN
 62
   172
100
AcDbLine
 10
338.571191
 20
419.364449
 30
0.0
 11
338.571191
 21
527.364449
 31
0.0
  0
LINE
  5
2D5
100
AcDbEntity
  8
0
  6
HIDDEN
 62
   172
100
AcDbLine
 10
272.571191
 20
419.364449
 30
0.0
 11
338.571191
 21
419.364449
 31
0.0
  0
LINE
  5
2D6
100
AcDbEntity
  8
0
  6
HIDDEN
 62
   172
100
AcDbLine
 10
472.821191
 20
419.364449
 30
0.0
 11
538.821191
 21
419.364449
 31
0.0
  0
LINE
  5
2D7
100
AcDbEntity
  8
0
  6
HIDDEN
 62
   172
100
AcDbLine
 10
538.821191
 20
527.364449
 30
0.0
 11
472.821191
 21
527.364449
 31
0.0
  0
LINE
  5
2D8
100
AcDbEntity
  8
0
  6
HIDDEN
 62
   172
100
AcDbLine
 10
538.821191
 20
419.364449
 30
0.0
 11
538.821191
 21
527.364449
 31
0.0
  0
LINE
  5
2D9
100
AcDbEntity
  8
0
  6
HIDDEN
 62
   172
100
AcDbLine
 10
472.821191
 20
527.364449
 30
0.0
 11
472.821191
 21
419.364449
 31
0.0
  0
ENDBLK
  5
2DA
100
AcDbEntity
  8
0
100
AcDbBlockEnd
  0
BLOCK
  5
2DD
100
AcDbEntity
  8
0
100
AcDbBlockBegin
  2
*B4
 70
     0
 10
0.0
 20
0.0
 30
0.0
  3
*B4
  1

  0
LINE
  5
2DE
100
AcDbEntity
  8
0
  6
Continuous
 62
     0
100
AcDbLine
 10
530.538699
 20
295.089
 30
0.0
 11
598.27279
 21
295.089
 31
0.0
  0
SOLID
  5
2DF
100
AcDbEntity
  8
0
  6
Continuous
 62
     0
100
AcDbTrace
 10
542.538021
 20
292.589041
 30
0.0
 11
554.537343
 21
295.089
 31
0.0
 12
542.538021
 22
297.588959
 32
0.0
 13
542.538021
 23
297.588959
 33
0.0
  0
SOLID
  5
2E0
100
AcDbEntity
  8
0
  6
Continuous
 62
     0
100
AcDbTrace
 10
584.535647
 20
297.588959
 30
0.0
 11
572.536325
 21
295.089
 31
0.0
 12
584.535647
 22
292.589041
 32
0.0
 13
584.535647
 23
292.589041
 33
0.0
  0
ENDBLK
  5
2E1
100
AcDbEntity
  8
0
100
AcDbBlockEnd
  0
BLOCK
  5
2E4
100
AcDbEntity
  8
0
100
AcDbBlockBegin
  2
*B5
 70
     0
 10
0.0
 20
0.0
 30
0.0
  3
*B5
  1

  0
LINE
  5
2E5
100
AcDbEntity
  8
0
  6
Continuous
 62
     0
100
AcDbLine
 10
505.789947
 20
325.087906
 30
0.0
 11
572.536325
 21
325.087906
 31
0.0
  0
SOLID
  5
2E6
100
AcDbEntity
  8
0
  6
Continuous
 62
     0
100
AcDbTrace
 10
517.789269
 20
327.587264
 30
0.0
 11
505.789947
 21
325.087906
 31
0.0
 12
517.789269
 22
322.587947
 32
0.0
 13
517.789269
 23
322.587947
 33
0.0
  0
SOLID
  5
2E7
100
AcDbEntity
  8
0
  6
Continuous
 62
     0
100
AcDbTrace
 10
560.537004
 20
322.587947
 30
0.0
 11
572.536325
 21
325.087906
 31
0.0
 12
560.537004
 22
327.587264
 32
0.0
 13
560.537004
 23
327.587264
 33
0.0
  0
ENDBLK
  5
2E8
100
AcDbEntity
  8
0
100
AcDbBlockEnd
  0
BLOCK
  5
2EB
100
AcDbEntity
  8
0
100
AcDbBlockBegin
  2
*B6
 70
     0
 10
0.0
 20
0.0
 30
0.0
  3
*B6
  1

  0
LINE
  5
2EC
100
AcDbEntity
  8
0
  6
Continuous
 62
     0
100
AcDbLine
 10
280.803864
 20
295.089
 30
0.0
 11
208.17813
 21
295.089
 31
0.0
  0
SOLID
  5
2ED
100
AcDbEntity
  8
0
  6
Continuous
 62
     0
100
AcDbTrace
 10
268.804542
 20
297.588959
 30
0.0
 11
256.805821
 21
295.089
 31
0.0
 12
268.804542
 22
292.589041
 32
0.0
 13
268.804542
 23
292.589041
 33
0.0
  0
SOLID
  5
2EE
100
AcDbEntity
  8
0
  6
Continuous
 62
     0
100
AcDbTrace
 10
226.807516
 20
292.589041
 30
0.0
 11
238.806838
 21
295.089
 31
0.0
 12
226.807516
 22
297.588959
 32
0.0
 13
226.807516
 23
297.588959
 33
0.0
  0
ENDBLK
  5
2EF
100
AcDbEntity
  8
0
100
AcDbBlockEnd
  0
BLOCK
  5
2F2
100
AcDbEntity
  8
0
100
AcDbBlockBegin
  2
*B7
 70
     0
 10
0.0
 20
0.0
 30
0.0
  3
*B7
  1

  0
LINE
  5
2F3
100
AcDbEntity
  8
0
  6
Continuous
 62
     0
100
AcDbLine
 10
523.78893
 20
448.784145
 30
0.0
 11
609.586367
 21
448.784145
 31
0.0
  0
SOLID
  5
2F4
100
AcDbEntity
  8
0
  6
Continuous
 62
     0
100
AcDbTrace
 10
535.788252
 20
446.284186
 30
0.0
 11
547.787574
 21
448.784145
 31
0.0
 12
535.788252
 22
451.284104
 32
0.0
 13
535.788252
 23
451.284104
 33
0.0
  0
SOLID
  5
2F5
100
AcDbEntity
  8
0
  6
Continuous
 62
     0
100
AcDbTrace
 10
573.285832
 20
451.284104
 30
0.0
 11
561.287112
 21
448.784145
 31
0.0
 12
573.285832
 22
446.284186
 32
0.0
 13
573.285832
 23
446.284186
 33
0.0
  0
ENDBLK
  5
2F6
100
AcDbEntity
  8
0
100
AcDbBlockEnd
  0
BLOCK
  5
2F9
100
AcDbEntity
  8
0
100
AcDbBlockBegin
  2
*B8
 70
     0
 10
0.0
 20
0.0
 30
0.0
  3
*B8
  1

  0
LINE
  5
2FA
100
AcDbEntity
  8
0
  6
Continuous
 62
     0
100
AcDbLine
 10
603.963264
 20
203.27566
 30
0.0
 11
603.963264
 21
137.278788
 31
0.0
  0
SOLID
  5
2FB
100
AcDbEntity
  8
0
  6
Continuous
 62
     0
100
AcDbTrace
 10
606.462622
 20
191.276338
 30
0.0
 11
603.963264
 21
203.27566
 31
0.0
 12
601.463305
 22
191.276338
 32
0.0
 13
601.463305
 23
191.276338
 33
0.0
  0
SOLID
  5
2FC
100
AcDbEntity
  8
0
  6
Continuous
 62
     0
100
AcDbTrace
 10
601.463305
 20
149.27811
 30
0.0
 11
603.963264
 21
137.278788
 31
0.0
 12
606.462622
 22
149.27811
 32
0.0
 13
606.462622
 23
149.27811
 33
0.0
  0
ENDBLK
  5
2FD
100
AcDbEntity
  8
0
100
AcDbBlockEnd
  0
BLOCK
  5
300
100
AcDbEntity
  8
0
100
AcDbBlockBegin
  2
*B9
 70
     0
 10
0.0
 20
0.0
 30
0.0
  3
*B9
  1

  0
LINE
  5
301
100
AcDbEntity
  8
0
  6
Continuous
 62
     0
100
AcDbLine
 10
665.95936
 20
245.273287
 30
0.0
 11
665.95936
 21
95.280559
 31
0.0
  0
SOLID
  5
302
100
AcDbEntity
  8
0
  6
Continuous
 62
     0
100
AcDbTrace
 10
668.459319
 20
233.273965
 30
0.0
 11
665.95936
 21
245.273287
 31
0.0
 12
663.459401
 22
233.273965
 32
0.0
 13
663.459401
 23
233.273965
 33
0.0
  0
SOLID
  5
303
100
AcDbEntity
  8
0
  6
Continuous
 62
     0
100
AcDbTrace
 10
663.459401
 20
107.279881
 30
0.0
 11
665.95936
 21
95.280559
 31
0.0
 12
668.459319
 22
107.279881
 32
0.0
 13
668.459319
 23
107.279881
 33
0.0
  0
ENDBLK
  5
304
100
AcDbEntity
  8
0
100
AcDbBlockEnd
  0
BLOCK
  5
307
100
AcDbEntity
  8
0
100
AcDbBlockBegin
  2
*B10
 70
     0
 10
0.0
 20
0.0
 30
0.0
  3
*B10
  1

  0
LINE
  5
308
100
AcDbEntity
  8
0
  6
Continuous
 62
     0
100
AcDbLine
 10
207.987445
 20
128.654049
 30
0.0
 11
207.987445
 21
256.995905
 31
0.0
  0
SOLID
  5
309
100
AcDbEntity
  8
0
  6
Continuous
 62
     0
100
AcDbTrace
 10
210.487404
 20
140.653371
 30
0.0
 11
207.987445
 21
152.652693
 31
0.0
 12
205.487486
 22
140.653371
 32
0.0
 13
205.487486
 23
140.653371
 33
0.0
  0
SOLID
  5
30A
100
AcDbEntity
  8
0
  6
Continuous
 62
     0
100
AcDbTrace
 10
205.487486
 20
199.900475
 30
0.0
 11
207.987445
 21
187.901153
 31
0.0
 12
210.487404
 22
199.900475
 32
0.0
 13
210.487404
 23
199.900475
 33
0.0
  0
ENDBLK
  5
30B
100
AcDbEntity
  8
0
100
AcDbBlockEnd
  0
BLOCK
  5
30E
100
AcDbEntity
  8
0
100
AcDbBlockBegin
  2
*B11
 70
     0
 10
0.0
 20
0.0
 30
0.0
  3
*B11
  1

  0
LINE
  5
30F
100
AcDbEntity
  8
0
  6
Continuous
 62
     0
100
AcDbLine
 10
173.989567
 20
236.273795
 30
0.0
 11
173.989567
 21
170.276923
 31
0.0
  0
SOLID
  5
310
100
AcDbEntity
  8
0
  6
Continuous
 62
     0
100
AcDbTrace
 10
176.489526
 20
224.274473
 30
0.0
 11
173.989567
 21
236.273795
 31
0.0
 12
171.489608
 22
224.274473
 32
0.0
 13
171.489608
 23
224.274473
 33
0.0
  0
SOLID
  5
311
100
AcDbEntity
  8
0
  6
Continuous
 62
     0
100
AcDbTrace
 10
171.489608
 20
182.276245
 30
0.0
 11
173.989567
 21
170.276923
 31
0.0
 12
176.489526
 22
182.276245
 32
0.0
 13
176.489526
 23
182.276245
 33
0.0
  0
ENDBLK
  5
312
100
AcDbEntity
  8
0
100
AcDbBlockEnd
  0
BLOCK
  5
315
100
AcDbEntity
  8
0
100
AcDbBlockBegin
  2
*B12
 70
     0
 10
0.0
 20
0.0
 30
0.0
  3
*B12
  1

  0
LINE
  5
316
100
AcDbEntity
  8
0
  6
Continuous
 62
     0
100
AcDbLine
 10
173.989567
 20
170.276923
 30
0.0
 11
173.989567
 21
104.280051
 31
0.0
  0
SOLID
  5
317
100
AcDbEntity
  8
0
  6
Continuous
 62
     0
100
AcDbTrace
 10
176.489526
 20
158.277601
 30
0.0
 11
173.989567
 21
170.276923
 31
0.0
 12
171.489608
 22
158.277601
 32
0.0
 13
171.489608
 23
158.277601
 33
0.0
  0
SOLID
  5
318
100
AcDbEntity
  8
0
  6
Continuous
 62
     0
100
AcDbTrace
 10
171.489608
 20
116.279373
 30
0.0
 11
173.989567
 21
104.280051
 31
0.0
 12
176.489526
 22
116.279373
 32
0.0
 13
176.489526
 23
116.279373
 33
0.0
  0
ENDBLK
  5
319
100
AcDbEntity
  8
0
100
AcDbBlockEnd
  0
BLOCK
  5
31C
100
AcDbEntity
  8
0
100
AcDbBlockBegin
  2
*B13
 70
     0
 10
0.0
 20
0.0
 30
0.0
  3
*B13
  1

  0
LINE
  5
31D
100
AcDbEntity
  8
0
  6
Continuous
 62
     0
100
AcDbLine
 10
139.991688
 20
74.281746
 30
0.0
 11
139.991688
 21
266.272702
 31
0.0
  0
SOLID
  5
31E
100
AcDbEntity
  8
0
  6
Continuous
 62
     0
100
AcDbTrace
 10
137.491729
 20
86.281068
 30
0.0
 11
139.991688
 21
74.281746
 31
0.0
 12
142.491647
 22
86.281068
 32
0.0
 13
142.491647
 23
86.281068
 33
0.0
  0
SOLID
  5
31F
100
AcDbEntity
  8
0
  6
Continuous
 62
     0
100
AcDbTrace
 10
142.491647
 20
254.27338
 30
0.0
 11
139.991688
 21
266.272702
 31
0.0
 12
137.491729
 22
254.27338
 32
0.0
 13
137.491729
 23
254.27338
 33
0.0
  0
ENDBLK
  5
320
100
AcDbEntity
  8
0
100
AcDbBlockEnd
  0
BLOCK
  5
323
100
AcDbEntity
  8
0
100
AcDbBlockBegin
  2
*B14
 70
     0
 10
0.0
 20
0.0
 30
0.0
  3
*B14
  1

  0
LINE
  5
324
100
AcDbEntity
  8
0
  6
Continuous
 62
     0
100
AcDbLine
 10
209.987532
 20
419.447523
 30
0.0
 11
209.987532
 21
527.442623
 31
0.0
  0
SOLID
  5
325
100
AcDbEntity
  8
0
  6
Continuous
 62
     0
100
AcDbTrace
 10
207.487573
 20
431.447446
 30
0.0
 11
209.987532
 21
419.447523
 31
0.0
 12
212.48689
 22
431.447446
 32
0.0
 13
212.48689
 23
431.447446
 33
0.0
  0
SOLID
  5
326
100
AcDbEntity
  8
0
  6
Continuous
 62
     0
100
AcDbTrace
 10
212.48689
 20
515.443301
 30
0.0
 11
209.987532
 21
527.442623
 31
0.0
 12
207.487573
 22
515.443301
 32
0.0
 13
207.487573
 23
515.443301
 33
0.0
  0
ENDBLK
  5
327
100
AcDbEntity
  8
0
100
AcDbBlockEnd
  0
BLOCK
  5
32A
100
AcDbEntity
  8
0
100
AcDbBlockBegin
  2
*B15
 70
     0
 10
0.0
 20
0.0
 30
0.0
  3
*B15
  1

  0
LINE
  5
32B
100
AcDbEntity
  8
0
  6
Continuous
 62
     0
100
AcDbLine
 10
305.552615
 20
325.087906
 30
0.0
 11
238.806838
 21
325.087906
 31
0.0
  0
SOLID
  5
32C
100
AcDbEntity
  8
0
  6
Continuous
 62
     0
100
AcDbTrace
 10
293.553293
 20
322.587947
 30
0.0
 11
305.552615
 21
325.087906
 31
0.0
 12
293.553293
 22
327.587264
 32
0.0
 13
293.553293
 23
327.587264
 33
0.0
  0
SOLID
  5
32D
100
AcDbEntity
  8
0
  6
Continuous
 62
     0
100
AcDbTrace
 10
250.80616
 20
327.587264
 30
0.0
 11
238.806838
 21
325.087906
 31
0.0
 12
250.80616
 22
322.587947
 32
0.0
 13
250.80616
 23
322.587947
 33
0.0
  0
ENDBLK
  5
32E
100
AcDbEntity
  8
0
100
AcDbBlockEnd
  0
BLOCK
  5
331
100
AcDbEntity
  8
0
100
AcDbBlockBegin
  2
*B16
 70
     0
 10
0.0
 20
0.0
 30
0.0
  3
*B16
  1

  0
LINE
  5
332
100
AcDbEntity
  8
0
  6
Continuous
 62
     0
100
AcDbLine
 10
305.552615
 20
325.087906
 30
0.0
 11
372.298393
 21
325.087906
 31
0.0
  0
SOLID
  5
333
100
AcDbEntity
  8
0
  6
Continuous
 62
     0
100
AcDbTrace
 10
317.551937
 20
327.587264
 30
0.0
 11
305.552615
 21
325.087906
 31
0.0
 12
317.551937
 22
322.587947
 32
0.0
 13
317.551937
 23
322.587947
 33
0.0
  0
SOLID
  5
334
100
AcDbEntity
  8
0
  6
Continuous
 62
     0
100
AcDbTrace
 10
360.299071
 20
322.587947
 30
0.0
 11
372.298393
 21
325.087906
 31
0.0
 12
360.299071
 22
327.587264
 32
0.0
 13
360.299071
 23
327.587264
 33
0.0
  0
ENDBLK
  5
335
100
AcDbEntity
  8
0
100
AcDbBlockEnd
  0
BLOCK
  5
338
100
AcDbEntity
  8
0
100
AcDbBlockBegin
  2
*B17
 70
     0
 10
0.0
 20
0.0
 30
0.0
  3
*B17
  1

  0
LINE
  5
339
100
AcDbEntity
  8
0
  6
Continuous
 62
     0
100
AcDbLine
 10
256.805821
 20
40.101002
 30
0.0
 11
354.29941
 21
40.101002
 31
0.0
  0
SOLID
  5
33A
100
AcDbEntity
  8
0
  6
Continuous
 62
     0
100
AcDbTrace
 10
268.804542
 20
37.601043
 30
0.0
 11
280.803864
 21
40.101002
 31
0.0
 12
268.804542
 22
42.600961
 32
0.0
 13
268.804542
 23
42.600961
 33
0.0
  0
SOLID
  5
33B
100
AcDbEntity
  8
0
  6
Continuous
 62
     0
100
AcDbTrace
 10
342.300088
 20
42.600961
 30
0.0
 11
330.300766
 21
40.101002
 31
0.0
 12
342.300088
 22
37.601043
 32
0.0
 13
342.300088
 23
37.601043
 33
0.0
  0
ENDBLK
  5
33C
100
AcDbEntity
  8
0
100
AcDbBlockEnd
  0
BLOCK
  5
33F
100
AcDbEntity
  8
0
100
AcDbBlockBegin
  2
*B18
 70
     0
 10
0.0
 20
0.0
 30
0.0
  3
*B18
  1

  0
LINE
  5
340
100
AcDbEntity
  8
0
  6
Continuous
 62
     0
100
AcDbLine
 10
372.298393
 20
560.076833
 30
0.0
 11
439.04417
 21
560.076833
 31
0.0
  0
SOLID
  5
341
100
AcDbEntity
  8
0
  6
Continuous
 62
     0
100
AcDbTrace
 10
384.297714
 20
562.576792
 30
0.0
 11
372.298393
 21
560.076833
 31
0.0
 12
384.297714
 22
557.576874
 32
0.0
 13
384.297714
 23
557.576874
 33
0.0
  0
SOLID
  5
342
100
AcDbEntity
  8
0
  6
Continuous
 62
     0
100
AcDbTrace
 10
427.044848
 20
557.576874
 30
0.0
 11
439.04417
 21
560.076833
 31
0.0
 12
427.044848
 22
562.576792
 32
0.0
 13
427.044848
 23
562.576792
 33
0.0
  0
ENDBLK
  5
343
100
AcDbEntity
  8
0
100
AcDbBlockEnd
  0
BLOCK
  5
346
100
AcDbEntity
  8
0
100
AcDbBlockBegin
  2
*B19
 70
     0
 10
0.0
 20
0.0
 30
0.0
  3
*B19
  1

  0
LINE
  5
347
100
AcDbEntity
  8
0
  6
Continuous
 62
     0
100
AcDbLine
 10
635.961055
 20
224.274473
 30
0.0
 11
635.961055
 21
170.276923
 31
0.0
  0
SOLID
  5
348
100
AcDbEntity
  8
0
  6
Continuous
 62
     0
100
AcDbTrace
 10
638.461014
 20
212.275151
 30
0.0
 11
635.961055
 21
224.274473
 31
0.0
 12
633.461096
 22
212.275151
 32
0.0
 13
633.461096
 23
212.275151
 33
0.0
  0
SOLID
  5
349
100
AcDbEntity
  8
0
  6
Continuous
 62
     0
100
AcDbTrace
 10
633.461096
 20
182.276245
 30
0.0
 11
635.961055
 21
170.276923
 31
0.0
 12
638.461014
 22
182.276245
 32
0.0
 13
638.461014
 23
182.276245
 33
0.0
  0
ENDBLK
  5
34A
100
AcDbEntity
  8
0
100
AcDbBlockEnd
  0
BLOCK
  5
34D
100
AcDbEntity
  8
0
100
AcDbBlockBegin
  2
*B20
 70
     0
 10
0.0
 20
0.0
 30
0.0
  3
*B20
  1

  0
LINE
  5
34E
100
AcDbEntity
  8
0
  6
Continuous
 62
     0
100
AcDbLine
 10
505.789947
 20
325.087906
 30
0.0
 11
439.04417
 21
325.087906
 31
0.0
  0
SOLID
  5
34F
100
AcDbEntity
  8
0
  6
Continuous
 62
     0
100
AcDbTrace
 10
493.791226
 20
322.587947
 30
0.0
 11
505.789947
 21
325.087906
 31
0.0
 12
493.791226
 22
327.587264
 32
0.0
 13
493.791226
 23
327.587264
 33
0.0
  0
SOLID
  5
350
100
AcDbEntity
  8
0
  6
Continuous
 62
     0
100
AcDbTrace
 10
451.043492
 20
327.587264
 30
0.0
 11
439.04417
 21
325.087906
 31
0.0
 12
451.043492
 22
322.587947
 32
0.0
 13
451.043492
 23
322.587947
 33
0.0
  0
ENDBLK
  5
351
100
AcDbEntity
  8
0
100
AcDbBlockEnd
  0
BLOCK
  5
354
100
AcDbEntity
  8
0
100
AcDbBlockBegin
  2
*B21
 70
     0
 10
0.0
 20
0.0
 30
0.0
  3
*B21
  1

  0
LINE
  5
355
100
AcDbEntity
  8
0
  6
Continuous
 62
     0
100
AcDbLine
 10
439.04417
 20
560.076833
 30
0.0
 11
505.789947
 21
560.076833
 31
0.0
  0
SOLID
  5
356
100
AcDbEntity
  8
0
  6
Continuous
 62
     0
100
AcDbTrace
 10
451.043492
 20
562.576792
 30
0.0
 11
439.04417
 21
560.076833
 31
0.0
 12
451.043492
 22
557.576874
 32
0.0
 13
451.043492
 23
557.576874
 33
0.0
  0
SOLID
  5
357
100
AcDbEntity
  8
0
  6
Continuous
 62
     0
100
AcDbTrace
 10
493.791226
 20
557.576874
 30
0.0
 11
505.789947
 21
560.076833
 31
0.0
 12
493.791226
 22
562.576792
 32
0.0
 13
493.791226
 23
562.576792
 33
0.0
  0
ENDBLK
  5
358
100
AcDbEntity
  8
0
100
AcDbBlockEnd
  0
BLOCK
  5
35B
100
AcDbEntity
  8
0
100
AcDbBlockBegin
  2
*B22
 70
     0
 10
0.0
 20
0.0
 30
0.0
  3
*B22
  1

  0
LINE
  5
35C
100
AcDbEntity
  8
0
  6
Continuous
 62
     0
100
AcDbLine
 10
635.961055
 20
170.276923
 30
0.0
 11
635.961055
 21
116.279373
 31
0.0
  0
SOLID
  5
35D
100
AcDbEntity
  8
0
  6
Continuous
 62
     0
100
AcDbTrace
 10
638.461014
 20
158.277601
 30
0.0
 11
635.961055
 21
170.276923
 31
0.0
 12
633.461096
 22
158.277601
 32
0.0
 13
633.461096
 23
158.277601
 33
0.0
  0
SOLID
  5
35E
100
AcDbEntity
  8
0
  6
Continuous
 62
     0
100
AcDbTrace
 10
633.461096
 20
128.278695
 30
0.0
 11
635.961055
 21
116.279373
 31
0.0
 12
638.461014
 22
128.278695
 32
0.0
 13
638.461014
 23
128.278695
 33
0.0
  0
ENDBLK
  5
35F
100
AcDbEntity
  8
0
100
AcDbBlockEnd
  0
BLOCK
  5
362
100
AcDbEntity
  8
0
100
AcDbBlockBegin
  2
*B23
 70
     0
 10
0.0
 20
0.0
 30
0.0
  3
*B23
  1

  0
LINE
  5
363
100
AcDbEntity
  8
0
  6
Continuous
 62
     0
100
AcDbLine
 10
305.552615
 20
560.076833
 30
0.0
 11
372.298393
 21
560.076833
 31
0.0
  0
SOLID
  5
364
100
AcDbEntity
  8
0
  6
Continuous
 62
     0
100
AcDbTrace
 10
317.551937
 20
562.576792
 30
0.0
 11
305.552615
 21
560.076833
 31
0.0
 12
317.551937
 22
557.576874
 32
0.0
 13
317.551937
 23
557.576874
 33
0.0
  0
SOLID
  5
365
100
AcDbEntity
  8
0
  6
Continuous
 62
     0
100
AcDbTrace
 10
360.299071
 20
557.576874
 30
0.0
 11
372.298393
 21
560.076833
 31
0.0
 12
360.299071
 22
562.576792
 32
0.0
 13
360.299071
 23
562.576792
 33
0.0
  0
ENDBLK
  5
366
100
AcDbEntity
  8
0
100
AcDbBlockEnd
  0
BLOCK
  5
369
100
AcDbEntity
  8
0
100
AcDbBlockBegin
  2
*B24
 70
     0
 10
0.0
 20
0.0
 30
0.0
  3
*B24
  1

  0
LINE
  5
36A
100
AcDbEntity
  8
0
  6
Continuous
 62
     0
100
AcDbLine
 10
209.987532
 20
419.447523
 30
0.0
 11
209.987532
 21
359.450312
 31
0.0
  0
SOLID
  5
36B
100
AcDbEntity
  8
0
  6
Continuous
 62
     0
100
AcDbTrace
 10
212.48689
 20
407.448201
 30
0.0
 11
209.987532
 21
419.447523
 31
0.0
 12
207.487573
 22
407.448201
 32
0.0
 13
207.487573
 23
407.448201
 33
0.0
  0
SOLID
  5
36C
100
AcDbEntity
  8
0
  6
Continuous
 62
     0
100
AcDbTrace
 10
207.487573
 20
371.450235
 30
0.0
 11
209.987532
 21
359.450312
 31
0.0
 12
212.48689
 22
371.450235
 32
0.0
 13
212.48689
 23
371.450235
 33
0.0
  0
ENDBLK
  5
36D
100
AcDbEntity
  8
0
100
AcDbBlockEnd
  0
BLOCK
  5
370
100
AcDbEntity
  8
0
100
AcDbBlockBegin
  2
*B25
 70
     0
 10
0.0
 20
0.0
 30
0.0
  3
*B25
  1

  0
LINE
  5
371
100
AcDbEntity
  8
0
  6
Continuous
 62
     0
100
AcDbLine
 10
372.298393
 20
325.087906
 30
0.0
 11
439.04417
 21
325.087906
 31
0.0
  0
SOLID
  5
372
100
AcDbEntity
  8
0
  6
Continuous
 62
     0
100
AcDbTrace
 10
384.297714
 20
327.587264
 30
0.0
 11
372.298393
 21
325.087906
 31
0.0
 12
384.297714
 22
322.587947
 32
0.0
 13
384.297714
 23
322.587947
 33
0.0
  0
SOLID
  5
373
100
AcDbEntity
  8
0
  6
Continuous
 62
     0
100
AcDbTrace
 10
427.044848
 20
322.587947
 30
0.0
 11
439.04417
 21
325.087906
 31
0.0
 12
427.044848
 22
327.587264
 32
0.0
 13
427.044848
 23
327.587264
 33
0.0
  0
ENDBLK
  5
374
100
AcDbEntity
  8
0
100
AcDbBlockEnd
  0
BLOCK
  5
377
100
AcDbEntity
  8
0
100
AcDbBlockBegin
  2
*B26
 70
     0
 10
0.0
 20
0.0
 30
0.0
  3
*B26
  1

  0
LINE
  5
378
100
AcDbEntity
  8
0
  6
Continuous
 62
     8
100
AcDbLine
 10
572.536325
 20
272.272362
 30
0.0
 11
572.536325
 21
327.087392
 31
0.0
  0
ENDBLK
  5
379
100
AcDbEntity
  8
0
100
AcDbBlockEnd
  0
BLOCK
  5
37C
100
AcDbEntity
  8
0
100
AcDbBlockBegin
  2
*B27
 70
     0
 10
0.0
 20
0.0
 30
0.0
  3
*B27
  1

  0
LINE
  5
37D
100
AcDbEntity
  8
0
  6
Continuous
 62
     8
100
AcDbLine
 10
207.987445
 20
359.450312
 30
0.0
 11
232.807177
 21
359.450312
 31
0.0
  0
ENDBLK
  5
37E
100
AcDbEntity
  8
0
100
AcDbBlockEnd
  0
BLOCK
  5
381
100
AcDbEntity
  8
0
100
AcDbBlockBegin
  2
*B28
 70
     0
 10
0.0
 20
0.0
 30
0.0
  3
*B28
  1

  0
LINE
  5
382
100
AcDbEntity
  8
0
  6
Continuous
 62
     8
100
AcDbLine
 10
481.041796
 20
85.53096
 30
0.0
 11
481.041796
 21
88.281155
 31
0.0
  0
LINE
  5
383
100
AcDbEntity
  8
0
  6
Continuous
 62
     8
100
AcDbLine
 10
481.041796
 20
102.279963
 30
0.0
 11
481.041796
 21
105.030159
 31
0.0
  0
ENDBLK
  5
384
100
AcDbEntity
  8
0
100
AcDbBlockEnd
  0
BLOCK
  5
387
100
AcDbEntity
  8
0
100
AcDbBlockBegin
  2
*B29
 70
     0
 10
0.0
 20
0.0
 30
0.0
  3
*B29
  1

  0
LINE
  5
388
100
AcDbEntity
  8
0
  6
Continuous
 62
     8
100
AcDbLine
 10
232.807177
 20
389.449218
 30
0.0
 11
244.502727
 21
389.449218
 31
0.0
  0
LINE
  5
389
100
AcDbEntity
  8
0
  6
Continuous
 62
     8
100
AcDbLine
 10
250.502388
 20
389.449218
 30
0.0
 11
252.502475
 21
389.449218
 31
0.0
  0
LINE
  5
38A
100
AcDbEntity
  8
0
  6
Continuous
 62
     8
100
AcDbLine
 10
258.502136
 20
389.449218
 30
0.0
 11
270.197685
 21
389.449218
 31
0.0
  0
LINE
  5
38B
100
AcDbEntity
  8
0
  6
Continuous
 62
     8
100
AcDbLine
 10
276.197346
 20
389.449218
 30
0.0
 11
278.196832
 21
389.449218
 31
0.0
  0
LINE
  5
38C
100
AcDbEntity
  8
0
  6
Continuous
 62
     8
100
AcDbLine
 10
284.196493
 20
389.449218
 30
0.0
 11
295.892644
 21
389.449218
 31
0.0
  0
LINE
  5
38D
100
AcDbEntity
  8
0
  6
Continuous
 62
     8
100
AcDbLine
 10
301.892305
 20
389.449218
 30
0.0
 11
303.891791
 21
389.449218
 31
0.0
  0
LINE
  5
38E
100
AcDbEntity
  8
0
  6
Continuous
 62
     8
100
AcDbLine
 10
309.891452
 20
389.449218
 30
0.0
 11
321.587001
 21
389.449218
 31
0.0
  0
LINE
  5
38F
100
AcDbEntity
  8
0
  6
Continuous
 62
     8
100
AcDbLine
 10
327.587264
 20
389.449218
 30
0.0
 11
329.58675
 21
389.449218
 31
0.0
  0
LINE
  5
390
100
AcDbEntity
  8
0
  6
Continuous
 62
     8
100
AcDbLine
 10
335.586411
 20
389.449218
 30
0.0
 11
347.28196
 21
389.449218
 31
0.0
  0
LINE
  5
391
100
AcDbEntity
  8
0
  6
Continuous
 62
     8
100
AcDbLine
 10
353.281621
 20
389.449218
 30
0.0
 11
355.281708
 21
389.449218
 31
0.0
  0
LINE
  5
392
100
AcDbEntity
  8
0
  6
Continuous
 62
     8
100
AcDbLine
 10
361.281369
 20
389.449218
 30
0.0
 11
372.976918
 21
389.449218
 31
0.0
  0
LINE
  5
393
100
AcDbEntity
  8
0
  6
Continuous
 62
     8
100
AcDbLine
 10
378.976579
 20
389.449218
 30
0.0
 11
380.976667
 21
389.449218
 31
0.0
  0
LINE
  5
394
100
AcDbEntity
  8
0
  6
Continuous
 62
     8
100
AcDbLine
 10
386.976328
 20
389.449218
 30
0.0
 11
398.671877
 21
389.449218
 31
0.0
  0
LINE
  5
395
100
AcDbEntity
  8
0
  6
Continuous
 62
     8
100
AcDbLine
 10
404.671538
 20
389.449218
 30
0.0
 11
406.671626
 21
389.449218
 31
0.0
  0
LINE
  5
396
100
AcDbEntity
  8
0
  6
Continuous
 62
     8
100
AcDbLine
 10
412.670685
 20
389.449218
 30
0.0
 11
424.366836
 21
389.449218
 31
0.0
  0
LINE
  5
397
100
AcDbEntity
  8
0
  6
Continuous
 62
     8
100
AcDbLine
 10
430.366497
 20
389.449218
 30
0.0
 11
432.365983
 21
389.449218
 31
0.0
  0
LINE
  5
398
100
AcDbEntity
  8
0
  6
Continuous
 62
     8
100
AcDbLine
 10
438.365644
 20
389.449218
 30
0.0
 11
450.061795
 21
389.449218
 31
0.0
  0
LINE
  5
399
100
AcDbEntity
  8
0
  6
Continuous
 62
     8
100
AcDbLine
 10
456.061455
 20
389.449218
 30
0.0
 11
458.060941
 21
389.449218
 31
0.0
  0
LINE
  5
39A
100
AcDbEntity
  8
0
  6
Continuous
 62
     8
100
AcDbLine
 10
464.060602
 20
389.449218
 30
0.0
 11
475.756152
 21
389.449218
 31
0.0
  0
LINE
  5
39B
100
AcDbEntity
  8
0
  6
Continuous
 62
     8
100
AcDbLine
 10
481.755813
 20
389.449218
 30
0.0
 11
483.7559
 21
389.449218
 31
0.0
  0
LINE
  5
39C
100
AcDbEntity
  8
0
  6
Continuous
 62
     8
100
AcDbLine
 10
489.755561
 20
389.449218
 30
0.0
 11
501.45111
 21
389.449218
 31
0.0
  0
LINE
  5
39D
100
AcDbEntity
  8
0
  6
Continuous
 62
     8
100
AcDbLine
 10
507.450771
 20
389.449218
 30
0.0
 11
509.450859
 21
389.449218
 31
0.0
  0
LINE
  5
39E
100
AcDbEntity
  8
0
  6
Continuous
 62
     8
100
AcDbLine
 10
515.45052
 20
389.449218
 30
0.0
 11
527.146069
 21
389.449218
 31
0.0
  0
LINE
  5
39F
100
AcDbEntity
  8
0
  6
Continuous
 62
     8
100
AcDbLine
 10
533.14573
 20
389.449218
 30
0.0
 11
535.145818
 21
389.449218
 31
0.0
  0
LINE
  5
3A0
100
AcDbEntity
  8
0
  6
Continuous
 62
     8
100
AcDbLine
 10
541.145478
 20
389.449218
 30
0.0
 11
552.841028
 21
389.449218
 31
0.0
  0
LINE
  5
3A1
100
AcDbEntity
  8
0
  6
Continuous
 62
     8
100
AcDbLine
 10
558.840689
 20
389.449218
 30
0.0
 11
560.840175
 21
389.449218
 31
0.0
  0
LINE
  5
3A2
100
AcDbEntity
  8
0
  6
Continuous
 62
     8
100
AcDbLine
 10
566.839836
 20
389.449218
 30
0.0
 11
578.535986
 21
389.449218
 31
0.0
  0
ENDBLK
  5
3A3
100
AcDbEntity
  8
0
100
AcDbBlockEnd
  0
BLOCK
  5
3A6
100
AcDbEntity
  8
0
100
AcDbBlockBegin
  2
*B30
 70
     0
 10
0.0
 20
0.0
 30
0.0
  3
*B30
  1

  0
LINE
  5
3A7
100
AcDbEntity
  8
0
  6
Continuous
 62
     8
100
AcDbLine
 10
207.987445
 20
419.447523
 30
0.0
 11
232.807177
 21
419.447523
 31
0.0
  0
ENDBLK
  5
3A8
100
AcDbEntity
  8
0
100
AcDbBlockEnd
  0
BLOCK
  5
3AB
100
AcDbEntity
  8
0
100
AcDbBlockBegin
  2
*B31
 70
     0
 10
0.0
 20
0.0
 30
0.0
  3
*B31
  1

  0
LINE
  5
3AC
100
AcDbEntity
  8
0
  6
Continuous
 62
     8
100
AcDbLine
 10
505.789947
 20
323.087819
 30
0.0
 11
505.789947
 21
327.087392
 31
0.0
  0
LINE
  5
3AD
100
AcDbEntity
  8
0
  6
Continuous
 62
     8
100
AcDbLine
 10
505.789947
 20
87.780682
 30
0.0
 11
505.789947
 21
109.279969
 31
0.0
  0
LINE
  5
3AE
100
AcDbEntity
  8
0
  6
Continuous
 62
     8
100
AcDbLine
 10
505.789947
 20
123.279378
 30
0.0
 11
505.789947
 21
136.278443
 31
0.0
  0
LINE
  5
3AF
100
AcDbEntity
  8
0
  6
Continuous
 62
     8
100
AcDbLine
 10
505.789947
 20
142.278104
 30
0.0
 11
505.789947
 21
144.278192
 31
0.0
  0
LINE
  5
3B0
100
AcDbEntity
  8
0
  6
Continuous
 62
     8
100
AcDbLine
 10
505.789947
 20
150.277853
 30
0.0
 11
505.789947
 21
163.277519
 31
0.0
  0
LINE
  5
3B1
100
AcDbEntity
  8
0
  6
Continuous
 62
     8
100
AcDbLine
 10
505.789947
 20
177.276928
 30
0.0
 11
505.789947
 21
190.275993
 31
0.0
  0
LINE
  5
3B2
100
AcDbEntity
  8
0
  6
Continuous
 62
     8
100
AcDbLine
 10
505.789947
 20
196.275654
 30
0.0
 11
505.789947
 21
198.275742
 31
0.0
  0
LINE
  5
3B3
100
AcDbEntity
  8
0
  6
Continuous
 62
     8
100
AcDbLine
 10
505.789947
 20
204.275403
 30
0.0
 11
505.789947
 21
217.275069
 31
0.0
  0
LINE
  5
3B4
100
AcDbEntity
  8
0
  6
Continuous
 62
     8
100
AcDbLine
 10
505.789947
 20
231.274479
 30
0.0
 11
505.789947
 21
243.727956
 31
0.0
  0
LINE
  5
3B5
100
AcDbEntity
  8
0
  6
Continuous
 62
     8
100
AcDbLine
 10
505.789947
 20
249.727617
 30
0.0
 11
505.789947
 21
251.727704
 31
0.0
  0
LINE
  5
3B6
100
AcDbEntity
  8
0
  6
Continuous
 62
     8
100
AcDbLine
 10
505.789947
 20
257.727365
 30
0.0
 11
505.789947
 21
270.181444
 31
0.0
  0
LINE
  5
3B7
100
AcDbEntity
  8
0
  6
Continuous
 62
     8
100
AcDbLine
 10
505.789947
 20
276.181105
 30
0.0
 11
505.789947
 21
278.181192
 31
0.0
  0
LINE
  5
3B8
100
AcDbEntity
  8
0
  6
Continuous
 62
     8
100
AcDbLine
 10
505.789947
 20
284.180853
 30
0.0
 11
505.789947
 21
296.634331
 31
0.0
  0
LINE
  5
3B9
100
AcDbEntity
  8
0
  6
Continuous
 62
     8
100
AcDbLine
 10
505.789947
 20
302.633991
 30
0.0
 11
505.789947
 21
304.634079
 31
0.0
  0
LINE
  5
3BA
100
AcDbEntity
  8
0
  6
Continuous
 62
     8
100
AcDbLine
 10
505.789947
 20
310.63374
 30
0.0
 11
505.789947
 21
323.087819
 31
0.0
  0
ENDBLK
  5
3BB
100
AcDbEntity
  8
0
100
AcDbBlockEnd
  0
BLOCK
  5
3BE
100
AcDbEntity
  8
0
100
AcDbBlockBegin
  2
*B32
 70
     0
 10
0.0
 20
0.0
 30
0.0
  3
*B32
  1

  0
LINE
  5
3BF
100
AcDbEntity
  8
0
  6
Continuous
 62
     8
100
AcDbLine
 10
505.789947
 20
558.076746
 30
0.0
 11
505.789947
 21
562.076319
 31
0.0
  0
LINE
  5
3C0
100
AcDbEntity
  8
0
  6
Continuous
 62
     8
100
AcDbLine
 10
505.789947
 20
413.447862
 30
0.0
 11
505.789947
 21
425.886902
 31
0.0
  0
LINE
  5
3C1
100
AcDbEntity
  8
0
  6
Continuous
 62
     8
100
AcDbLine
 10
505.789947
 20
431.886563
 30
0.0
 11
505.789947
 21
433.886049
 31
0.0
  0
LINE
  5
3C2
100
AcDbEntity
  8
0
  6
Continuous
 62
     8
100
AcDbLine
 10
505.789947
 20
439.886312
 30
0.0
 11
505.789947
 21
452.324751
 31
0.0
  0
LINE
  5
3C3
100
AcDbEntity
  8
0
  6
Continuous
 62
     8
100
AcDbLine
 10
505.789947
 20
458.324412
 30
0.0
 11
505.789947
 21
460.324499
 31
0.0
  0
LINE
  5
3C4
100
AcDbEntity
  8
0
  6
Continuous
 62
     8
100
AcDbLine
 10
505.789947
 20
466.32416
 30
0.0
 11
505.789947
 21
478.762599
 31
0.0
  0
LINE
  5
3C5
100
AcDbEntity
  8
0
  6
Continuous
 62
     8
100
AcDbLine
 10
505.789947
 20
484.76226
 30
0.0
 11
505.789947
 21
486.762347
 31
0.0
  0
LINE
  5
3C6
100
AcDbEntity
  8
0
  6
Continuous
 62
     8
100
AcDbLine
 10
505.789947
 20
492.762008
 30
0.0
 11
505.789947
 21
505.200447
 31
0.0
  0
LINE
  5
3C7
100
AcDbEntity
  8
0
  6
Continuous
 62
     8
100
AcDbLine
 10
505.789947
 20
511.20071
 30
0.0
 11
505.789947
 21
513.200196
 31
0.0
  0
LINE
  5
3C8
100
AcDbEntity
  8
0
  6
Continuous
 62
     8
100
AcDbLine
 10
505.789947
 20
519.199857
 30
0.0
 11
505.789947
 21
531.638897
 31
0.0
  0
LINE
  5
3C9
100
AcDbEntity
  8
0
  6
Continuous
 62
     8
100
AcDbLine
 10
505.789947
 20
537.638558
 30
0.0
 11
505.789947
 21
539.638646
 31
0.0
  0
LINE
  5
3CA
100
AcDbEntity
  8
0
  6
Continuous
 62
     8
100
AcDbLine
 10
505.789947
 20
545.638307
 30
0.0
 11
505.789947
 21
558.076746
 31
0.0
  0
ENDBLK
  5
3CB
100
AcDbEntity
  8
0
100
AcDbBlockEnd
  0
BLOCK
  5
3CE
100
AcDbEntity
  8
0
100
AcDbBlockBegin
  2
*B33
 70
     0
 10
0.0
 20
0.0
 30
0.0
  3
*B33
  1

  0
LINE
  5
3CF
100
AcDbEntity
  8
0
  6
Continuous
 62
     8
100
AcDbLine
 10
530.538699
 20
235.523687
 30
0.0
 11
530.538699
 21
238.273883
 31
0.0
  0
LINE
  5
3D0
100
AcDbEntity
  8
0
  6
Continuous
 62
     8
100
AcDbLine
 10
530.538699
 20
252.273292
 30
0.0
 11
530.538699
 21
255.022886
 31
0.0
  0
ENDBLK
  5
3D1
100
AcDbEntity
  8
0
100
AcDbBlockEnd
  0
BLOCK
  5
3D4
100
AcDbEntity
  8
0
100
AcDbBlockBegin
  2
*B34
 70
     0
 10
0.0
 20
0.0
 30
0.0
  3
*B34
  1

  0
LINE
  5
3D5
100
AcDbEntity
  8
0
  6
Continuous
 62
     8
100
AcDbLine
 10
414.296019
 20
85.53096
 30
0.0
 11
414.296019
 21
88.281155
 31
0.0
  0
LINE
  5
3D6
100
AcDbEntity
  8
0
  6
Continuous
 62
     8
100
AcDbLine
 10
414.296019
 20
102.279963
 30
0.0
 11
414.296019
 21
105.030159
 31
0.0
  0
ENDBLK
  5
3D7
100
AcDbEntity
  8
0
100
AcDbBlockEnd
  0
BLOCK
  5
3DA
100
AcDbEntity
  8
0
100
AcDbBlockBegin
  2
*B35
 70
     0
 10
0.0
 20
0.0
 30
0.0
  3
*B35
  1

  0
LINE
  5
3DB
100
AcDbEntity
  8
0
  6
Continuous
 62
     8
100
AcDbLine
 10
601.963177
 20
137.278788
 30
0.0
 11
605.96275
 21
137.278788
 31
0.0
  0
LINE
  5
3DC
100
AcDbEntity
  8
0
  6
Continuous
 62
     8
100
AcDbLine
 10
244.056391
 20
137.278788
 30
0.0
 11
249.805816
 21
137.278788
 31
0.0
  0
LINE
  5
3DD
100
AcDbEntity
  8
0
  6
Continuous
 62
     8
100
AcDbLine
 10
263.805225
 20
137.278788
 30
0.0
 11
274.617127
 21
137.278788
 31
0.0
  0
LINE
  5
3DE
100
AcDbEntity
  8
0
  6
Continuous
 62
     8
100
AcDbLine
 10
280.616788
 20
137.278788
 30
0.0
 11
282.616274
 21
137.278788
 31
0.0
  0
LINE
  5
3DF
100
AcDbEntity
  8
0
  6
Continuous
 62
     8
100
AcDbLine
 10
288.615935
 20
137.278788
 30
0.0
 11
299.427836
 21
137.278788
 31
0.0
  0
LINE
  5
3E0
100
AcDbEntity
  8
0
  6
Continuous
 62
     8
100
AcDbLine
 10
305.427497
 20
137.278788
 30
0.0
 11
307.427585
 21
137.278788
 31
0.0
  0
LINE
  5
3E1
100
AcDbEntity
  8
0
  6
Continuous
 62
     8
100
AcDbLine
 10
313.427246
 20
137.278788
 30
0.0
 11
324.239147
 21
137.278788
 31
0.0
  0
LINE
  5
3E2
100
AcDbEntity
  8
0
  6
Continuous
 62
     8
100
AcDbLine
 10
330.238808
 20
137.278788
 30
0.0
 11
332.238294
 21
137.278788
 31
0.0
  0
LINE
  5
3E3
100
AcDbEntity
  8
0
  6
Continuous
 62
     8
100
AcDbLine
 10
338.237955
 20
137.278788
 30
0.0
 11
349.049857
 21
137.278788
 31
0.0
  0
LINE
  5
3E4
100
AcDbEntity
  8
0
  6
Continuous
 62
     8
100
AcDbLine
 10
355.049518
 20
137.278788
 30
0.0
 11
357.049605
 21
137.278788
 31
0.0
  0
LINE
  5
3E5
100
AcDbEntity
  8
0
  6
Continuous
 62
     8
100
AcDbLine
 10
363.049266
 20
137.278788
 30
0.0
 11
373.861168
 21
137.278788
 31
0.0
  0
LINE
  5
3E6
100
AcDbEntity
  8
0
  6
Continuous
 62
     8
100
AcDbLine
 10
379.860227
 20
137.278788
 30
0.0
 11
381.860315
 21
137.278788
 31
0.0
  0
LINE
  5
3E7
100
AcDbEntity
  8
0
  6
Continuous
 62
     8
100
AcDbLine
 10
387.859976
 20
137.278788
 30
0.0
 11
398.671877
 21
137.278788
 31
0.0
  0
LINE
  5
3E8
100
AcDbEntity
  8
0
  6
Continuous
 62
     8
100
AcDbLine
 10
404.671538
 20
137.278788
 30
0.0
 11
406.671626
 21
137.278788
 31
0.0
  0
LINE
  5
3E9
100
AcDbEntity
  8
0
  6
Continuous
 62
     8
100
AcDbLine
 10
412.670685
 20
137.278788
 30
0.0
 11
423.482587
 21
137.278788
 31
0.0
  0
LINE
  5
3EA
100
AcDbEntity
  8
0
  6
Continuous
 62
     8
100
AcDbLine
 10
429.482248
 20
137.278788
 30
0.0
 11
431.482335
 21
137.278788
 31
0.0
  0
LINE
  5
3EB
100
AcDbEntity
  8
0
  6
Continuous
 62
     8
100
AcDbLine
 10
437.481996
 20
137.278788
 30
0.0
 11
448.293898
 21
137.278788
 31
0.0
  0
LINE
  5
3EC
100
AcDbEntity
  8
0
  6
Continuous
 62
     8
100
AcDbLine
 10
454.293559
 20
137.278788
 30
0.0
 11
456.293045
 21
137.278788
 31
0.0
  0
LINE
  5
3ED
100
AcDbEntity
  8
0
  6
Continuous
 62
     8
100
AcDbLine
 10
462.292706
 20
137.278788
 30
0.0
 11
473.104607
 21
137.278788
 31
0.0
  0
LINE
  5
3EE
100
AcDbEntity
  8
0
  6
Continuous
 62
     8
100
AcDbLine
 10
479.104268
 20
137.278788
 30
0.0
 11
481.104356
 21
137.278788
 31
0.0
  0
LINE
  5
3EF
100
AcDbEntity
  8
0
  6
Continuous
 62
     8
100
AcDbLine
 10
487.104017
 20
137.278788
 30
0.0
 11
497.915918
 21
137.278788
 31
0.0
  0
LINE
  5
3F0
100
AcDbEntity
  8
0
  6
Continuous
 62
     8
100
AcDbLine
 10
503.915579
 20
137.278788
 30
0.0
 11
505.915065
 21
137.278788
 31
0.0
  0
LINE
  5
3F1
100
AcDbEntity
  8
0
  6
Continuous
 62
     8
100
AcDbLine
 10
511.914726
 20
137.278788
 30
0.0
 11
522.726628
 21
137.278788
 31
0.0
  0
LINE
  5
3F2
100
AcDbEntity
  8
0
  6
Continuous
 62
     8
100
AcDbLine
 10
528.726289
 20
137.278788
 30
0.0
 11
530.726376
 21
137.278788
 31
0.0
  0
LINE
  5
3F3
100
AcDbEntity
  8
0
  6
Continuous
 62
     8
100
AcDbLine
 10
536.726037
 20
137.278788
 30
0.0
 11
547.537939
 21
137.278788
 31
0.0
  0
LINE
  5
3F4
100
AcDbEntity
  8
0
  6
Continuous
 62
     8
100
AcDbLine
 10
561.536747
 20
137.278788
 30
0.0
 11
574.750558
 21
137.278788
 31
0.0
  0
LINE
  5
3F5
100
AcDbEntity
  8
0
  6
Continuous
 62
     8
100
AcDbLine
 10
580.750219
 20
137.278788
 30
0.0
 11
582.749705
 21
137.278788
 31
0.0
  0
LINE
  5
3F6
100
AcDbEntity
  8
0
  6
Continuous
 62
     8
100
AcDbLine
 10
588.749366
 20
137.278788
 30
0.0
 11
601.963177
 21
137.278788
 31
0.0
  0
ENDBLK
  5
3F7
100
AcDbEntity
  8
0
100
AcDbBlockEnd
  0
BLOCK
  5
3FA
100
AcDbEntity
  8
0
100
AcDbBlockBegin
  2
*B36
 70
     0
 10
0.0
 20
0.0
 30
0.0
  3
*B36
  1

  0
LINE
  5
3FB
100
AcDbEntity
  8
0
  6
Continuous
 62
     8
100
AcDbLine
 10
439.04417
 20
323.087819
 30
0.0
 11
439.04417
 21
327.087392
 31
0.0
  0
LINE
  5
3FC
100
AcDbEntity
  8
0
  6
Continuous
 62
     8
100
AcDbLine
 10
439.04417
 20
87.780682
 30
0.0
 11
439.04417
 21
109.279969
 31
0.0
  0
LINE
  5
3FD
100
AcDbEntity
  8
0
  6
Continuous
 62
     8
100
AcDbLine
 10
439.04417
 20
123.279378
 30
0.0
 11
439.04417
 21
136.278443
 31
0.0
  0
LINE
  5
3FE
100
AcDbEntity
  8
0
  6
Continuous
 62
     8
100
AcDbLine
 10
439.04417
 20
142.278104
 30
0.0
 11
439.04417
 21
144.278192
 31
0.0
  0
LINE
  5
3FF
100
AcDbEntity
  8
0
  6
Continuous
 62
     8
100
AcDbLine
 10
439.04417
 20
150.277853
 30
0.0
 11
439.04417
 21
163.277519
 31
0.0
  0
LINE
  5
400
100
AcDbEntity
  8
0
  6
Continuous
 62
     8
100
AcDbLine
 10
439.04417
 20
177.276928
 30
0.0
 11
439.04417
 21
190.275993
 31
0.0
  0
LINE
  5
401
100
AcDbEntity
  8
0
  6
Continuous
 62
     8
100
AcDbLine
 10
439.04417
 20
196.275654
 30
0.0
 11
439.04417
 21
198.275742
 31
0.0
  0
LINE
  5
402
100
AcDbEntity
  8
0
  6
Continuous
 62
     8
100
AcDbLine
 10
439.04417
 20
204.275403
 30
0.0
 11
439.04417
 21
217.275069
 31
0.0
  0
LINE
  5
403
100
AcDbEntity
  8
0
  6
Continuous
 62
     8
100
AcDbLine
 10
439.04417
 20
231.274479
 30
0.0
 11
439.04417
 21
243.727956
 31
0.0
  0
LINE
  5
404
100
AcDbEntity
  8
0
  6
Continuous
 62
     8
100
AcDbLine
 10
439.04417
 20
249.727617
 30
0.0
 11
439.04417
 21
251.727704
 31
0.0
  0
LINE
  5
405
100
AcDbEntity
  8
0
  6
Continuous
 62
     8
100
AcDbLine
 10
439.04417
 20
257.727365
 30
0.0
 11
439.04417
 21
270.181444
 31
0.0
  0
LINE
  5
406
100
AcDbEntity
  8
0
  6
Continuous
 62
     8
100
AcDbLine
 10
439.04417
 20
276.181105
 30
0.0
 11
439.04417
 21
278.181192
 31
0.0
  0
LINE
  5
407
100
AcDbEntity
  8
0
  6
Continuous
 62
     8
100
AcDbLine
 10
439.04417
 20
284.180853
 30
0.0
 11
439.04417
 21
296.634331
 31
0.0
  0
LINE
  5
408
100
AcDbEntity
  8
0
  6
Continuous
 62
     8
100
AcDbLine
 10
439.04417
 20
302.633991
 30
0.0
 11
439.04417
 21
304.634079
 31
0.0
  0
LINE
  5
409
100
AcDbEntity
  8
0
  6
Continuous
 62
     8
100
AcDbLine
 10
439.04417
 20
310.63374
 30
0.0
 11
439.04417
 21
323.087819
 31
0.0
  0
ENDBLK
  5
40A
100
AcDbEntity
  8
0
100
AcDbBlockEnd
  0
BLOCK
  5
40D
100
AcDbEntity
  8
0
100
AcDbBlockBegin
  2
*B37
 70
     0
 10
0.0
 20
0.0
 30
0.0
  3
*B37
  1

  0
LINE
  5
40E
100
AcDbEntity
  8
0
  6
Continuous
 62
     8
100
AcDbLine
 10
439.04417
 20
558.076746
 30
0.0
 11
439.04417
 21
562.076319
 31
0.0
  0
LINE
  5
40F
100
AcDbEntity
  8
0
  6
Continuous
 62
     8
100
AcDbLine
 10
439.04417
 20
413.447862
 30
0.0
 11
439.04417
 21
425.886902
 31
0.0
  0
LINE
  5
410
100
AcDbEntity
  8
0
  6
Continuous
 62
     8
100
AcDbLine
 10
439.04417
 20
431.886563
 30
0.0
 11
439.04417
 21
433.886049
 31
0.0
  0
LINE
  5
411
100
AcDbEntity
  8
0
  6
Continuous
 62
     8
100
AcDbLine
 10
439.04417
 20
439.886312
 30
0.0
 11
439.04417
 21
452.324751
 31
0.0
  0
LINE
  5
412
100
AcDbEntity
  8
0
  6
Continuous
 62
     8
100
AcDbLine
 10
439.04417
 20
458.324412
 30
0.0
 11
439.04417
 21
460.324499
 31
0.0
  0
LINE
  5
413
100
AcDbEntity
  8
0
  6
Continuous
 62
     8
100
AcDbLine
 10
439.04417
 20
466.32416
 30
0.0
 11
439.04417
 21
478.762599
 31
0.0
  0
LINE
  5
414
100
AcDbEntity
  8
0
  6
Continuous
 62
     8
100
AcDbLine
 10
439.04417
 20
484.76226
 30
0.0
 11
439.04417
 21
486.762347
 31
0.0
  0
LINE
  5
415
100
AcDbEntity
  8
0
  6
Continuous
 62
     8
100
AcDbLine
 10
439.04417
 20
492.762008
 30
0.0
 11
439.04417
 21
505.200447
 31
0.0
  0
LINE
  5
416
100
AcDbEntity
  8
0
  6
Continuous
 62
     8
100
AcDbLine
 10
439.04417
 20
511.20071
 30
0.0
 11
439.04417
 21
513.200196
 31
0.0
  0
LINE
  5
417
100
AcDbEntity
  8
0
  6
Continuous
 62
     8
100
AcDbLine
 10
439.04417
 20
519.199857
 30
0.0
 11
439.04417
 21
531.638897
 31
0.0
  0
LINE
  5
418
100
AcDbEntity
  8
0
  6
Continuous
 62
     8
100
AcDbLine
 10
439.04417
 20
537.638558
 30
0.0
 11
439.04417
 21
539.638646
 31
0.0
  0
LINE
  5
419
100
AcDbEntity
  8
0
  6
Continuous
 62
     8
100
AcDbLine
 10
439.04417
 20
545.638307
 30
0.0
 11
439.04417
 21
558.076746
 31
0.0
  0
ENDBLK
  5
41A
100
AcDbEntity
  8
0
100
AcDbBlockEnd
  0
BLOCK
  5
41D
100
AcDbEntity
  8
0
100
AcDbBlockBegin
  2
*B38
 70
     0
 10
0.0
 20
0.0
 30
0.0
  3
*B38
  1

  0
LINE
  5
41E
100
AcDbEntity
  8
0
  6
Continuous
 62
     8
100
AcDbLine
 10
463.792922
 20
235.523687
 30
0.0
 11
463.792922
 21
238.273883
 31
0.0
  0
LINE
  5
41F
100
AcDbEntity
  8
0
  6
Continuous
 62
     8
100
AcDbLine
 10
463.792922
 20
252.273292
 30
0.0
 11
463.792922
 21
255.022886
 31
0.0
  0
ENDBLK
  5
420
100
AcDbEntity
  8
0
100
AcDbBlockEnd
  0
BLOCK
  5
423
100
AcDbEntity
  8
0
100
AcDbBlockBegin
  2
*B39
 70
     0
 10
0.0
 20
0.0
 30
0.0
  3
*B39
  1

  0
LINE
  5
424
100
AcDbEntity
  8
0
  6
Continuous
 62
     8
100
AcDbLine
 10
280.803864
 20
38.100915
 30
0.0
 11
280.803864
 21
42.10109
 31
0.0
  0
LINE
  5
425
100
AcDbEntity
  8
0
  6
Continuous
 62
     8
100
AcDbLine
 10
280.803864
 20
42.10109
 30
0.0
 11
280.803864
 21
58.191418
 31
0.0
  0
LINE
  5
426
100
AcDbEntity
  8
0
  6
Continuous
 62
     8
100
AcDbLine
 10
280.803864
 20
64.191079
 30
0.0
 11
280.803864
 21
66.190565
 31
0.0
  0
LINE
  5
427
100
AcDbEntity
  8
0
  6
Continuous
 62
     8
100
AcDbLine
 10
280.803864
 20
72.190827
 30
0.0
 11
280.803864
 21
88.281155
 31
0.0
  0
LINE
  5
428
100
AcDbEntity
  8
0
  6
Continuous
 62
     8
100
AcDbLine
 10
280.803864
 20
102.279963
 30
0.0
 11
280.803864
 21
105.030159
 31
0.0
  0
ENDBLK
  5
429
100
AcDbEntity
  8
0
100
AcDbBlockEnd
  0
BLOCK
  5
42C
100
AcDbEntity
  8
0
100
AcDbBlockBegin
  2
*B40
 70
     0
 10
0.0
 20
0.0
 30
0.0
  3
*B40
  1

  0
LINE
  5
42D
100
AcDbEntity
  8
0
  6
Continuous
 62
     8
100
AcDbLine
 10
137.991601
 20
266.272702
 30
0.0
 11
232.807177
 21
266.272702
 31
0.0
  0
ENDBLK
  5
42E
100
AcDbEntity
  8
0
100
AcDbBlockEnd
  0
BLOCK
  5
431
100
AcDbEntity
  8
0
100
AcDbBlockBegin
  2
*B41
 70
     0
 10
0.0
 20
0.0
 30
0.0
  3
*B41
  1

  0
LINE
  5
432
100
AcDbEntity
  8
0
  6
Continuous
 62
     8
100
AcDbLine
 10
205.987357
 20
152.652693
 30
0.0
 11
232.807177
 21
152.652693
 31
0.0
  0
ENDBLK
  5
433
100
AcDbEntity
  8
0
100
AcDbBlockEnd
  0
BLOCK
  5
436
100
AcDbEntity
  8
0
100
AcDbBlockBegin
  2
*B42
 70
     0
 10
0.0
 20
0.0
 30
0.0
  3
*B42
  1

  0
LINE
  5
437
100
AcDbEntity
  8
0
  6
Continuous
 62
     8
100
AcDbLine
 10
137.991601
 20
74.281746
 30
0.0
 11
232.807177
 21
74.281746
 31
0.0
  0
ENDBLK
  5
438
100
AcDbEntity
  8
0
100
AcDbBlockEnd
  0
BLOCK
  5
43B
100
AcDbEntity
  8
0
100
AcDbBlockBegin
  2
*B43
 70
     0
 10
0.0
 20
0.0
 30
0.0
  3
*B43
  1

  0
LINE
  5
43C
100
AcDbEntity
  8
0
  6
Continuous
 62
     8
100
AcDbLine
 10
205.987357
 20
187.901153
 30
0.0
 11
232.807177
 21
187.901153
 31
0.0
  0
ENDBLK
  5
43D
100
AcDbEntity
  8
0
100
AcDbBlockEnd
  0
BLOCK
  5
440
100
AcDbEntity
  8
0
100
AcDbBlockBegin
  2
*B44
 70
     0
 10
0.0
 20
0.0
 30
0.0
  3
*B44
  1

  0
LINE
  5
441
100
AcDbEntity
  8
0
  6
Continuous
 62
     8
100
AcDbLine
 10
343.800304
 20
224.274473
 30
0.0
 11
365.298989
 21
224.274473
 31
0.0
  0
LINE
  5
442
100
AcDbEntity
  8
0
  6
Continuous
 62
     8
100
AcDbLine
 10
379.297796
 20
224.274473
 30
0.0
 11
400.796481
 21
224.274473
 31
0.0
  0
ENDBLK
  5
443
100
AcDbEntity
  8
0
100
AcDbBlockEnd
  0
BLOCK
  5
446
100
AcDbEntity
  8
0
100
AcDbBlockBegin
  2
*B45
 70
     0
 10
0.0
 20
0.0
 30
0.0
  3
*B45
  1

  0
LINE
  5
447
100
AcDbEntity
  8
0
  6
Continuous
 62
     8
100
AcDbLine
 10
171.989479
 20
170.276923
 30
0.0
 11
175.989654
 21
170.276923
 31
0.0
  0
LINE
  5
448
100
AcDbEntity
  8
0
  6
Continuous
 62
     8
100
AcDbLine
 10
633.960968
 20
170.276923
 30
0.0
 11
637.961143
 21
170.276923
 31
0.0
  0
LINE
  5
449
100
AcDbEntity
  8
0
  6
Continuous
 62
     8
100
AcDbLine
 10
175.989654
 20
170.276923
 30
0.0
 11
189.302718
 21
170.276923
 31
0.0
  0
LINE
  5
44A
100
AcDbEntity
  8
0
  6
Continuous
 62
     8
100
AcDbLine
 10
195.302379
 20
170.276923
 30
0.0
 11
197.302466
 21
170.276923
 31
0.0
  0
LINE
  5
44B
100
AcDbEntity
  8
0
  6
Continuous
 62
     8
100
AcDbLine
 10
203.302127
 20
170.276923
 30
0.0
 11
216.615191
 21
170.276923
 31
0.0
  0
LINE
  5
44C
100
AcDbEntity
  8
0
  6
Continuous
 62
     8
100
AcDbLine
 10
222.614852
 20
170.276923
 30
0.0
 11
224.614939
 21
170.276923
 31
0.0
  0
LINE
  5
44D
100
AcDbEntity
  8
0
  6
Continuous
 62
     8
100
AcDbLine
 10
230.6146
 20
170.276923
 30
0.0
 11
243.927664
 21
170.276923
 31
0.0
  0
LINE
  5
44E
100
AcDbEntity
  8
0
  6
Continuous
 62
     8
100
AcDbLine
 10
249.927325
 20
170.276923
 30
0.0
 11
251.927412
 21
170.276923
 31
0.0
  0
LINE
  5
44F
100
AcDbEntity
  8
0
  6
Continuous
 62
     8
100
AcDbLine
 10
257.927073
 20
170.276923
 30
0.0
 11
271.240738
 21
170.276923
 31
0.0
  0
LINE
  5
450
100
AcDbEntity
  8
0
  6
Continuous
 62
     8
100
AcDbLine
 10
277.239798
 20
170.276923
 30
0.0
 11
279.239885
 21
170.276923
 31
0.0
  0
LINE
  5
451
100
AcDbEntity
  8
0
  6
Continuous
 62
     8
100
AcDbLine
 10
285.239546
 20
170.276923
 30
0.0
 11
298.553211
 21
170.276923
 31
0.0
  0
LINE
  5
452
100
AcDbEntity
  8
0
  6
Continuous
 62
     8
100
AcDbLine
 10
312.552019
 20
170.276923
 30
0.0
 11
331.9261
 21
170.276923
 31
0.0
  0
LINE
  5
453
100
AcDbEntity
  8
0
  6
Continuous
 62
     8
100
AcDbLine
 10
337.925761
 20
170.276923
 30
0.0
 11
339.925247
 21
170.276923
 31
0.0
  0
LINE
  5
454
100
AcDbEntity
  8
0
  6
Continuous
 62
     8
100
AcDbLine
 10
345.924908
 20
170.276923
 30
0.0
 11
365.298989
 21
170.276923
 31
0.0
  0
LINE
  5
455
100
AcDbEntity
  8
0
  6
Continuous
 62
     8
100
AcDbLine
 10
379.297796
 20
170.276923
 30
0.0
 11
398.671877
 21
170.276923
 31
0.0
  0
LINE
  5
456
100
AcDbEntity
  8
0
  6
Continuous
 62
     8
100
AcDbLine
 10
404.671538
 20
170.276923
 30
0.0
 11
406.671626
 21
170.276923
 31
0.0
  0
LINE
  5
457
100
AcDbEntity
  8
0
  6
Continuous
 62
     8
100
AcDbLine
 10
412.670685
 20
170.276923
 30
0.0
 11
432.044766
 21
170.276923
 31
0.0
  0
LINE
  5
458
100
AcDbEntity
  8
0
  6
Continuous
 62
     8
100
AcDbLine
 10
446.044175
 20
170.276923
 30
0.0
 11
465.417654
 21
170.276923
 31
0.0
  0
LINE
  5
459
100
AcDbEntity
  8
0
  6
Continuous
 62
     8
100
AcDbLine
 10
471.417315
 20
170.276923
 30
0.0
 11
473.417403
 21
170.276923
 31
0.0
  0
LINE
  5
45A
100
AcDbEntity
  8
0
  6
Continuous
 62
     8
100
AcDbLine
 10
479.417064
 20
170.276923
 30
0.0
 11
498.790543
 21
170.276923
 31
0.0
  0
LINE
  5
45B
100
AcDbEntity
  8
0
  6
Continuous
 62
     8
100
AcDbLine
 10
512.789952
 20
170.276923
 30
0.0
 11
525.824507
 21
170.276923
 31
0.0
  0
LINE
  5
45C
100
AcDbEntity
  8
0
  6
Continuous
 62
     8
100
AcDbLine
 10
531.824168
 20
170.276923
 30
0.0
 11
533.824256
 21
170.276923
 31
0.0
  0
LINE
  5
45D
100
AcDbEntity
  8
0
  6
Continuous
 62
     8
100
AcDbLine
 10
539.823917
 20
170.276923
 30
0.0
 11
552.859074
 21
170.276923
 31
0.0
  0
LINE
  5
45E
100
AcDbEntity
  8
0
  6
Continuous
 62
     8
100
AcDbLine
 10
558.858735
 20
170.276923
 30
0.0
 11
560.858221
 21
170.276923
 31
0.0
  0
LINE
  5
45F
100
AcDbEntity
  8
0
  6
Continuous
 62
     8
100
AcDbLine
 10
566.857882
 20
170.276923
 30
0.0
 11
579.893038
 21
170.276923
 31
0.0
  0
LINE
  5
460
100
AcDbEntity
  8
0
  6
Continuous
 62
     8
100
AcDbLine
 10
585.892699
 20
170.276923
 30
0.0
 11
587.892185
 21
170.276923
 31
0.0
  0
LINE
  5
461
100
AcDbEntity
  8
0
  6
Continuous
 62
     8
100
AcDbLine
 10
593.891846
 20
170.276923
 30
0.0
 11
606.927003
 21
170.276923
 31
0.0
  0
LINE
  5
462
100
AcDbEntity
  8
0
  6
Continuous
 62
     8
100
AcDbLine
 10
612.926664
 20
170.276923
 30
0.0
 11
614.926751
 21
170.276923
 31
0.0
  0
LINE
  5
463
100
AcDbEntity
  8
0
  6
Continuous
 62
     8
100
AcDbLine
 10
620.926412
 20
170.276923
 30
0.0
 11
633.960968
 21
170.276923
 31
0.0
  0
ENDBLK
  5
464
100
AcDbEntity
  8
0
100
AcDbBlockEnd
  0
BLOCK
  5
467
100
AcDbEntity
  8
0
100
AcDbBlockBegin
  2
*B46
 70
     0
 10
0.0
 20
0.0
 30
0.0
  3
*B46
  1

  0
LINE
  5
468
100
AcDbEntity
  8
0
  6
Continuous
 62
     8
100
AcDbLine
 10
663.959272
 20
95.280559
 30
0.0
 11
667.958846
 21
95.280559
 31
0.0
  0
LINE
  5
469
100
AcDbEntity
  8
0
  6
Continuous
 62
     8
100
AcDbLine
 10
337.800643
 20
95.280559
 30
0.0
 11
340.550237
 21
95.280559
 31
0.0
  0
LINE
  5
46A
100
AcDbEntity
  8
0
  6
Continuous
 62
     8
100
AcDbLine
 10
354.549646
 20
95.280559
 30
0.0
 11
373.923125
 21
95.280559
 31
0.0
  0
LINE
  5
46B
100
AcDbEntity
  8
0
  6
Continuous
 62
     8
100
AcDbLine
 10
379.922786
 20
95.280559
 30
0.0
 11
381.922874
 21
95.280559
 31
0.0
  0
LINE
  5
46C
100
AcDbEntity
  8
0
  6
Continuous
 62
     8
100
AcDbLine
 10
387.922535
 20
95.280559
 30
0.0
 11
407.296014
 21
95.280559
 31
0.0
  0
LINE
  5
46D
100
AcDbEntity
  8
0
  6
Continuous
 62
     8
100
AcDbLine
 10
421.295423
 20
95.280559
 30
0.0
 11
440.669504
 21
95.280559
 31
0.0
  0
LINE
  5
46E
100
AcDbEntity
  8
0
  6
Continuous
 62
     8
100
AcDbLine
 10
446.669165
 20
95.280559
 30
0.0
 11
448.668651
 21
95.280559
 31
0.0
  0
LINE
  5
46F
100
AcDbEntity
  8
0
  6
Continuous
 62
     8
100
AcDbLine
 10
454.668312
 20
95.280559
 30
0.0
 11
474.042392
 21
95.280559
 31
0.0
  0
LINE
  5
470
100
AcDbEntity
  8
0
  6
Continuous
 62
     8
100
AcDbLine
 10
488.0412
 20
95.280559
 30
0.0
 11
501.173203
 21
95.280559
 31
0.0
  0
LINE
  5
471
100
AcDbEntity
  8
0
  6
Continuous
 62
     8
100
AcDbLine
 10
507.172864
 20
95.280559
 30
0.0
 11
509.172952
 21
95.280559
 31
0.0
  0
LINE
  5
472
100
AcDbEntity
  8
0
  6
Continuous
 62
     8
100
AcDbLine
 10
515.172613
 20
95.280559
 30
0.0
 11
528.304014
 21
95.280559
 31
0.0
  0
LINE
  5
473
100
AcDbEntity
  8
0
  6
Continuous
 62
     8
100
AcDbLine
 10
534.303675
 20
95.280559
 30
0.0
 11
536.303763
 21
95.280559
 31
0.0
  0
LINE
  5
474
100
AcDbEntity
  8
0
  6
Continuous
 62
     8
100
AcDbLine
 10
542.303424
 20
95.280559
 30
0.0
 11
555.435427
 21
95.280559
 31
0.0
  0
LINE
  5
475
100
AcDbEntity
  8
0
  6
Continuous
 62
     8
100
AcDbLine
 10
561.435088
 20
95.280559
 30
0.0
 11
563.434574
 21
95.280559
 31
0.0
  0
LINE
  5
476
100
AcDbEntity
  8
0
  6
Continuous
 62
     8
100
AcDbLine
 10
569.434235
 20
95.280559
 30
0.0
 11
582.566238
 21
95.280559
 31
0.0
  0
LINE
  5
477
100
AcDbEntity
  8
0
  6
Continuous
 62
     8
100
AcDbLine
 10
588.565899
 20
95.280559
 30
0.0
 11
590.565986
 21
95.280559
 31
0.0
  0
LINE
  5
478
100
AcDbEntity
  8
0
  6
Continuous
 62
     8
100
AcDbLine
 10
596.565647
 20
95.280559
 30
0.0
 11
609.697049
 21
95.280559
 31
0.0
  0
LINE
  5
479
100
AcDbEntity
  8
0
  6
Continuous
 62
     8
100
AcDbLine
 10
615.69671
 20
95.280559
 30
0.0
 11
617.696797
 21
95.280559
 31
0.0
  0
LINE
  5
47A
100
AcDbEntity
  8
0
  6
Continuous
 62
     8
100
AcDbLine
 10
623.696458
 20
95.280559
 30
0.0
 11
636.828461
 21
95.280559
 31
0.0
  0
LINE
  5
47B
100
AcDbEntity
  8
0
  6
Continuous
 62
     8
100
AcDbLine
 10
642.828122
 20
95.280559
 30
0.0
 11
644.827608
 21
95.280559
 31
0.0
  0
LINE
  5
47C
100
AcDbEntity
  8
0
  6
Continuous
 62
     8
100
AcDbLine
 10
650.827269
 20
95.280559
 30
0.0
 11
663.959272
 21
95.280559
 31
0.0
  0
ENDBLK
  5
47D
100
AcDbEntity
  8
0
100
AcDbBlockEnd
  0
BLOCK
  5
480
100
AcDbEntity
  8
0
100
AcDbBlockBegin
  2
*B47
 70
     0
 10
0.0
 20
0.0
 30
0.0
  3
*B47
  1

  0
LINE
  5
481
100
AcDbEntity
  8
0
  6
Continuous
 62
     8
100
AcDbLine
 10
207.987445
 20
527.442623
 30
0.0
 11
266.554819
 21
527.442623
 31
0.0
  0
ENDBLK
  5
482
100
AcDbEntity
  8
0
100
AcDbBlockEnd
  0
BLOCK
  5
485
100
AcDbEntity
  8
0
100
AcDbBlockBegin
  2
*B48
 70
     0
 10
0.0
 20
0.0
 30
0.0
  3
*B48
  1

  0
LINE
  5
486
100
AcDbEntity
  8
0
  6
Continuous
 62
     8
100
AcDbLine
 10
305.552615
 20
558.076746
 30
0.0
 11
305.552615
 21
562.076319
 31
0.0
  0
LINE
  5
487
100
AcDbEntity
  8
0
  6
Continuous
 62
     8
100
AcDbLine
 10
305.552615
 20
413.447862
 30
0.0
 11
305.552615
 21
425.886902
 31
0.0
  0
LINE
  5
488
100
AcDbEntity
  8
0
  6
Continuous
 62
     8
100
AcDbLine
 10
305.552615
 20
431.886563
 30
0.0
 11
305.552615
 21
433.886049
 31
0.0
  0
LINE
  5
489
100
AcDbEntity
  8
0
  6
Continuous
 62
     8
100
AcDbLine
 10
305.552615
 20
439.886312
 30
0.0
 11
305.552615
 21
452.324751
 31
0.0
  0
LINE
  5
48A
100
AcDbEntity
  8
0
  6
Continuous
 62
     8
100
AcDbLine
 10
305.552615
 20
458.324412
 30
0.0
 11
305.552615
 21
460.324499
 31
0.0
  0
LINE
  5
48B
100
AcDbEntity
  8
0
  6
Continuous
 62
     8
100
AcDbLine
 10
305.552615
 20
466.32416
 30
0.0
 11
305.552615
 21
478.762599
 31
0.0
  0
LINE
  5
48C
100
AcDbEntity
  8
0
  6
Continuous
 62
     8
100
AcDbLine
 10
305.552615
 20
484.76226
 30
0.0
 11
305.552615
 21
486.762347
 31
0.0
  0
LINE
  5
48D
100
AcDbEntity
  8
0
  6
Continuous
 62
     8
100
AcDbLine
 10
305.552615
 20
492.762008
 30
0.0
 11
305.552615
 21
505.200447
 31
0.0
  0
LINE
  5
48E
100
AcDbEntity
  8
0
  6
Continuous
 62
     8
100
AcDbLine
 10
305.552615
 20
511.20071
 30
0.0
 11
305.552615
 21
513.200196
 31
0.0
  0
LINE
  5
48F
100
AcDbEntity
  8
0
  6
Continuous
 62
     8
100
AcDbLine
 10
305.552615
 20
519.199857
 30
0.0
 11
305.552615
 21
531.638897
 31
0.0
  0
LINE
  5
490
100
AcDbEntity
  8
0
  6
Continuous
 62
     8
100
AcDbLine
 10
305.552615
 20
537.638558
 30
0.0
 11
305.552615
 21
539.638646
 31
0.0
  0
LINE
  5
491
100
AcDbEntity
  8
0
  6
Continuous
 62
     8
100
AcDbLine
 10
305.552615
 20
545.638307
 30
0.0
 11
305.552615
 21
558.076746
 31
0.0
  0
ENDBLK
  5
492
100
AcDbEntity
  8
0
100
AcDbBlockEnd
  0
BLOCK
  5
495
100
AcDbEntity
  8
0
100
AcDbBlockBegin
  2
*B49
 70
     0
 10
0.0
 20
0.0
 30
0.0
  3
*B49
  1

  0
LINE
  5
496
100
AcDbEntity
  8
0
  6
Continuous
 62
     8
100
AcDbLine
 10
633.960968
 20
116.279373
 30
0.0
 11
637.961143
 21
116.279373
 31
0.0
  0
LINE
  5
497
100
AcDbEntity
  8
0
  6
Continuous
 62
     8
100
AcDbLine
 10
410.546081
 20
116.279373
 30
0.0
 11
432.044766
 21
116.279373
 31
0.0
  0
LINE
  5
498
100
AcDbEntity
  8
0
  6
Continuous
 62
     8
100
AcDbLine
 10
446.044175
 20
116.279373
 30
0.0
 11
465.417654
 21
116.279373
 31
0.0
  0
LINE
  5
499
100
AcDbEntity
  8
0
  6
Continuous
 62
     8
100
AcDbLine
 10
471.417315
 20
116.279373
 30
0.0
 11
473.417403
 21
116.279373
 31
0.0
  0
LINE
  5
49A
100
AcDbEntity
  8
0
  6
Continuous
 62
     8
100
AcDbLine
 10
479.417064
 20
116.279373
 30
0.0
 11
498.790543
 21
116.279373
 31
0.0
  0
LINE
  5
49B
100
AcDbEntity
  8
0
  6
Continuous
 62
     8
100
AcDbLine
 10
512.789952
 20
116.279373
 30
0.0
 11
525.824507
 21
116.279373
 31
0.0
  0
LINE
  5
49C
100
AcDbEntity
  8
0
  6
Continuous
 62
     8
100
AcDbLine
 10
531.824168
 20
116.279373
 30
0.0
 11
533.824256
 21
116.279373
 31
0.0
  0
LINE
  5
49D
100
AcDbEntity
  8
0
  6
Continuous
 62
     8
100
AcDbLine
 10
539.823917
 20
116.279373
 30
0.0
 11
552.859074
 21
116.279373
 31
0.0
  0
LINE
  5
49E
100
AcDbEntity
  8
0
  6
Continuous
 62
     8
100
AcDbLine
 10
558.858735
 20
116.279373
 30
0.0
 11
560.858221
 21
116.279373
 31
0.0
  0
LINE
  5
49F
100
AcDbEntity
  8
0
  6
Continuous
 62
     8
100
AcDbLine
 10
566.857882
 20
116.279373
 30
0.0
 11
579.893038
 21
116.279373
 31
0.0
  0
LINE
  5
4A0
100
AcDbEntity
  8
0
  6
Continuous
 62
     8
100
AcDbLine
 10
585.892699
 20
116.279373
 30
0.0
 11
587.892185
 21
116.279373
 31
0.0
  0
LINE
  5
4A1
100
AcDbEntity
  8
0
  6
Continuous
 62
     8
100
AcDbLine
 10
593.891846
 20
116.279373
 30
0.0
 11
606.927003
 21
116.279373
 31
0.0
  0
LINE
  5
4A2
100
AcDbEntity
  8
0
  6
Continuous
 62
     8
100
AcDbLine
 10
612.926664
 20
116.279373
 30
0.0
 11
614.926751
 21
116.279373
 31
0.0
  0
LINE
  5
4A3
100
AcDbEntity
  8
0
  6
Continuous
 62
     8
100
AcDbLine
 10
620.926412
 20
116.279373
 30
0.0
 11
633.960968
 21
116.279373
 31
0.0
  0
ENDBLK
  5
4A4
100
AcDbEntity
  8
0
100
AcDbBlockEnd
  0
BLOCK
  5
4A7
100
AcDbEntity
  8
0
100
AcDbBlockBegin
  2
*B50
 70
     0
 10
0.0
 20
0.0
 30
0.0
  3
*B50
  1

  0
LINE
  5
4A8
100
AcDbEntity
  8
0
  6
Continuous
 62
     8
100
AcDbLine
 10
330.300766
 20
38.100915
 30
0.0
 11
330.300766
 21
42.10109
 31
0.0
  0
LINE
  5
4A9
100
AcDbEntity
  8
0
  6
Continuous
 62
     8
100
AcDbLine
 10
330.300766
 20
42.10109
 30
0.0
 11
330.300766
 21
54.372905
 31
0.0
  0
LINE
  5
4AA
100
AcDbEntity
  8
0
  6
Continuous
 62
     8
100
AcDbLine
 10
330.300766
 20
60.372566
 30
0.0
 11
330.300766
 21
62.372653
 31
0.0
  0
LINE
  5
4AB
100
AcDbEntity
  8
0
  6
Continuous
 62
     8
100
AcDbLine
 10
330.300766
 20
68.372314
 30
0.0
 11
330.300766
 21
80.644731
 31
0.0
  0
LINE
  5
4AC
100
AcDbEntity
  8
0
  6
Continuous
 62
     8
100
AcDbLine
 10
330.300766
 20
86.644392
 30
0.0
 11
330.300766
 21
88.64448
 31
0.0
  0
LINE
  5
4AD
100
AcDbEntity
  8
0
  6
Continuous
 62
     8
100
AcDbLine
 10
330.300766
 20
94.64414
 30
0.0
 11
330.300766
 21
106.915956
 31
0.0
  0
LINE
  5
4AE
100
AcDbEntity
  8
0
  6
Continuous
 62
     8
100
AcDbLine
 10
330.300766
 20
112.915617
 30
0.0
 11
330.300766
 21
114.915704
 31
0.0
  0
LINE
  5
4AF
100
AcDbEntity
  8
0
  6
Continuous
 62
     8
100
AcDbLine
 10
330.300766
 20
120.915365
 30
0.0
 11
330.300766
 21
133.187782
 31
0.0
  0
LINE
  5
4B0
100
AcDbEntity
  8
0
  6
Continuous
 62
     8
100
AcDbLine
 10
330.300766
 20
139.187443
 30
0.0
 11
330.300766
 21
141.18753
 31
0.0
  0
LINE
  5
4B1
100
AcDbEntity
  8
0
  6
Continuous
 62
     8
100
AcDbLine
 10
330.300766
 20
147.187191
 30
0.0
 11
330.300766
 21
159.459006
 31
0.0
  0
LINE
  5
4B2
100
AcDbEntity
  8
0
  6
Continuous
 62
     8
100
AcDbLine
 10
330.300766
 20
165.459269
 30
0.0
 11
330.300766
 21
167.458755
 31
0.0
  0
LINE
  5
4B3
100
AcDbEntity
  8
0
  6
Continuous
 62
     8
100
AcDbLine
 10
330.300766
 20
173.458416
 30
0.0
 11
330.300766
 21
185.730832
 31
0.0
  0
LINE
  5
4B4
100
AcDbEntity
  8
0
  6
Continuous
 62
     8
100
AcDbLine
 10
330.300766
 20
191.730493
 30
0.0
 11
330.300766
 21
193.730581
 31
0.0
  0
LINE
  5
4B5
100
AcDbEntity
  8
0
  6
Continuous
 62
     8
100
AcDbLine
 10
330.300766
 20
199.730242
 30
0.0
 11
330.300766
 21
212.002057
 31
0.0
  0
LINE
  5
4B6
100
AcDbEntity
  8
0
  6
Continuous
 62
     8
100
AcDbLine
 10
330.300766
 20
218.002319
 30
0.0
 11
330.300766
 21
220.001805
 31
0.0
  0
LINE
  5
4B7
100
AcDbEntity
  8
0
  6
Continuous
 62
     8
100
AcDbLine
 10
330.300766
 20
226.001466
 30
0.0
 11
330.300766
 21
238.273883
 31
0.0
  0
LINE
  5
4B8
100
AcDbEntity
  8
0
  6
Continuous
 62
     8
100
AcDbLine
 10
330.300766
 20
252.273292
 30
0.0
 11
330.300766
 21
255.022886
 31
0.0
  0
ENDBLK
  5
4B9
100
AcDbEntity
  8
0
100
AcDbBlockEnd
  0
BLOCK
  5
4BC
100
AcDbEntity
  8
0
100
AcDbBlockBegin
  2
*B51
 70
     0
 10
0.0
 20
0.0
 30
0.0
  3
*B51
  1

  0
LINE
  5
4BD
100
AcDbEntity
  8
0
  6
Continuous
 62
     8
100
AcDbLine
 10
554.537343
 20
353.450651
 30
0.0
 11
554.537343
 21
368.116555
 31
0.0
  0
LINE
  5
4BE
100
AcDbEntity
  8
0
  6
Continuous
 62
     8
100
AcDbLine
 10
554.537343
 20
374.116818
 30
0.0
 11
554.537343
 21
376.116304
 31
0.0
  0
LINE
  5
4BF
100
AcDbEntity
  8
0
  6
Continuous
 62
     8
100
AcDbLine
 10
554.537343
 20
382.115965
 30
0.0
 11
554.537343
 21
396.78187
 31
0.0
  0
LINE
  5
4C0
100
AcDbEntity
  8
0
  6
Continuous
 62
     8
100
AcDbLine
 10
554.537343
 20
402.781531
 30
0.0
 11
554.537343
 21
404.781618
 31
0.0
  0
LINE
  5
4C1
100
AcDbEntity
  8
0
  6
Continuous
 62
     8
100
AcDbLine
 10
554.537343
 20
410.781279
 30
0.0
 11
554.537343
 21
425.447184
 31
0.0
  0
ENDBLK
  5
4C2
100
AcDbEntity
  8
0
100
AcDbBlockEnd
  0
BLOCK
  5
4C5
100
AcDbEntity
  8
0
100
AcDbBlockBegin
  2
*B52
 70
     0
 10
0.0
 20
0.0
 30
0.0
  3
*B52
  1

  0
LINE
  5
4C6
100
AcDbEntity
  8
0
  6
Continuous
 62
     8
100
AcDbLine
 10
277.054527
 20
116.279373
 30
0.0
 11
298.553211
 21
116.279373
 31
0.0
  0
LINE
  5
4C7
100
AcDbEntity
  8
0
  6
Continuous
 62
     8
100
AcDbLine
 10
312.552019
 20
116.279373
 30
0.0
 11
334.050704
 21
116.279373
 31
0.0
  0
ENDBLK
  5
4C8
100
AcDbEntity
  8
0
100
AcDbBlockEnd
  0
BLOCK
  5
4CB
100
AcDbEntity
  8
0
100
AcDbBlockBegin
  2
*B53
 70
     0
 10
0.0
 20
0.0
 30
0.0
  3
*B53
  1

  0
LINE
  5
4CC
100
AcDbEntity
  8
0
  6
Continuous
 62
     8
100
AcDbLine
 10
305.552615
 20
323.087819
 30
0.0
 11
305.552615
 21
327.087392
 31
0.0
  0
LINE
  5
4CD
100
AcDbEntity
  8
0
  6
Continuous
 62
     8
100
AcDbLine
 10
305.552615
 20
87.780682
 30
0.0
 11
305.552615
 21
109.279969
 31
0.0
  0
LINE
  5
4CE
100
AcDbEntity
  8
0
  6
Continuous
 62
     8
100
AcDbLine
 10
305.552615
 20
123.279378
 30
0.0
 11
305.552615
 21
136.278443
 31
0.0
  0
LINE
  5
4CF
100
AcDbEntity
  8
0
  6
Continuous
 62
     8
100
AcDbLine
 10
305.552615
 20
142.278104
 30
0.0
 11
305.552615
 21
144.278192
 31
0.0
  0
LINE
  5
4D0
100
AcDbEntity
  8
0
  6
Continuous
 62
     8
100
AcDbLine
 10
305.552615
 20
150.277853
 30
0.0
 11
305.552615
 21
163.277519
 31
0.0
  0
LINE
  5
4D1
100
AcDbEntity
  8
0
  6
Continuous
 62
     8
100
AcDbLine
 10
305.552615
 20
177.276928
 30
0.0
 11
305.552615
 21
190.275993
 31
0.0
  0
LINE
  5
4D2
100
AcDbEntity
  8
0
  6
Continuous
 62
     8
100
AcDbLine
 10
305.552615
 20
196.275654
 30
0.0
 11
305.552615
 21
198.275742
 31
0.0
  0
LINE
  5
4D3
100
AcDbEntity
  8
0
  6
Continuous
 62
     8
100
AcDbLine
 10
305.552615
 20
204.275403
 30
0.0
 11
305.552615
 21
217.275069
 31
0.0
  0
LINE
  5
4D4
100
AcDbEntity
  8
0
  6
Continuous
 62
     8
100
AcDbLine
 10
305.552615
 20
231.274479
 30
0.0
 11
305.552615
 21
243.727956
 31
0.0
  0
LINE
  5
4D5
100
AcDbEntity
  8
0
  6
Continuous
 62
     8
100
AcDbLine
 10
305.552615
 20
249.727617
 30
0.0
 11
305.552615
 21
251.727704
 31
0.0
  0
LINE
  5
4D6
100
AcDbEntity
  8
0
  6
Continuous
 62
     8
100
AcDbLine
 10
305.552615
 20
257.727365
 30
0.0
 11
305.552615
 21
270.181444
 31
0.0
  0
LINE
  5
4D7
100
AcDbEntity
  8
0
  6
Continuous
 62
     8
100
AcDbLine
 10
305.552615
 20
276.181105
 30
0.0
 11
305.552615
 21
278.181192
 31
0.0
  0
LINE
  5
4D8
100
AcDbEntity
  8
0
  6
Continuous
 62
     8
100
AcDbLine
 10
305.552615
 20
284.180853
 30
0.0
 11
305.552615
 21
296.634331
 31
0.0
  0
LINE
  5
4D9
100
AcDbEntity
  8
0
  6
Continuous
 62
     8
100
AcDbLine
 10
305.552615
 20
302.633991
 30
0.0
 11
305.552615
 21
304.634079
 31
0.0
  0
LINE
  5
4DA
100
AcDbEntity
  8
0
  6
Continuous
 62
     8
100
AcDbLine
 10
305.552615
 20
310.63374
 30
0.0
 11
305.552615
 21
323.087819
 31
0.0
  0
ENDBLK
  5
4DB
100
AcDbEntity
  8
0
100
AcDbBlockEnd
  0
BLOCK
  5
4DE
100
AcDbEntity
  8
0
100
AcDbBlockBegin
  2
*B54
 70
     0
 10
0.0
 20
0.0
 30
0.0
  3
*B54
  1

  0
LINE
  5
4DF
100
AcDbEntity
  8
0
  6
Continuous
 62
     8
100
AcDbLine
 10
277.054527
 20
224.274473
 30
0.0
 11
298.553211
 21
224.274473
 31
0.0
  0
LINE
  5
4E0
100
AcDbEntity
  8
0
  6
Continuous
 62
     8
100
AcDbLine
 10
312.552019
 20
224.274473
 30
0.0
 11
334.050704
 21
224.274473
 31
0.0
  0
ENDBLK
  5
4E1
100
AcDbEntity
  8
0
100
AcDbBlockEnd
  0
BLOCK
  5
4E4
100
AcDbEntity
  8
0
100
AcDbBlockBegin
  2
*B55
 70
     0
 10
0.0
 20
0.0
 30
0.0
  3
*B55
  1

  0
LINE
  5
4E5
100
AcDbEntity
  8
0
  6
Continuous
 62
     8
100
AcDbLine
 10
372.298393
 20
323.087819
 30
0.0
 11
372.298393
 21
327.087392
 31
0.0
  0
LINE
  5
4E6
100
AcDbEntity
  8
0
  6
Continuous
 62
     8
100
AcDbLine
 10
372.298393
 20
87.780682
 30
0.0
 11
372.298393
 21
109.279969
 31
0.0
  0
LINE
  5
4E7
100
AcDbEntity
  8
0
  6
Continuous
 62
     8
100
AcDbLine
 10
372.298393
 20
123.279378
 30
0.0
 11
372.298393
 21
136.278443
 31
0.0
  0
LINE
  5
4E8
100
AcDbEntity
  8
0
  6
Continuous
 62
     8
100
AcDbLine
 10
372.298393
 20
142.278104
 30
0.0
 11
372.298393
 21
144.278192
 31
0.0
  0
LINE
  5
4E9
100
AcDbEntity
  8
0
  6
Continuous
 62
     8
100
AcDbLine
 10
372.298393
 20
150.277853
 30
0.0
 11
372.298393
 21
163.277519
 31
0.0
  0
LINE
  5
4EA
100
AcDbEntity
  8
0
  6
Continuous
 62
     8
100
AcDbLine
 10
372.298393
 20
177.276928
 30
0.0
 11
372.298393
 21
190.275993
 31
0.0
  0
LINE
  5
4EB
100
AcDbEntity
  8
0
  6
Continuous
 62
     8
100
AcDbLine
 10
372.298393
 20
196.275654
 30
0.0
 11
372.298393
 21
198.275742
 31
0.0
  0
LINE
  5
4EC
100
AcDbEntity
  8
0
  6
Continuous
 62
     8
100
AcDbLine
 10
372.298393
 20
204.275403
 30
0.0
 11
372.298393
 21
217.275069
 31
0.0
  0
LINE
  5
4ED
100
AcDbEntity
  8
0
  6
Continuous
 62
     8
100
AcDbLine
 10
372.298393
 20
231.274479
 30
0.0
 11
372.298393
 21
243.727956
 31
0.0
  0
LINE
  5
4EE
100
AcDbEntity
  8
0
  6
Continuous
 62
     8
100
AcDbLine
 10
372.298393
 20
249.727617
 30
0.0
 11
372.298393
 21
251.727704
 31
0.0
  0
LINE
  5
4EF
100
AcDbEntity
  8
0
  6
Continuous
 62
     8
100
AcDbLine
 10
372.298393
 20
257.727365
 30
0.0
 11
372.298393
 21
270.181444
 31
0.0
  0
LINE
  5
4F0
100
AcDbEntity
  8
0
  6
Continuous
 62
     8
100
AcDbLine
 10
372.298393
 20
276.181105
 30
0.0
 11
372.298393
 21
278.181192
 31
0.0
  0
LINE
  5
4F1
100
AcDbEntity
  8
0
  6
Continuous
 62
     8
100
AcDbLine
 10
372.298393
 20
284.180853
 30
0.0
 11
372.298393
 21
296.634331
 31
0.0
  0
LINE
  5
4F2
100
AcDbEntity
  8
0
  6
Continuous
 62
     8
100
AcDbLine
 10
372.298393
 20
302.633991
 30
0.0
 11
372.298393
 21
304.634079
 31
0.0
  0
LINE
  5
4F3
100
AcDbEntity
  8
0
  6
Continuous
 62
     8
100
AcDbLine
 10
372.298393
 20
310.63374
 30
0.0
 11
372.298393
 21
323.087819
 31
0.0
  0
ENDBLK
  5
4F4
100
AcDbEntity
  8
0
100
AcDbBlockEnd
  0
BLOCK
  5
4F7
100
AcDbEntity
  8
0
100
AcDbBlockBegin
  2
*B56
 70
     0
 10
0.0
 20
0.0
 30
0.0
  3
*B56
  1

  0
LINE
  5
4F8
100
AcDbEntity
  8
0
  6
Continuous
 62
     8
100
AcDbLine
 10
663.959272
 20
245.273287
 30
0.0
 11
667.958846
 21
245.273287
 31
0.0
  0
LINE
  5
4F9
100
AcDbEntity
  8
0
  6
Continuous
 62
     8
100
AcDbLine
 10
387.297545
 20
245.273287
 30
0.0
 11
390.047139
 21
245.273287
 31
0.0
  0
LINE
  5
4FA
100
AcDbEntity
  8
0
  6
Continuous
 62
     8
100
AcDbLine
 10
404.046548
 20
245.273287
 30
0.0
 11
423.420027
 21
245.273287
 31
0.0
  0
LINE
  5
4FB
100
AcDbEntity
  8
0
  6
Continuous
 62
     8
100
AcDbLine
 10
429.419688
 20
245.273287
 30
0.0
 11
431.419776
 21
245.273287
 31
0.0
  0
LINE
  5
4FC
100
AcDbEntity
  8
0
  6
Continuous
 62
     8
100
AcDbLine
 10
437.419437
 20
245.273287
 30
0.0
 11
456.793518
 21
245.273287
 31
0.0
  0
LINE
  5
4FD
100
AcDbEntity
  8
0
  6
Continuous
 62
     8
100
AcDbLine
 10
470.792325
 20
245.273287
 30
0.0
 11
490.166406
 21
245.273287
 31
0.0
  0
LINE
  5
4FE
100
AcDbEntity
  8
0
  6
Continuous
 62
     8
100
AcDbLine
 10
496.166067
 20
245.273287
 30
0.0
 11
498.165553
 21
245.273287
 31
0.0
  0
LINE
  5
4FF
100
AcDbEntity
  8
0
  6
Continuous
 62
     8
100
AcDbLine
 10
504.165214
 20
245.273287
 30
0.0
 11
523.539295
 21
245.273287
 31
0.0
  0
LINE
  5
500
100
AcDbEntity
  8
0
  6
Continuous
 62
     8
100
AcDbLine
 10
537.538103
 20
245.273287
 30
0.0
 11
551.622929
 21
245.273287
 31
0.0
  0
LINE
  5
501
100
AcDbEntity
  8
0
  6
Continuous
 62
     8
100
AcDbLine
 10
557.62259
 20
245.273287
 30
0.0
 11
559.622678
 21
245.273287
 31
0.0
  0
LINE
  5
502
100
AcDbEntity
  8
0
  6
Continuous
 62
     8
100
AcDbLine
 10
565.622339
 20
245.273287
 30
0.0
 11
579.707165
 21
245.273287
 31
0.0
  0
LINE
  5
503
100
AcDbEntity
  8
0
  6
Continuous
 62
     8
100
AcDbLine
 10
585.706826
 20
245.273287
 30
0.0
 11
587.706914
 21
245.273287
 31
0.0
  0
LINE
  5
504
100
AcDbEntity
  8
0
  6
Continuous
 62
     8
100
AcDbLine
 10
593.706575
 20
245.273287
 30
0.0
 11
607.791402
 21
245.273287
 31
0.0
  0
LINE
  5
505
100
AcDbEntity
  8
0
  6
Continuous
 62
     8
100
AcDbLine
 10
613.791063
 20
245.273287
 30
0.0
 11
615.790549
 21
245.273287
 31
0.0
  0
LINE
  5
506
100
AcDbEntity
  8
0
  6
Continuous
 62
     8
100
AcDbLine
 10
621.79021
 20
245.273287
 30
0.0
 11
635.875638
 21
245.273287
 31
0.0
  0
LINE
  5
507
100
AcDbEntity
  8
0
  6
Continuous
 62
     8
100
AcDbLine
 10
641.874697
 20
245.273287
 30
0.0
 11
643.874785
 21
245.273287
 31
0.0
  0
LINE
  5
508
100
AcDbEntity
  8
0
  6
Continuous
 62
     8
100
AcDbLine
 10
649.874446
 20
245.273287
 30
0.0
 11
663.959272
 21
245.273287
 31
0.0
  0
ENDBLK
  5
509
100
AcDbEntity
  8
0
100
AcDbBlockEnd
  0
BLOCK
  5
50C
100
AcDbEntity
  8
0
100
AcDbBlockBegin
  2
*B57
 70
     0
 10
0.0
 20
0.0
 30
0.0
  3
*B57
  1

  0
LINE
  5
50D
100
AcDbEntity
  8
0
  6
Continuous
 62
     8
100
AcDbLine
 10
256.805821
 20
293.088912
 30
0.0
 11
256.805821
 21
297.089087
 31
0.0
  0
LINE
  5
50E
100
AcDbEntity
  8
0
  6
Continuous
 62
     8
100
AcDbLine
 10
256.805821
 20
190.52623
 30
0.0
 11
256.805821
 21
196.275654
 31
0.0
  0
LINE
  5
50F
100
AcDbEntity
  8
0
  6
Continuous
 62
     8
100
AcDbLine
 10
256.805821
 20
210.275064
 30
0.0
 11
256.805821
 21
228.547141
 31
0.0
  0
LINE
  5
510
100
AcDbEntity
  8
0
  6
Continuous
 62
     8
100
AcDbLine
 10
256.805821
 20
234.546802
 30
0.0
 11
256.805821
 21
236.546288
 31
0.0
  0
LINE
  5
511
100
AcDbEntity
  8
0
  6
Continuous
 62
     8
100
AcDbLine
 10
256.805821
 20
242.546551
 30
0.0
 11
256.805821
 21
260.818027
 31
0.0
  0
LINE
  5
512
100
AcDbEntity
  8
0
  6
Continuous
 62
     8
100
AcDbLine
 10
256.805821
 20
266.817688
 30
0.0
 11
256.805821
 21
268.817775
 31
0.0
  0
LINE
  5
513
100
AcDbEntity
  8
0
  6
Continuous
 62
     8
100
AcDbLine
 10
256.805821
 20
274.817436
 30
0.0
 11
256.805821
 21
293.088912
 31
0.0
  0
ENDBLK
  5
514
100
AcDbEntity
  8
0
100
AcDbBlockEnd
  0
BLOCK
  5
517
100
AcDbEntity
  8
0
100
AcDbBlockBegin
  2
*B58
 70
     0
 10
0.0
 20
0.0
 30
0.0
  3
*B58
  1

  0
LINE
  5
518
100
AcDbEntity
  8
0
  6
Continuous
 62
     8
100
AcDbLine
 10
554.537343
 20
124.529358
 30
0.0
 11
554.537343
 21
130.278782
 31
0.0
  0
LINE
  5
519
100
AcDbEntity
  8
0
  6
Continuous
 62
     8
100
AcDbLine
 10
554.537343
 20
144.278192
 30
0.0
 11
554.537343
 21
150.028218
 31
0.0
  0
ENDBLK
  5
51A
100
AcDbEntity
  8
0
100
AcDbBlockEnd
  0
BLOCK
  5
51D
100
AcDbEntity
  8
0
100
AcDbBlockBegin
  2
*B59
 70
     0
 10
0.0
 20
0.0
 30
0.0
  3
*B59
  1

  0
LINE
  5
51E
100
AcDbEntity
  8
0
  6
Continuous
 62
     8
100
AcDbLine
 10
372.298393
 20
558.076746
 30
0.0
 11
372.298393
 21
562.076319
 31
0.0
  0
LINE
  5
51F
100
AcDbEntity
  8
0
  6
Continuous
 62
     8
100
AcDbLine
 10
372.298393
 20
413.447862
 30
0.0
 11
372.298393
 21
425.886902
 31
0.0
  0
LINE
  5
520
100
AcDbEntity
  8
0
  6
Continuous
 62
     8
100
AcDbLine
 10
372.298393
 20
431.886563
 30
0.0
 11
372.298393
 21
433.886049
 31
0.0
  0
LINE
  5
521
100
AcDbEntity
  8
0
  6
Continuous
 62
     8
100
AcDbLine
 10
372.298393
 20
439.886312
 30
0.0
 11
372.298393
 21
452.324751
 31
0.0
  0
LINE
  5
522
100
AcDbEntity
  8
0
  6
Continuous
 62
     8
100
AcDbLine
 10
372.298393
 20
458.324412
 30
0.0
 11
372.298393
 21
460.324499
 31
0.0
  0
LINE
  5
523
100
AcDbEntity
  8
0
  6
Continuous
 62
     8
100
AcDbLine
 10
372.298393
 20
466.32416
 30
0.0
 11
372.298393
 21
478.762599
 31
0.0
  0
LINE
  5
524
100
AcDbEntity
  8
0
  6
Continuous
 62
     8
100
AcDbLine
 10
372.298393
 20
484.76226
 30
0.0
 11
372.298393
 21
486.762347
 31
0.0
  0
LINE
  5
525
100
AcDbEntity
  8
0
  6
Continuous
 62
     8
100
AcDbLine
 10
372.298393
 20
492.762008
 30
0.0
 11
372.298393
 21
505.200447
 31
0.0
  0
LINE
  5
526
100
AcDbEntity
  8
0
  6
Continuous
 62
     8
100
AcDbLine
 10
372.298393
 20
511.20071
 30
0.0
 11
372.298393
 21
513.200196
 31
0.0
  0
LINE
  5
527
100
AcDbEntity
  8
0
  6
Continuous
 62
     8
100
AcDbLine
 10
372.298393
 20
519.199857
 30
0.0
 11
372.298393
 21
531.638897
 31
0.0
  0
LINE
  5
528
100
AcDbEntity
  8
0
  6
Continuous
 62
     8
100
AcDbLine
 10
372.298393
 20
537.638558
 30
0.0
 11
372.298393
 21
539.638646
 31
0.0
  0
LINE
  5
529
100
AcDbEntity
  8
0
  6
Continuous
 62
     8
100
AcDbLine
 10
372.298393
 20
545.638307
 30
0.0
 11
372.298393
 21
558.076746
 31
0.0
  0
ENDBLK
  5
52A
100
AcDbEntity
  8
0
100
AcDbBlockEnd
  0
BLOCK
  5
52D
100
AcDbEntity
  8
0
100
AcDbBlockBegin
  2
*B60
 70
     0
 10
0.0
 20
0.0
 30
0.0
  3
*B60
  1

  0
LINE
  5
52E
100
AcDbEntity
  8
0
  6
Continuous
 62
     8
100
AcDbLine
 10
320.551768
 20
245.273287
 30
0.0
 11
323.301362
 21
245.273287
 31
0.0
  0
LINE
  5
52F
100
AcDbEntity
  8
0
  6
Continuous
 62
     8
100
AcDbLine
 10
337.300771
 20
245.273287
 30
0.0
 11
340.050365
 21
245.273287
 31
0.0
  0
ENDBLK
  5
530
100
AcDbEntity
  8
0
100
AcDbBlockEnd
  0
BLOCK
  5
533
100
AcDbEntity
  8
0
100
AcDbBlockBegin
  2
*B61
 70
     0
 10
0.0
 20
0.0
 30
0.0
  3
*B61
  1

  0
LINE
  5
534
100
AcDbEntity
  8
0
  6
Continuous
 62
     8
100
AcDbLine
 10
347.550242
 20
85.53096
 30
0.0
 11
347.550242
 21
88.281155
 31
0.0
  0
LINE
  5
535
100
AcDbEntity
  8
0
  6
Continuous
 62
     8
100
AcDbLine
 10
347.550242
 20
102.279963
 30
0.0
 11
347.550242
 21
105.030159
 31
0.0
  0
ENDBLK
  5
536
100
AcDbEntity
  8
0
100
AcDbBlockEnd
  0
BLOCK
  5
539
100
AcDbEntity
  8
0
100
AcDbBlockBegin
  2
*B62
 70
     0
 10
0.0
 20
0.0
 30
0.0
  3
*B62
  1

  0
LINE
  5
53A
100
AcDbEntity
  8
0
  6
Continuous
 62
     8
100
AcDbLine
 10
343.800304
 20
116.279373
 30
0.0
 11
365.298989
 21
116.279373
 31
0.0
  0
LINE
  5
53B
100
AcDbEntity
  8
0
  6
Continuous
 62
     8
100
AcDbLine
 10
379.297796
 20
116.279373
 30
0.0
 11
400.796481
 21
116.279373
 31
0.0
  0
ENDBLK
  5
53C
100
AcDbEntity
  8
0
100
AcDbBlockEnd
  0
BLOCK
  5
53F
100
AcDbEntity
  8
0
100
AcDbBlockBegin
  2
*B63
 70
     0
 10
0.0
 20
0.0
 30
0.0
  3
*B63
  1

  0
LINE
  5
540
100
AcDbEntity
  8
0
  6
Continuous
 62
     8
100
AcDbLine
 10
397.047144
 20
235.523687
 30
0.0
 11
397.047144
 21
238.273883
 31
0.0
  0
LINE
  5
541
100
AcDbEntity
  8
0
  6
Continuous
 62
     8
100
AcDbLine
 10
397.047144
 20
252.273292
 30
0.0
 11
397.047144
 21
255.022886
 31
0.0
  0
ENDBLK
  5
542
100
AcDbEntity
  8
0
100
AcDbBlockEnd
  0
BLOCK
  5
545
100
AcDbEntity
  8
0
100
AcDbBlockBegin
  2
*B64
 70
     0
 10
0.0
 20
0.0
 30
0.0
  3
*B64
  1

  0
LINE
  5
546
100
AcDbEntity
  8
0
  6
Continuous
 62
     8
100
AcDbLine
 10
171.989479
 20
236.273795
 30
0.0
 11
175.989654
 21
236.273795
 31
0.0
  0
LINE
  5
547
100
AcDbEntity
  8
0
  6
Continuous
 62
     8
100
AcDbLine
 10
175.989654
 20
236.273795
 30
0.0
 11
186.492971
 21
236.273795
 31
0.0
  0
LINE
  5
548
100
AcDbEntity
  8
0
  6
Continuous
 62
     8
100
AcDbLine
 10
192.492632
 20
236.273795
 30
0.0
 11
194.492719
 21
236.273795
 31
0.0
  0
LINE
  5
549
100
AcDbEntity
  8
0
  6
Continuous
 62
     8
100
AcDbLine
 10
200.491779
 20
236.273795
 30
0.0
 11
210.995697
 21
236.273795
 31
0.0
  0
LINE
  5
54A
100
AcDbEntity
  8
0
  6
Continuous
 62
     8
100
AcDbLine
 10
216.995358
 20
236.273795
 30
0.0
 11
218.994844
 21
236.273795
 31
0.0
  0
LINE
  5
54B
100
AcDbEntity
  8
0
  6
Continuous
 62
     8
100
AcDbLine
 10
224.994505
 20
236.273795
 30
0.0
 11
235.498423
 21
236.273795
 31
0.0
  0
LINE
  5
54C
100
AcDbEntity
  8
0
  6
Continuous
 62
     8
100
AcDbLine
 10
241.498084
 20
236.273795
 30
0.0
 11
243.49757
 21
236.273795
 31
0.0
  0
LINE
  5
54D
100
AcDbEntity
  8
0
  6
Continuous
 62
     8
100
AcDbLine
 10
249.497231
 20
236.273795
 30
0.0
 11
260.001149
 21
236.273795
 31
0.0
  0
LINE
  5
54E
100
AcDbEntity
  8
0
  6
Continuous
 62
     8
100
AcDbLine
 10
266.00081
 20
236.273795
 30
0.0
 11
268.000296
 21
236.273795
 31
0.0
  0
LINE
  5
54F
100
AcDbEntity
  8
0
  6
Continuous
 62
     8
100
AcDbLine
 10
273.999957
 20
236.273795
 30
0.0
 11
284.503875
 21
236.273795
 31
0.0
  0
LINE
  5
550
100
AcDbEntity
  8
0
  6
Continuous
 62
     8
100
AcDbLine
 10
290.503536
 20
236.273795
 30
0.0
 11
292.503022
 21
236.273795
 31
0.0
  0
LINE
  5
551
100
AcDbEntity
  8
0
  6
Continuous
 62
     8
100
AcDbLine
 10
298.502683
 20
236.273795
 30
0.0
 11
309.006601
 21
236.273795
 31
0.0
  0
LINE
  5
552
100
AcDbEntity
  8
0
  6
Continuous
 62
     8
100
AcDbLine
 10
315.005661
 20
236.273795
 30
0.0
 11
317.005748
 21
236.273795
 31
0.0
  0
LINE
  5
553
100
AcDbEntity
  8
0
  6
Continuous
 62
     8
100
AcDbLine
 10
323.005409
 20
236.273795
 30
0.0
 11
333.508726
 21
236.273795
 31
0.0
  0
LINE
  5
554
100
AcDbEntity
  8
0
  6
Continuous
 62
     8
100
AcDbLine
 10
339.508387
 20
236.273795
 30
0.0
 11
341.508474
 21
236.273795
 31
0.0
  0
LINE
  5
555
100
AcDbEntity
  8
0
  6
Continuous
 62
     8
100
AcDbLine
 10
347.508135
 20
236.273795
 30
0.0
 11
358.011452
 21
236.273795
 31
0.0
  0
LINE
  5
556
100
AcDbEntity
  8
0
  6
Continuous
 62
     8
100
AcDbLine
 10
364.011113
 20
236.273795
 30
0.0
 11
366.0112
 21
236.273795
 31
0.0
  0
LINE
  5
557
100
AcDbEntity
  8
0
  6
Continuous
 62
     8
100
AcDbLine
 10
372.010861
 20
236.273795
 30
0.0
 11
382.514178
 21
236.273795
 31
0.0
  0
LINE
  5
558
100
AcDbEntity
  8
0
  6
Continuous
 62
     8
100
AcDbLine
 10
388.513839
 20
236.273795
 30
0.0
 11
390.513926
 21
236.273795
 31
0.0
  0
LINE
  5
559
100
AcDbEntity
  8
0
  6
Continuous
 62
     8
100
AcDbLine
 10
396.513587
 20
236.273795
 30
0.0
 11
407.016904
 21
236.273795
 31
0.0
  0
LINE
  5
55A
100
AcDbEntity
  8
0
  6
Continuous
 62
     8
100
AcDbLine
 10
413.016565
 20
236.273795
 30
0.0
 11
415.016652
 21
236.273795
 31
0.0
  0
LINE
  5
55B
100
AcDbEntity
  8
0
  6
Continuous
 62
     8
100
AcDbLine
 10
421.016313
 20
236.273795
 30
0.0
 11
431.51963
 21
236.273795
 31
0.0
  0
LINE
  5
55C
100
AcDbEntity
  8
0
  6
Continuous
 62
     8
100
AcDbLine
 10
437.519291
 20
236.273795
 30
0.0
 11
439.519378
 21
236.273795
 31
0.0
  0
LINE
  5
55D
100
AcDbEntity
  8
0
  6
Continuous
 62
     8
100
AcDbLine
 10
445.519039
 20
236.273795
 30
0.0
 11
456.022356
 21
236.273795
 31
0.0
  0
LINE
  5
55E
100
AcDbEntity
  8
0
  6
Continuous
 62
     8
100
AcDbLine
 10
462.022017
 20
236.273795
 30
0.0
 11
464.022105
 21
236.273795
 31
0.0
  0
LINE
  5
55F
100
AcDbEntity
  8
0
  6
Continuous
 62
     8
100
AcDbLine
 10
470.021765
 20
236.273795
 30
0.0
 11
480.525082
 21
236.273795
 31
0.0
  0
LINE
  5
560
100
AcDbEntity
  8
0
  6
Continuous
 62
     8
100
AcDbLine
 10
486.524743
 20
236.273795
 30
0.0
 11
488.524831
 21
236.273795
 31
0.0
  0
LINE
  5
561
100
AcDbEntity
  8
0
  6
Continuous
 62
     8
100
AcDbLine
 10
494.52389
 20
236.273795
 30
0.0
 11
505.027808
 21
236.273795
 31
0.0
  0
LINE
  5
562
100
AcDbEntity
  8
0
  6
Continuous
 62
     8
100
AcDbLine
 10
511.027469
 20
236.273795
 30
0.0
 11
513.026955
 21
236.273795
 31
0.0
  0
LINE
  5
563
100
AcDbEntity
  8
0
  6
Continuous
 62
     8
100
AcDbLine
 10
519.026616
 20
236.273795
 30
0.0
 11
529.530534
 21
236.273795
 31
0.0
  0
LINE
  5
564
100
AcDbEntity
  8
0
  6
Continuous
 62
     8
100
AcDbLine
 10
535.530195
 20
236.273795
 30
0.0
 11
537.529681
 21
236.273795
 31
0.0
  0
LINE
  5
565
100
AcDbEntity
  8
0
  6
Continuous
 62
     8
100
AcDbLine
 10
543.529342
 20
236.273795
 30
0.0
 11
554.03326
 21
236.273795
 31
0.0
  0
LINE
  5
566
100
AcDbEntity
  8
0
  6
Continuous
 62
     8
100
AcDbLine
 10
560.032921
 20
236.273795
 30
0.0
 11
562.032407
 21
236.273795
 31
0.0
  0
LINE
  5
567
100
AcDbEntity
  8
0
  6
Continuous
 62
     8
100
AcDbLine
 10
568.032068
 20
236.273795
 30
0.0
 11
578.535986
 21
236.273795
 31
0.0
  0
ENDBLK
  5
568
100
AcDbEntity
  8
0
100
AcDbBlockEnd
  0
BLOCK
  5
56B
100
AcDbEntity
  8
0
100
AcDbBlockBegin
  2
*B65
 70
     0
 10
0.0
 20
0.0
 30
0.0
  3
*B65
  1

  0
LINE
  5
56C
100
AcDbEntity
  8
0
  6
Continuous
 62
     8
100
AcDbLine
 10
256.805821
 20
353.450651
 30
0.0
 11
256.805821
 21
368.116555
 31
0.0
  0
LINE
  5
56D
100
AcDbEntity
  8
0
  6
Continuous
 62
     8
100
AcDbLine
 10
256.805821
 20
374.116818
 30
0.0
 11
256.805821
 21
376.116304
 31
0.0
  0
LINE
  5
56E
100
AcDbEntity
  8
0
  6
Continuous
 62
     8
100
AcDbLine
 10
256.805821
 20
382.115965
 30
0.0
 11
256.805821
 21
396.78187
 31
0.0
  0
LINE
  5
56F
100
AcDbEntity
  8
0
  6
Continuous
 62
     8
100
AcDbLine
 10
256.805821
 20
402.781531
 30
0.0
 11
256.805821
 21
404.781618
 31
0.0
  0
LINE
  5
570
100
AcDbEntity
  8
0
  6
Continuous
 62
     8
100
AcDbLine
 10
256.805821
 20
410.781279
 30
0.0
 11
256.805821
 21
425.447184
 31
0.0
  0
ENDBLK
  5
571
100
AcDbEntity
  8
0
100
AcDbBlockEnd
  0
BLOCK
  5
574
100
AcDbEntity
  8
0
100
AcDbBlockBegin
  2
*B66
 70
     0
 10
0.0
 20
0.0
 30
0.0
  3
*B66
  1

  0
LINE
  5
575
100
AcDbEntity
  8
0
  6
Continuous
 62
     8
100
AcDbLine
 10
256.805821
 20
124.529358
 30
0.0
 11
256.805821
 21
130.278782
 31
0.0
  0
LINE
  5
576
100
AcDbEntity
  8
0
  6
Continuous
 62
     8
100
AcDbLine
 10
256.805821
 20
144.278192
 30
0.0
 11
256.805821
 21
150.028218
 31
0.0
  0
ENDBLK
  5
577
100
AcDbEntity
  8
0
100
AcDbBlockEnd
  0
BLOCK
  5
57A
100
AcDbEntity
  8
0
100
AcDbBlockBegin
  2
*B67
 70
     0
 10
0.0
 20
0.0
 30
0.0
  3
*B67
  1

  0
LINE
  5
57B
100
AcDbEntity
  8
0
  6
Continuous
 62
     8
100
AcDbLine
 10
547.787574
 20
425.447184
 30
0.0
 11
547.787574
 21
450.784232
 31
0.0
  0
ENDBLK
  5
57C
100
AcDbEntity
  8
0
100
AcDbBlockEnd
  0
BLOCK
  5
57F
100
AcDbEntity
  8
0
100
AcDbBlockBegin
  2
*B68
 70
     0
 10
0.0
 20
0.0
 30
0.0
  3
*B68
  1

  0
LINE
  5
580
100
AcDbEntity
  8
0
  6
Continuous
 62
     8
100
AcDbLine
 10
271.054866
 20
95.280559
 30
0.0
 11
273.80446
 21
95.280559
 31
0.0
  0
LINE
  5
581
100
AcDbEntity
  8
0
  6
Continuous
 62
     8
100
AcDbLine
 10
287.803869
 20
95.280559
 30
0.0
 11
290.553463
 21
95.280559
 31
0.0
  0
ENDBLK
  5
582
100
AcDbEntity
  8
0
100
AcDbBlockEnd
  0
BLOCK
  5
585
100
AcDbEntity
  8
0
100
AcDbBlockBegin
  2
*B69
 70
     0
 10
0.0
 20
0.0
 30
0.0
  3
*B69
  1

  0
LINE
  5
586
100
AcDbEntity
  8
0
  6
Continuous
 62
     8
100
AcDbLine
 10
171.989479
 20
104.280051
 30
0.0
 11
175.989654
 21
104.280051
 31
0.0
  0
LINE
  5
587
100
AcDbEntity
  8
0
  6
Continuous
 62
     8
100
AcDbLine
 10
175.989654
 20
104.280051
 30
0.0
 11
186.492971
 21
104.280051
 31
0.0
  0
LINE
  5
588
100
AcDbEntity
  8
0
  6
Continuous
 62
     8
100
AcDbLine
 10
192.492632
 20
104.280051
 30
0.0
 11
194.492719
 21
104.280051
 31
0.0
  0
LINE
  5
589
100
AcDbEntity
  8
0
  6
Continuous
 62
     8
100
AcDbLine
 10
200.491779
 20
104.280051
 30
0.0
 11
210.995697
 21
104.280051
 31
0.0
  0
LINE
  5
58A
100
AcDbEntity
  8
0
  6
Continuous
 62
     8
100
AcDbLine
 10
216.995358
 20
104.280051
 30
0.0
 11
218.994844
 21
104.280051
 31
0.0
  0
LINE
  5
58B
100
AcDbEntity
  8
0
  6
Continuous
 62
     8
100
AcDbLine
 10
224.994505
 20
104.280051
 30
0.0
 11
235.498423
 21
104.280051
 31
0.0
  0
LINE
  5
58C
100
AcDbEntity
  8
0
  6
Continuous
 62
     8
100
AcDbLine
 10
241.498084
 20
104.280051
 30
0.0
 11
243.49757
 21
104.280051
 31
0.0
  0
LINE
  5
58D
100
AcDbEntity
  8
0
  6
Continuous
 62
     8
100
AcDbLine
 10
249.497231
 20
104.280051
 30
0.0
 11
260.001149
 21
104.280051
 31
0.0
  0
LINE
  5
58E
100
AcDbEntity
  8
0
  6
Continuous
 62
     8
100
AcDbLine
 10
266.00081
 20
104.280051
 30
0.0
 11
268.000296
 21
104.280051
 31
0.0
  0
LINE
  5
58F
100
AcDbEntity
  8
0
  6
Continuous
 62
     8
100
AcDbLine
 10
273.999957
 20
104.280051
 30
0.0
 11
284.503875
 21
104.280051
 31
0.0
  0
LINE
  5
590
100
AcDbEntity
  8
0
  6
Continuous
 62
     8
100
AcDbLine
 10
290.503536
 20
104.280051
 30
0.0
 11
292.503022
 21
104.280051
 31
0.0
  0
LINE
  5
591
100
AcDbEntity
  8
0
  6
Continuous
 62
     8
100
AcDbLine
 10
298.502683
 20
104.280051
 30
0.0
 11
309.006601
 21
104.280051
 31
0.0
  0
LINE
  5
592
100
AcDbEntity
  8
0
  6
Continuous
 62
     8
100
AcDbLine
 10
315.005661
 20
104.280051
 30
0.0
 11
317.005748
 21
104.280051
 31
0.0
  0
LINE
  5
593
100
AcDbEntity
  8
0
  6
Continuous
 62
     8
100
AcDbLine
 10
323.005409
 20
104.280051
 30
0.0
 11
333.508726
 21
104.280051
 31
0.0
  0
LINE
  5
594
100
AcDbEntity
  8
0
  6
Continuous
 62
     8
100
AcDbLine
 10
339.508387
 20
104.280051
 30
0.0
 11
341.508474
 21
104.280051
 31
0.0
  0
LINE
  5
595
100
AcDbEntity
  8
0
  6
Continuous
 62
     8
100
AcDbLine
 10
347.508135
 20
104.280051
 30
0.0
 11
358.011452
 21
104.280051
 31
0.0
  0
LINE
  5
596
100
AcDbEntity
  8
0
  6
Continuous
 62
     8
100
AcDbLine
 10
364.011113
 20
104.280051
 30
0.0
 11
366.0112
 21
104.280051
 31
0.0
  0
LINE
  5
597
100
AcDbEntity
  8
0
  6
Continuous
 62
     8
100
AcDbLine
 10
372.010861
 20
104.280051
 30
0.0
 11
382.514178
 21
104.280051
 31
0.0
  0
LINE
  5
598
100
AcDbEntity
  8
0
  6
Continuous
 62
     8
100
AcDbLine
 10
388.513839
 20
104.280051
 30
0.0
 11
390.513926
 21
104.280051
 31
0.0
  0
LINE
  5
599
100
AcDbEntity
  8
0
  6
Continuous
 62
     8
100
AcDbLine
 10
396.513587
 20
104.280051
 30
0.0
 11
407.016904
 21
104.280051
 31
0.0
  0
LINE
  5
59A
100
AcDbEntity
  8
0
  6
Continuous
 62
     8
100
AcDbLine
 10
413.016565
 20
104.280051
 30
0.0
 11
415.016652
 21
104.280051
 31
0.0
  0
LINE
  5
59B
100
AcDbEntity
  8
0
  6
Continuous
 62
     8
100
AcDbLine
 10
421.016313
 20
104.280051
 30
0.0
 11
431.51963
 21
104.280051
 31
0.0
  0
LINE
  5
59C
100
AcDbEntity
  8
0
  6
Continuous
 62
     8
100
AcDbLine
 10
437.519291
 20
104.280051
 30
0.0
 11
439.519378
 21
104.280051
 31
0.0
  0
LINE
  5
59D
100
AcDbEntity
  8
0
  6
Continuous
 62
     8
100
AcDbLine
 10
445.519039
 20
104.280051
 30
0.0
 11
456.022356
 21
104.280051
 31
0.0
  0
LINE
  5
59E
100
AcDbEntity
  8
0
  6
Continuous
 62
     8
100
AcDbLine
 10
462.022017
 20
104.280051
 30
0.0
 11
464.022105
 21
104.280051
 31
0.0
  0
LINE
  5
59F
100
AcDbEntity
  8
0
  6
Continuous
 62
     8
100
AcDbLine
 10
470.021765
 20
104.280051
 30
0.0
 11
480.525082
 21
104.280051
 31
0.0
  0
LINE
  5
5A0
100
AcDbEntity
  8
0
  6
Continuous
 62
     8
100
AcDbLine
 10
486.524743
 20
104.280051
 30
0.0
 11
488.524831
 21
104.280051
 31
0.0
  0
LINE
  5
5A1
100
AcDbEntity
  8
0
  6
Continuous
 62
     8
100
AcDbLine
 10
494.52389
 20
104.280051
 30
0.0
 11
505.027808
 21
104.280051
 31
0.0
  0
LINE
  5
5A2
100
AcDbEntity
  8
0
  6
Continuous
 62
     8
100
AcDbLine
 10
511.027469
 20
104.280051
 30
0.0
 11
513.026955
 21
104.280051
 31
0.0
  0
LINE
  5
5A3
100
AcDbEntity
  8
0
  6
Continuous
 62
     8
100
AcDbLine
 10
519.026616
 20
104.280051
 30
0.0
 11
529.530534
 21
104.280051
 31
0.0
  0
LINE
  5
5A4
100
AcDbEntity
  8
0
  6
Continuous
 62
     8
100
AcDbLine
 10
535.530195
 20
104.280051
 30
0.0
 11
537.529681
 21
104.280051
 31
0.0
  0
LINE
  5
5A5
100
AcDbEntity
  8
0
  6
Continuous
 62
     8
100
AcDbLine
 10
543.529342
 20
104.280051
 30
0.0
 11
554.03326
 21
104.280051
 31
0.0
  0
LINE
  5
5A6
100
AcDbEntity
  8
0
  6
Continuous
 62
     8
100
AcDbLine
 10
560.032921
 20
104.280051
 30
0.0
 11
562.032407
 21
104.280051
 31
0.0
  0
LINE
  5
5A7
100
AcDbEntity
  8
0
  6
Continuous
 62
     8
100
AcDbLine
 10
568.032068
 20
104.280051
 30
0.0
 11
578.535986
 21
104.280051
 31
0.0
  0
ENDBLK
  5
5A8
100
AcDbEntity
  8
0
100
AcDbBlockEnd
  0
BLOCK
  5
5AB
100
AcDbEntity
  8
0
100
AcDbBlockBegin
  2
*B70
 70
     0
 10
0.0
 20
0.0
 30
0.0
  3
*B70
  1

  0
LINE
  5
5AC
100
AcDbEntity
  8
0
  6
Continuous
 62
     8
100
AcDbLine
 10
238.806838
 20
272.272362
 30
0.0
 11
238.806838
 21
327.087392
 31
0.0
  0
ENDBLK
  5
5AD
100
AcDbEntity
  8
0
100
AcDbBlockEnd
  0
BLOCK
  5
5B0
100
AcDbEntity
  8
0
100
AcDbBlockBegin
  2
*B71
 70
     0
 10
0.0
 20
0.0
 30
0.0
  3
*B71
  1

  0
LINE
  5
5B1
100
AcDbEntity
  8
0
  6
Continuous
 62
     8
100
AcDbLine
 10
633.960968
 20
224.274473
 30
0.0
 11
637.961143
 21
224.274473
 31
0.0
  0
LINE
  5
5B2
100
AcDbEntity
  8
0
  6
Continuous
 62
     8
100
AcDbLine
 10
410.546081
 20
224.274473
 30
0.0
 11
432.044766
 21
224.274473
 31
0.0
  0
LINE
  5
5B3
100
AcDbEntity
  8
0
  6
Continuous
 62
     8
100
AcDbLine
 10
446.044175
 20
224.274473
 30
0.0
 11
465.417654
 21
224.274473
 31
0.0
  0
LINE
  5
5B4
100
AcDbEntity
  8
0
  6
Continuous
 62
     8
100
AcDbLine
 10
471.417315
 20
224.274473
 30
0.0
 11
473.417403
 21
224.274473
 31
0.0
  0
LINE
  5
5B5
100
AcDbEntity
  8
0
  6
Continuous
 62
     8
100
AcDbLine
 10
479.417064
 20
224.274473
 30
0.0
 11
498.790543
 21
224.274473
 31
0.0
  0
LINE
  5
5B6
100
AcDbEntity
  8
0
  6
Continuous
 62
     8
100
AcDbLine
 10
512.789952
 20
224.274473
 30
0.0
 11
525.824507
 21
224.274473
 31
0.0
  0
LINE
  5
5B7
100
AcDbEntity
  8
0
  6
Continuous
 62
     8
100
AcDbLine
 10
531.824168
 20
224.274473
 30
0.0
 11
533.824256
 21
224.274473
 31
0.0
  0
LINE
  5
5B8
100
AcDbEntity
  8
0
  6
Continuous
 62
     8
100
AcDbLine
 10
539.823917
 20
224.274473
 30
0.0
 11
552.859074
 21
224.274473
 31
0.0
  0
LINE
  5
5B9
100
AcDbEntity
  8
0
  6
Continuous
 62
     8
100
AcDbLine
 10
558.858735
 20
224.274473
 30
0.0
 11
560.858221
 21
224.274473
 31
0.0
  0
LINE
  5
5BA
100
AcDbEntity
  8
0
  6
Continuous
 62
     8
100
AcDbLine
 10
566.857882
 20
224.274473
 30
0.0
 11
579.893038
 21
224.274473
 31
0.0
  0
LINE
  5
5BB
100
AcDbEntity
  8
0
  6
Continuous
 62
     8
100
AcDbLine
 10
585.892699
 20
224.274473
 30
0.0
 11
587.892185
 21
224.274473
 31
0.0
  0
LINE
  5
5BC
100
AcDbEntity
  8
0
  6
Continuous
 62
     8
100
AcDbLine
 10
593.891846
 20
224.274473
 30
0.0
 11
606.927003
 21
224.274473
 31
0.0
  0
LINE
  5
5BD
100
AcDbEntity
  8
0
  6
Continuous
 62
     8
100
AcDbLine
 10
612.926664
 20
224.274473
 30
0.0
 11
614.926751
 21
224.274473
 31
0.0
  0
LINE
  5
5BE
100
AcDbEntity
  8
0
  6
Continuous
 62
     8
100
AcDbLine
 10
620.926412
 20
224.274473
 30
0.0
 11
633.960968
 21
224.274473
 31
0.0
  0
ENDBLK
  5
5BF
100
AcDbEntity
  8
0
100
AcDbBlockEnd
  0
BLOCK
  5
5C2
100
AcDbEntity
  8
0
100
AcDbBlockBegin
  2
*B72
 70
     0
 10
0.0
 20
0.0
 30
0.0
  3
*B72
  1

  0
LINE
  5
5C3
100
AcDbEntity
  8
0
  6
Continuous
 62
     8
100
AcDbLine
 10
561.287112
 20
425.447184
 30
0.0
 11
561.287112
 21
450.784232
 31
0.0
  0
ENDBLK
  5
5C4
100
AcDbEntity
  8
0
100
AcDbBlockEnd
  0
BLOCK
  5
5C7
100
AcDbEntity
  8
0
100
AcDbBlockBegin
  2
*B73
 70
     0
 10
0.0
 20
0.0
 30
0.0
  3
*B73
  1

  0
LINE
  5
5C8
100
AcDbEntity
  8
0
  6
Continuous
 62
     8
100
AcDbLine
 10
601.963177
 20
203.27566
 30
0.0
 11
605.96275
 21
203.27566
 31
0.0
  0
LINE
  5
5C9
100
AcDbEntity
  8
0
  6
Continuous
 62
     8
100
AcDbLine
 10
244.056391
 20
203.27566
 30
0.0
 11
249.805816
 21
203.27566
 31
0.0
  0
LINE
  5
5CA
100
AcDbEntity
  8
0
  6
Continuous
 62
     8
100
AcDbLine
 10
263.805225
 20
203.27566
 30
0.0
 11
274.617127
 21
203.27566
 31
0.0
  0
LINE
  5
5CB
100
AcDbEntity
  8
0
  6
Continuous
 62
     8
100
AcDbLine
 10
280.616788
 20
203.27566
 30
0.0
 11
282.616274
 21
203.27566
 31
0.0
  0
LINE
  5
5CC
100
AcDbEntity
  8
0
  6
Continuous
 62
     8
100
AcDbLine
 10
288.615935
 20
203.27566
 30
0.0
 11
299.427836
 21
203.27566
 31
0.0
  0
LINE
  5
5CD
100
AcDbEntity
  8
0
  6
Continuous
 62
     8
100
AcDbLine
 10
305.427497
 20
203.27566
 30
0.0
 11
307.427585
 21
203.27566
 31
0.0
  0
LINE
  5
5CE
100
AcDbEntity
  8
0
  6
Continuous
 62
     8
100
AcDbLine
 10
313.427246
 20
203.27566
 30
0.0
 11
324.239147
 21
203.27566
 31
0.0
  0
LINE
  5
5CF
100
AcDbEntity
  8
0
  6
Continuous
 62
     8
100
AcDbLine
 10
330.238808
 20
203.27566
 30
0.0
 11
332.238294
 21
203.27566
 31
0.0
  0
LINE
  5
5D0
100
AcDbEntity
  8
0
  6
Continuous
 62
     8
100
AcDbLine
 10
338.237955
 20
203.27566
 30
0.0
 11
349.049857
 21
203.27566
 31
0.0
  0
LINE
  5
5D1
100
AcDbEntity
  8
0
  6
Continuous
 62
     8
100
AcDbLine
 10
355.049518
 20
203.27566
 30
0.0
 11
357.049605
 21
203.27566
 31
0.0
  0
LINE
  5
5D2
100
AcDbEntity
  8
0
  6
Continuous
 62
     8
100
AcDbLine
 10
363.049266
 20
203.27566
 30
0.0
 11
373.861168
 21
203.27566
 31
0.0
  0
LINE
  5
5D3
100
AcDbEntity
  8
0
  6
Continuous
 62
     8
100
AcDbLine
 10
379.860227
 20
203.27566
 30
0.0
 11
381.860315
 21
203.27566
 31
0.0
  0
LINE
  5
5D4
100
AcDbEntity
  8
0
  6
Continuous
 62
     8
100
AcDbLine
 10
387.859976
 20
203.27566
 30
0.0
 11
398.671877
 21
203.27566
 31
0.0
  0
LINE
  5
5D5
100
AcDbEntity
  8
0
  6
Continuous
 62
     8
100
AcDbLine
 10
404.671538
 20
203.27566
 30
0.0
 11
406.671626
 21
203.27566
 31
0.0
  0
LINE
  5
5D6
100
AcDbEntity
  8
0
  6
Continuous
 62
     8
100
AcDbLine
 10
412.670685
 20
203.27566
 30
0.0
 11
423.482587
 21
203.27566
 31
0.0
  0
LINE
  5
5D7
100
AcDbEntity
  8
0
  6
Continuous
 62
     8
100
AcDbLine
 10
429.482248
 20
203.27566
 30
0.0
 11
431.482335
 21
203.27566
 31
0.0
  0
LINE
  5
5D8
100
AcDbEntity
  8
0
  6
Continuous
 62
     8
100
AcDbLine
 10
437.481996
 20
203.27566
 30
0.0
 11
448.293898
 21
203.27566
 31
0.0
  0
LINE
  5
5D9
100
AcDbEntity
  8
0
  6
Continuous
 62
     8
100
AcDbLine
 10
454.293559
 20
203.27566
 30
0.0
 11
456.293045
 21
203.27566
 31
0.0
  0
LINE
  5
5DA
100
AcDbEntity
  8
0
  6
Continuous
 62
     8
100
AcDbLine
 10
462.292706
 20
203.27566
 30
0.0
 11
473.104607
 21
203.27566
 31
0.0
  0
LINE
  5
5DB
100
AcDbEntity
  8
0
  6
Continuous
 62
     8
100
AcDbLine
 10
479.104268
 20
203.27566
 30
0.0
 11
481.104356
 21
203.27566
 31
0.0
  0
LINE
  5
5DC
100
AcDbEntity
  8
0
  6
Continuous
 62
     8
100
AcDbLine
 10
487.104017
 20
203.27566
 30
0.0
 11
497.915918
 21
203.27566
 31
0.0
  0
LINE
  5
5DD
100
AcDbEntity
  8
0
  6
Continuous
 62
     8
100
AcDbLine
 10
503.915579
 20
203.27566
 30
0.0
 11
505.915065
 21
203.27566
 31
0.0
  0
LINE
  5
5DE
100
AcDbEntity
  8
0
  6
Continuous
 62
     8
100
AcDbLine
 10
511.914726
 20
203.27566
 30
0.0
 11
522.726628
 21
203.27566
 31
0.0
  0
LINE
  5
5DF
100
AcDbEntity
  8
0
  6
Continuous
 62
     8
100
AcDbLine
 10
528.726289
 20
203.27566
 30
0.0
 11
530.726376
 21
203.27566
 31
0.0
  0
LINE
  5
5E0
100
AcDbEntity
  8
0
  6
Continuous
 62
     8
100
AcDbLine
 10
536.726037
 20
203.27566
 30
0.0
 11
547.537939
 21
203.27566
 31
0.0
  0
LINE
  5
5E1
100
AcDbEntity
  8
0
  6
Continuous
 62
     8
100
AcDbLine
 10
561.536747
 20
203.27566
 30
0.0
 11
574.750558
 21
203.27566
 31
0.0
  0
LINE
  5
5E2
100
AcDbEntity
  8
0
  6
Continuous
 62
     8
100
AcDbLine
 10
580.750219
 20
203.27566
 30
0.0
 11
582.749705
 21
203.27566
 31
0.0
  0
LINE
  5
5E3
100
AcDbEntity
  8
0
  6
Continuous
 62
     8
100
AcDbLine
 10
588.749366
 20
203.27566
 30
0.0
 11
601.963177
 21
203.27566
 31
0.0
  0
ENDBLK
  5
5E4
100
AcDbEntity
  8
0
100
AcDbBlockEnd
  0
BLOCK
  5
5E7
100
AcDbEntity
  8
0
100
AcDbBlockBegin
  2
*B74
 70
     0
 10
0.0
 20
0.0
 30
0.0
  3
*B74
  1

  0
LINE
  5
5E8
100
AcDbEntity
  8
0
  6
Continuous
 62
     8
100
AcDbLine
 10
554.537343
 20
293.088912
 30
0.0
 11
554.537343
 21
297.089087
 31
0.0
  0
LINE
  5
5E9
100
AcDbEntity
  8
0
  6
Continuous
 62
     8
100
AcDbLine
 10
554.537343
 20
190.52623
 30
0.0
 11
554.537343
 21
196.275654
 31
0.0
  0
LINE
  5
5EA
100
AcDbEntity
  8
0
  6
Continuous
 62
     8
100
AcDbLine
 10
554.537343
 20
210.275064
 30
0.0
 11
554.537343
 21
228.547141
 31
0.0
  0
LINE
  5
5EB
100
AcDbEntity
  8
0
  6
Continuous
 62
     8
100
AcDbLine
 10
554.537343
 20
234.546802
 30
0.0
 11
554.537343
 21
236.546288
 31
0.0
  0
LINE
  5
5EC
100
AcDbEntity
  8
0
  6
Continuous
 62
     8
100
AcDbLine
 10
554.537343
 20
242.546551
 30
0.0
 11
554.537343
 21
260.818027
 31
0.0
  0
LINE
  5
5ED
100
AcDbEntity
  8
0
  6
Continuous
 62
     8
100
AcDbLine
 10
554.537343
 20
266.817688
 30
0.0
 11
554.537343
 21
268.817775
 31
0.0
  0
LINE
  5
5EE
100
AcDbEntity
  8
0
  6
Continuous
 62
     8
100
AcDbLine
 10
554.537343
 20
274.817436
 30
0.0
 11
554.537343
 21
293.088912
 31
0.0
  0
ENDBLK
  5
5EF
100
AcDbEntity
  8
0
100
AcDbBlockEnd
  0
BLOCK
  5
5F2
100
AcDbEntity
  8
0
100
AcDbBlockBegin
  2
*B75
 70
     0
 10
0.0
 20
0.0
 30
0.0
  3
*B75
  1

  0
LINE
  5
5F3
100
AcDbEntity
  8
0
  6
Continuous
 62
     6
100
AcDbLine
 10
372.298393
 20
169.27718
 30
0.0
 11
372.298393
 21
171.277267
 31
0.0
  0
LINE
  5
5F4
100
AcDbEntity
  8
0
  6
Continuous
 62
     6
100
AcDbLine
 10
371.29865
 20
170.276923
 30
0.0
 11
373.298737
 21
170.276923
 31
0.0
  0
ENDBLK
  5
5F5
100
AcDbEntity
  8
0
100
AcDbBlockEnd
  0
BLOCK
  5
5F8
100
AcDbEntity
  8
0
100
AcDbBlockBegin
  2
*B76
 70
     0
 10
0.0
 20
0.0
 30
0.0
  3
*B76
  1

  0
LINE
  5
5F9
100
AcDbEntity
  8
0
  6
Continuous
 62
     6
100
AcDbLine
 10
530.538699
 20
244.273544
 30
0.0
 11
530.538699
 21
246.273631
 31
0.0
  0
LINE
  5
5FA
100
AcDbEntity
  8
0
  6
Continuous
 62
     6
100
AcDbLine
 10
529.538956
 20
245.273287
 30
0.0
 11
531.538442
 21
245.273287
 31
0.0
  0
ENDBLK
  5
5FB
100
AcDbEntity
  8
0
100
AcDbBlockEnd
  0
BLOCK
  5
5FE
100
AcDbEntity
  8
0
100
AcDbBlockBegin
  2
*B77
 70
     0
 10
0.0
 20
0.0
 30
0.0
  3
*B77
  1

  0
LINE
  5
5FF
100
AcDbEntity
  8
0
  6
Continuous
 62
     6
100
AcDbLine
 10
554.537343
 20
136.278443
 30
0.0
 11
554.537343
 21
138.278531
 31
0.0
  0
LINE
  5
600
100
AcDbEntity
  8
0
  6
Continuous
 62
     6
100
AcDbLine
 10
553.5376
 20
137.278788
 30
0.0
 11
555.537086
 21
137.278788
 31
0.0
  0
ENDBLK
  5
601
100
AcDbEntity
  8
0
100
AcDbBlockEnd
  0
BLOCK
  5
604
100
AcDbEntity
  8
0
100
AcDbBlockBegin
  2
*B78
 70
     0
 10
0.0
 20
0.0
 30
0.0
  3
*B78
  1

  0
LINE
  5
605
100
AcDbEntity
  8
0
  6
Continuous
 62
     6
100
AcDbLine
 10
371.29865
 20
116.279373
 30
0.0
 11
373.298737
 21
116.279373
 31
0.0
  0
LINE
  5
606
100
AcDbEntity
  8
0
  6
Continuous
 62
     6
100
AcDbLine
 10
372.298393
 20
115.27963
 30
0.0
 11
372.298393
 21
117.279717
 31
0.0
  0
ENDBLK
  5
607
100
AcDbEntity
  8
0
100
AcDbBlockEnd
  0
BLOCK
  5
60A
100
AcDbEntity
  8
0
100
AcDbBlockBegin
  2
*B79
 70
     0
 10
0.0
 20
0.0
 30
0.0
  3
*B79
  1

  0
LINE
  5
60B
100
AcDbEntity
  8
0
  6
Continuous
 62
     6
100
AcDbLine
 10
414.296019
 20
94.280816
 30
0.0
 11
414.296019
 21
96.280302
 31
0.0
  0
LINE
  5
60C
100
AcDbEntity
  8
0
  6
Continuous
 62
     6
100
AcDbLine
 10
413.295675
 20
95.280559
 30
0.0
 11
415.295762
 21
95.280559
 31
0.0
  0
ENDBLK
  5
60D
100
AcDbEntity
  8
0
100
AcDbBlockEnd
  0
BLOCK
  5
610
100
AcDbEntity
  8
0
100
AcDbBlockBegin
  2
*B80
 70
     0
 10
0.0
 20
0.0
 30
0.0
  3
*B80
  1

  0
LINE
  5
611
100
AcDbEntity
  8
0
  6
Continuous
 62
     6
100
AcDbLine
 10
372.298393
 20
223.27473
 30
0.0
 11
372.298393
 21
225.274216
 31
0.0
  0
LINE
  5
612
100
AcDbEntity
  8
0
  6
Continuous
 62
     6
100
AcDbLine
 10
371.29865
 20
224.274473
 30
0.0
 11
373.298737
 21
224.274473
 31
0.0
  0
ENDBLK
  5
613
100
AcDbEntity
  8
0
100
AcDbBlockEnd
  0
BLOCK
  5
616
100
AcDbEntity
  8
0
100
AcDbBlockBegin
  2
*B81
 70
     0
 10
0.0
 20
0.0
 30
0.0
  3
*B81
  1

  0
LINE
  5
617
100
AcDbEntity
  8
0
  6
Continuous
 62
     6
100
AcDbLine
 10
397.047144
 20
244.273544
 30
0.0
 11
397.047144
 21
246.273631
 31
0.0
  0
LINE
  5
618
100
AcDbEntity
  8
0
  6
Continuous
 62
     6
100
AcDbLine
 10
396.0468
 20
245.273287
 30
0.0
 11
398.046887
 21
245.273287
 31
0.0
  0
ENDBLK
  5
619
100
AcDbEntity
  8
0
100
AcDbBlockEnd
  0
BLOCK
  5
61C
100
AcDbEntity
  8
0
100
AcDbBlockBegin
  2
*B82
 70
     0
 10
0.0
 20
0.0
 30
0.0
  3
*B82
  1

  0
LINE
  5
61D
100
AcDbEntity
  8
0
  6
Continuous
 62
     6
100
AcDbLine
 10
505.789947
 20
223.27473
 30
0.0
 11
505.789947
 21
225.274216
 31
0.0
  0
LINE
  5
61E
100
AcDbEntity
  8
0
  6
Continuous
 62
     6
100
AcDbLine
 10
504.790204
 20
224.274473
 30
0.0
 11
506.790291
 21
224.274473
 31
0.0
  0
ENDBLK
  5
61F
100
AcDbEntity
  8
0
100
AcDbBlockEnd
  0
BLOCK
  5
622
100
AcDbEntity
  8
0
100
AcDbBlockBegin
  2
*B83
 70
     0
 10
0.0
 20
0.0
 30
0.0
  3
*B83
  1

  0
LINE
  5
623
100
AcDbEntity
  8
0
  6
Continuous
 62
     6
100
AcDbLine
 10
304.552872
 20
116.279373
 30
0.0
 11
306.552358
 21
116.279373
 31
0.0
  0
LINE
  5
624
100
AcDbEntity
  8
0
  6
Continuous
 62
     6
100
AcDbLine
 10
305.552615
 20
115.27963
 30
0.0
 11
305.552615
 21
117.279717
 31
0.0
  0
ENDBLK
  5
625
100
AcDbEntity
  8
0
100
AcDbBlockEnd
  0
BLOCK
  5
628
100
AcDbEntity
  8
0
100
AcDbBlockBegin
  2
*B84
 70
     0
 10
0.0
 20
0.0
 30
0.0
  3
*B84
  1

  0
LINE
  5
629
100
AcDbEntity
  8
0
  6
Continuous
 62
     6
100
AcDbLine
 10
504.790204
 20
116.279373
 30
0.0
 11
506.790291
 21
116.279373
 31
0.0
  0
LINE
  5
62A
100
AcDbEntity
  8
0
  6
Continuous
 62
     6
100
AcDbLine
 10
505.789947
 20
115.27963
 30
0.0
 11
505.789947
 21
117.279717
 31
0.0
  0
ENDBLK
  5
62B
100
AcDbEntity
  8
0
100
AcDbBlockEnd
  0
BLOCK
  5
62E
100
AcDbEntity
  8
0
100
AcDbBlockBegin
  2
*B85
 70
     0
 10
0.0
 20
0.0
 30
0.0
  3
*B85
  1

  0
LINE
  5
62F
100
AcDbEntity
  8
0
  6
Continuous
 62
     6
100
AcDbLine
 10
305.552615
 20
169.27718
 30
0.0
 11
305.552615
 21
171.277267
 31
0.0
  0
LINE
  5
630
100
AcDbEntity
  8
0
  6
Continuous
 62
     6
100
AcDbLine
 10
304.552872
 20
170.276923
 30
0.0
 11
306.552358
 21
170.276923
 31
0.0
  0
ENDBLK
  5
631
100
AcDbEntity
  8
0
100
AcDbBlockEnd
  0
BLOCK
  5
634
100
AcDbEntity
  8
0
100
AcDbBlockBegin
  2
*B86
 70
     0
 10
0.0
 20
0.0
 30
0.0
  3
*B86
  1

  0
LINE
  5
635
100
AcDbEntity
  8
0
  6
Continuous
 62
     6
100
AcDbLine
 10
347.550242
 20
94.280816
 30
0.0
 11
347.550242
 21
96.280302
 31
0.0
  0
LINE
  5
636
100
AcDbEntity
  8
0
  6
Continuous
 62
     6
100
AcDbLine
 10
346.549898
 20
95.280559
 30
0.0
 11
348.549985
 21
95.280559
 31
0.0
  0
ENDBLK
  5
637
100
AcDbEntity
  8
0
100
AcDbBlockEnd
  0
BLOCK
  5
63A
100
AcDbEntity
  8
0
100
AcDbBlockBegin
  2
*B87
 70
     0
 10
0.0
 20
0.0
 30
0.0
  3
*B87
  1

  0
LINE
  5
63B
100
AcDbEntity
  8
0
  6
Continuous
 62
     6
100
AcDbLine
 10
439.04417
 20
115.27963
 30
0.0
 11
439.04417
 21
117.279717
 31
0.0
  0
LINE
  5
63C
100
AcDbEntity
  8
0
  6
Continuous
 62
     6
100
AcDbLine
 10
438.044427
 20
116.279373
 30
0.0
 11
440.044514
 21
116.279373
 31
0.0
  0
ENDBLK
  5
63D
100
AcDbEntity
  8
0
100
AcDbBlockEnd
  0
BLOCK
  5
640
100
AcDbEntity
  8
0
100
AcDbBlockBegin
  2
*B88
 70
     0
 10
0.0
 20
0.0
 30
0.0
  3
*B88
  1

  0
LINE
  5
641
100
AcDbEntity
  8
0
  6
Continuous
 62
     6
100
AcDbLine
 10
439.04417
 20
223.27473
 30
0.0
 11
439.04417
 21
225.274216
 31
0.0
  0
LINE
  5
642
100
AcDbEntity
  8
0
  6
Continuous
 62
     6
100
AcDbLine
 10
438.044427
 20
224.274473
 30
0.0
 11
440.044514
 21
224.274473
 31
0.0
  0
ENDBLK
  5
643
100
AcDbEntity
  8
0
100
AcDbBlockEnd
  0
BLOCK
  5
646
100
AcDbEntity
  8
0
100
AcDbBlockBegin
  2
*B89
 70
     0
 10
0.0
 20
0.0
 30
0.0
  3
*B89
  1

  0
LINE
  5
647
100
AcDbEntity
  8
0
  6
Continuous
 62
     6
100
AcDbLine
 10
255.805477
 20
203.27566
 30
0.0
 11
257.805564
 21
203.27566
 31
0.0
  0
LINE
  5
648
100
AcDbEntity
  8
0
  6
Continuous
 62
     6
100
AcDbLine
 10
256.805821
 20
202.275315
 30
0.0
 11
256.805821
 21
204.275403
 31
0.0
  0
ENDBLK
  5
649
100
AcDbEntity
  8
0
100
AcDbBlockEnd
  0
BLOCK
  5
64C
100
AcDbEntity
  8
0
100
AcDbBlockBegin
  2
*B90
 70
     0
 10
0.0
 20
0.0
 30
0.0
  3
*B90
  1

  0
LINE
  5
64D
100
AcDbEntity
  8
0
  6
Continuous
 62
     6
100
AcDbLine
 10
438.044427
 20
170.276923
 30
0.0
 11
440.044514
 21
170.276923
 31
0.0
  0
LINE
  5
64E
100
AcDbEntity
  8
0
  6
Continuous
 62
     6
100
AcDbLine
 10
439.04417
 20
169.27718
 30
0.0
 11
439.04417
 21
171.277267
 31
0.0
  0
ENDBLK
  5
64F
100
AcDbEntity
  8
0
100
AcDbBlockEnd
  0
BLOCK
  5
652
100
AcDbEntity
  8
0
100
AcDbBlockBegin
  2
*B91
 70
     0
 10
0.0
 20
0.0
 30
0.0
  3
*B91
  1

  0
LINE
  5
653
100
AcDbEntity
  8
0
  6
Continuous
 62
     6
100
AcDbLine
 10
330.300766
 20
244.273544
 30
0.0
 11
330.300766
 21
246.273631
 31
0.0
  0
LINE
  5
654
100
AcDbEntity
  8
0
  6
Continuous
 62
     6
100
AcDbLine
 10
329.301023
 20
245.273287
 30
0.0
 11
331.30111
 21
245.273287
 31
0.0
  0
ENDBLK
  5
655
100
AcDbEntity
  8
0
100
AcDbBlockEnd
  0
BLOCK
  5
658
100
AcDbEntity
  8
0
100
AcDbBlockBegin
  2
*B92
 70
     0
 10
0.0
 20
0.0
 30
0.0
  3
*B92
  1

  0
LINE
  5
659
100
AcDbEntity
  8
0
  6
Continuous
 62
     6
100
AcDbLine
 10
481.041796
 20
94.280816
 30
0.0
 11
481.041796
 21
96.280302
 31
0.0
  0
LINE
  5
65A
100
AcDbEntity
  8
0
  6
Continuous
 62
     6
100
AcDbLine
 10
480.042053
 20
95.280559
 30
0.0
 11
482.041539
 21
95.280559
 31
0.0
  0
ENDBLK
  5
65B
100
AcDbEntity
  8
0
100
AcDbBlockEnd
  0
BLOCK
  5
65E
100
AcDbEntity
  8
0
100
AcDbBlockBegin
  2
*B93
 70
     0
 10
0.0
 20
0.0
 30
0.0
  3
*B93
  1

  0
LINE
  5
65F
100
AcDbEntity
  8
0
  6
Continuous
 62
     6
100
AcDbLine
 10
255.805477
 20
137.278788
 30
0.0
 11
257.805564
 21
137.278788
 31
0.0
  0
LINE
  5
660
100
AcDbEntity
  8
0
  6
Continuous
 62
     6
100
AcDbLine
 10
256.805821
 20
136.278443
 30
0.0
 11
256.805821
 21
138.278531
 31
0.0
  0
ENDBLK
  5
661
100
AcDbEntity
  8
0
100
AcDbBlockEnd
  0
BLOCK
  5
664
100
AcDbEntity
  8
0
100
AcDbBlockBegin
  2
*B94
 70
     0
 10
0.0
 20
0.0
 30
0.0
  3
*B94
  1

  0
LINE
  5
665
100
AcDbEntity
  8
0
  6
Continuous
 62
     6
100
AcDbLine
 10
554.537343
 20
202.275315
 30
0.0
 11
554.537343
 21
204.275403
 31
0.0
  0
LINE
  5
666
100
AcDbEntity
  8
0
  6
Continuous
 62
     6
100
AcDbLine
 10
553.5376
 20
203.27566
 30
0.0
 11
555.537086
 21
203.27566
 31
0.0
  0
ENDBLK
  5
667
100
AcDbEntity
  8
0
100
AcDbBlockEnd
  0
BLOCK
  5
66A
100
AcDbEntity
  8
0
100
AcDbBlockBegin
  2
*B95
 70
     0
 10
0.0
 20
0.0
 30
0.0
  3
*B95
  1

  0
LINE
  5
66B
100
AcDbEntity
  8
0
  6
Continuous
 62
     6
100
AcDbLine
 10
463.792922
 20
244.273544
 30
0.0
 11
463.792922
 21
246.273631
 31
0.0
  0
LINE
  5
66C
100
AcDbEntity
  8
0
  6
Continuous
 62
     6
100
AcDbLine
 10
462.793179
 20
245.273287
 30
0.0
 11
464.792665
 21
245.273287
 31
0.0
  0
ENDBLK
  5
66D
100
AcDbEntity
  8
0
100
AcDbBlockEnd
  0
BLOCK
  5
670
100
AcDbEntity
  8
0
100
AcDbBlockBegin
  2
*B96
 70
     0
 10
0.0
 20
0.0
 30
0.0
  3
*B96
  1

  0
LINE
  5
671
100
AcDbEntity
  8
0
  6
Continuous
 62
     6
100
AcDbLine
 10
305.552615
 20
223.27473
 30
0.0
 11
305.552615
 21
225.274216
 31
0.0
  0
LINE
  5
672
100
AcDbEntity
  8
0
  6
Continuous
 62
     6
100
AcDbLine
 10
304.552872
 20
224.274473
 30
0.0
 11
306.552358
 21
224.274473
 31
0.0
  0
ENDBLK
  5
673
100
AcDbEntity
  8
0
100
AcDbBlockEnd
  0
BLOCK
  5
676
100
AcDbEntity
  8
0
100
AcDbBlockBegin
  2
*B97
 70
     0
 10
0.0
 20
0.0
 30
0.0
  3
*B97
  1

  0
LINE
  5
677
100
AcDbEntity
  8
0
  6
Continuous
 62
     6
100
AcDbLine
 10
279.804121
 20
95.280559
 30
0.0
 11
281.804208
 21
95.280559
 31
0.0
  0
LINE
  5
678
100
AcDbEntity
  8
0
  6
Continuous
 62
     6
100
AcDbLine
 10
280.803864
 20
94.280816
 30
0.0
 11
280.803864
 21
96.280302
 31
0.0
  0
ENDBLK
  5
679
100
AcDbEntity
  8
0
100
AcDbBlockEnd
  0
BLOCK
  5
67C
100
AcDbEntity
  8
0
100
AcDbBlockBegin
  2
*B98
 70
     0
 10
0.0
 20
0.0
 30
0.0
  3
*B98
  1

  0
LINE
  5
67D
100
AcDbEntity
  8
0
  6
Continuous
 62
     6
100
AcDbLine
 10
505.789947
 20
169.27718
 30
0.0
 11
505.789947
 21
171.277267
 31
0.0
  0
LINE
  5
67E
100
AcDbEntity
  8
0
  6
Continuous
 62
     6
100
AcDbLine
 10
504.790204
 20
170.276923
 30
0.0
 11
506.790291
 21
170.276923
 31
0.0
  0
ENDBLK
  5
67F
100
AcDbEntity
  8
0
100
AcDbBlockEnd
  0
BLOCK
  5
682
100
AcDbEntity
  8
0
100
AcDbBlockBegin
  2
*B99
 70
     0
 10
0.0
 20
0.0
 30
0.0
  3
*B99
  1

  0
LINE
  5
683
100
AcDbEntity
  8
0
  6
Continuous
 62
     0
100
AcDbLine
 10
367.644354
 20
40.101002
 30
0.0
 11
387.405219
 21
40.101002
 31
0.0
  0
LINE
  5
684
100
AcDbEntity
  8
0
  6
Continuous
 62
     0
100
AcDbLine
 10
387.405219
 20
40.101002
 30
0.0
 11
412.653241
 21
91.909585
 31
0.0
  0
SOLID
  5
685
100
AcDbEntity
  8
0
  6
Continuous
 62
     0
100
AcDbTrace
 10
409.643786
 20
80.027561
 30
0.0
 11
412.653241
 21
91.909585
 31
0.0
 12
405.149153
 22
82.218334
 32
0.0
 13
405.149153
 23
82.218334
 33
0.0
  0
ENDBLK
  5
686
100
AcDbEntity
  8
0
100
AcDbBlockEnd
  0
BLOCK
  5
689
100
AcDbEntity
  8
0
100
AcDbBlockBegin
  2
*B100
 70
     0
 10
0.0
 20
0.0
 30
0.0
  3
*B100
  1

  0
LINE
  5
68A
100
AcDbEntity
  8
0
  6
Continuous
 62
     0
100
AcDbLine
 10
447.163021
 20
40.101002
 30
0.0
 11
468.981118
 21
40.101002
 31
0.0
  0
LINE
  5
68B
100
AcDbEntity
  8
0
  6
Continuous
 62
     0
100
AcDbLine
 10
468.981118
 20
40.101002
 30
0.0
 11
501.874588
 21
108.176161
 31
0.0
  0
SOLID
  5
68C
100
AcDbEntity
  8
0
  6
Continuous
 62
     0
100
AcDbTrace
 10
498.904834
 20
96.284513
 30
0.0
 11
501.874588
 21
108.176161
 31
0.0
 12
494.403584
 22
98.459646
 32
0.0
 13
494.403584
 23
98.459646
 33
0.0
  0
ENDBLK
  5
68D
100
AcDbEntity
  8
0
100
AcDbBlockEnd
  0
BLOCK
  5
690
100
AcDbEntity
  8
0
100
AcDbBlockBegin
  2
*B101
 70
     0
 10
0.0
 20
0.0
 30
0.0
  3
*B101
  1

  0
LINE
  5
691
100
AcDbEntity
  8
0
  6
Continuous
 62
     0
100
AcDbLine
 10
567.87928
 20
40.101002
 30
0.0
 11
538.443405
 21
40.101002
 31
0.0
  0
LINE
  5
692
100
AcDbEntity
  8
0
  6
Continuous
 62
     0
100
AcDbLine
 10
538.443405
 20
40.101002
 30
0.0
 11
514.654094
 21
95.600573
 31
0.0
  0
SOLID
  5
693
100
AcDbEntity
  8
0
  6
Continuous
 62
     0
100
AcDbTrace
 10
521.679364
 20
85.556224
 30
0.0
 11
514.654094
 21
95.600573
 31
0.0
 12
517.083674
 22
83.586213
 32
0.0
 13
517.083674
 23
83.586213
 33
0.0
  0
ENDBLK
  5
694
100
AcDbEntity
  8
0
100
AcDbBlockEnd
  0
BLOCK
  5
697
100
AcDbEntity
  8
0
100
AcDbBlockBegin
  2
*B102
 70
     0
 10
0.0
 20
0.0
 30
0.0
  3
*B102
  1

  0
TEXT
  5
698
100
AcDbEntity
  8
TEXT
  6
Continuous
 62
     0
100
AcDbText
 10
367.666667
 20
46.0
 30
0.0
 40
8.0
  1
M3
100
AcDbText
  0
ENDBLK
  5
699
100
AcDbEntity
  8
0
100
AcDbBlockEnd
  0
BLOCK
  5
69C
100
AcDbEntity
  8
0
100
AcDbBlockBegin
  2
*B103
 70
     0
 10
0.0
 20
0.0
 30
0.0
  3
*B103
  1

  0
TEXT
  5
69D
100
AcDbEntity
  8
TEXT
  6
Continuous
 62
     0
100
AcDbText
 10
447.190476
 20
46.0
 30
0.0
 40
8.0
  1
%%c6
100
AcDbText
  0
ENDBLK
  5
69E
100
AcDbEntity
  8
0
100
AcDbBlockEnd
  0
BLOCK
  5
6A1
100
AcDbEntity
  8
0
100
AcDbBlockBegin
  2
*B104
 70
     0
 10
0.0
 20
0.0
 30
0.0
  3
*B104
  1

  0
TEXT
  5
6A2
100
AcDbEntity
  8
TEXT
  6
Continuous
 62
     0
100
AcDbText
 10
541.47619
 20
46.0
 30
0.0
 40
8.0
  1
%%c15
100
AcDbText
  0
ENDBLK
  5
6A3
100
AcDbEntity
  8
0
100
AcDbBlockEnd
  0
BLOCK
  5
6A6
100
AcDbEntity
  8
0
100
AcDbBlockBegin
  2
*B105
 70
     0
 10
0.0
 20
0.0
 30
0.0
  3
*B105
  1

  0
TEXT
  5
6A7
100
AcDbEntity
  8
TEXT
  6
Continuous
 62
     0
100
AcDbText
 10
587.690476
 20
299.0
 30
0.0
 40
8.0
  1
6
100
AcDbText
  0
ENDBLK
  5
6A8
100
AcDbEntity
  8
0
100
AcDbBlockEnd
  0
BLOCK
  5
6AB
100
AcDbEntity
  8
0
100
AcDbBlockBegin
  2
*B106
 70
     0
 10
0.0
 20
0.0
 30
0.0
  3
*B106
  1

  0
TEXT
  5
6AC
100
AcDbEntity
  8
TEXT
  6
Continuous
 62
     0
100
AcDbText
 10
522.053334
 20
329.0
 30
0.0
 40
8.0
  1
22,25
100
AcDbText
  0
ENDBLK
  5
6AD
100
AcDbEntity
  8
0
100
AcDbBlockEnd
  0
BLOCK
  5
6B0
100
AcDbEntity
  8
0
100
AcDbBlockBegin
  2
*B107
 70
     0
 10
0.0
 20
0.0
 30
0.0
  3
*B107
  1

  0
TEXT
  5
6B1
100
AcDbEntity
  8
TEXT
  6
Continuous
 62
     0
100
AcDbText
 10
211.190476
 20
299.0
 30
0.0
 40
8.0
  1
6
100
AcDbText
  0
ENDBLK
  5
6B2
100
AcDbEntity
  8
0
100
AcDbBlockEnd
  0
BLOCK
  5
6B5
100
AcDbEntity
  8
0
100
AcDbBlockBegin
  2
*B108
 70
     0
 10
0.0
 20
0.0
 30
0.0
  3
*B108
  1

  0
TEXT
  5
6B6
100
AcDbEntity
  8
TEXT
  6
Continuous
 62
     0
100
AcDbText
 10
576.37619
 20
452.702202
 30
0.0
 40
8.0
  1
%%c4,5
100
AcDbText
  0
ENDBLK
  5
6B7
100
AcDbEntity
  8
0
100
AcDbBlockEnd
  0
BLOCK
  5
6BA
100
AcDbEntity
  8
0
100
AcDbBlockBegin
  2
*B109
 70
     0
 10
0.0
 20
0.0
 30
0.0
  3
*B109
  1

  0
TEXT
  5
6BB
100
AcDbEntity
  8
TEXT
  6
Continuous
 62
     0
100
AcDbText
 10
600.0
 20
162.563081
 30
0.0
 40
8.0
  1
22
 50
90.0
100
AcDbText
  0
ENDBLK
  5
6BC
100
AcDbEntity
  8
0
100
AcDbBlockEnd
  0
BLOCK
  5
6BF
100
AcDbEntity
  8
0
100
AcDbBlockBegin
  2
*B110
 70
     0
 10
0.0
 20
0.0
 30
0.0
  3
*B110
  1

  0
TEXT
  5
6C0
100
AcDbEntity
  8
TEXT
  6
Continuous
 62
     0
100
AcDbText
 10
662.0
 20
162.563081
 30
0.0
 40
8.0
  1
50
 50
90.0
100
AcDbText
  0
ENDBLK
  5
6C1
100
AcDbEntity
  8
0
100
AcDbBlockEnd
  0
BLOCK
  5
6C4
100
AcDbEntity
  8
0
100
AcDbBlockBegin
  2
*B111
 70
     0
 10
0.0
 20
0.0
 30
0.0
  3
*B111
  1

  0
TEXT
  5
6C5
100
AcDbEntity
  8
TEXT
  6
Continuous
 62
     0
100
AcDbText
 10
204.0
 20
210.095238
 30
0.0
 40
8.0
  1
G 1/4"
 50
90.0
100
AcDbText
  0
ENDBLK
  5
6C6
100
AcDbEntity
  8
0
100
AcDbBlockEnd
  0
BLOCK
  5
6C9
100
AcDbEntity
  8
0
100
AcDbBlockBegin
  2
*B112
 70
     0
 10
0.0
 20
0.0
 30
0.0
  3
*B112
  1

  0
TEXT
  5
6CA
100
AcDbEntity
  8
TEXT
  6
Continuous
 62
     0
100
AcDbText
 10
170.0
 20
195.563081
 30
0.0
 40
8.0
  1
22
 50
90.0
100
AcDbText
  0
ENDBLK
  5
6CB
100
AcDbEntity
  8
0
100
AcDbBlockEnd
  0
BLOCK
  5
6CE
100
AcDbEntity
  8
0
100
AcDbBlockBegin
  2
*B113
 70
     0
 10
0.0
 20
0.0
 30
0.0
  3
*B113
  1

  0
TEXT
  5
6CF
100
AcDbEntity
  8
TEXT
  6
Continuous
 62
     0
100
AcDbText
 10
170.0
 20
129.563081
 30
0.0
 40
8.0
  1
22
 50
90.0
100
AcDbText
  0
ENDBLK
  5
6D0
100
AcDbEntity
  8
0
100
AcDbBlockEnd
  0
BLOCK
  5
6D3
100
AcDbEntity
  8
0
100
AcDbBlockBegin
  2
*B114
 70
     0
 10
0.0
 20
0.0
 30
0.0
  3
*B114
  1

  0
TEXT
  5
6D4
100
AcDbEntity
  8
TEXT
  6
Continuous
 62
     0
100
AcDbText
 10
136.0
 20
162.563081
 30
0.0
 40
8.0
  1
64
 50
90.0
100
AcDbText
  0
ENDBLK
  5
6D5
100
AcDbEntity
  8
0
100
AcDbBlockEnd
  0
BLOCK
  5
6D8
100
AcDbEntity
  8
0
100
AcDbBlockBegin
  2
*B115
 70
     0
 10
0.0
 20
0.0
 30
0.0
  3
*B115
  1

  0
TEXT
  5
6D9
100
AcDbEntity
  8
TEXT
  6
Continuous
 62
     0
100
AcDbText
 10
206.0
 20
465.745401
 30
0.0
 40
8.0
  1
36
 50
90.0
100
AcDbText
  0
ENDBLK
  5
6DA
100
AcDbEntity
  8
0
100
AcDbBlockEnd
  0
BLOCK
  5
6DD
100
AcDbEntity
  8
0
100
AcDbBlockBegin
  2
*B116
 70
     0
 10
0.0
 20
0.0
 30
0.0
  3
*B116
  1

  0
TEXT
  5
6DE
100
AcDbEntity
  8
TEXT
  6
Continuous
 62
     0
100
AcDbText
 10
255.053334
 20
329.0
 30
0.0
 40
8.0
  1
22,25
100
AcDbText
  0
ENDBLK
  5
6DF
100
AcDbEntity
  8
0
100
AcDbBlockEnd
  0
BLOCK
  5
6E2
100
AcDbEntity
  8
0
100
AcDbBlockBegin
  2
*B117
 70
     0
 10
0.0
 20
0.0
 30
0.0
  3
*B117
  1

  0
TEXT
  5
6E3
100
AcDbEntity
  8
TEXT
  6
Continuous
 62
     0
100
AcDbText
 10
321.803334
 20
329.0
 30
0.0
 40
8.0
  1
22,25
100
AcDbText
  0
ENDBLK
  5
6E4
100
AcDbEntity
  8
0
100
AcDbBlockEnd
  0
BLOCK
  5
6E7
100
AcDbEntity
  8
0
100
AcDbBlockBegin
  2
*B118
 70
     0
 10
0.0
 20
0.0
 30
0.0
  3
*B118
  1

  0
TEXT
  5
6E8
100
AcDbEntity
  8
TEXT
  6
Continuous
 62
     0
100
AcDbText
 10
292.237858
 20
44.0
 30
0.0
 40
8.0
  1
16,5
100
AcDbText
  0
ENDBLK
  5
6E9
100
AcDbEntity
  8
0
100
AcDbBlockEnd
  0
BLOCK
  5
6EC
100
AcDbEntity
  8
0
100
AcDbBlockBegin
  2
*B119
 70
     0
 10
0.0
 20
0.0
 30
0.0
  3
*B119
  1

  0
TEXT
  5
6ED
100
AcDbEntity
  8
TEXT
  6
Continuous
 62
     0
100
AcDbText
 10
388.553334
 20
564.0
 30
0.0
 40
8.0
  1
22,25
100
AcDbText
  0
ENDBLK
  5
6EE
100
AcDbEntity
  8
0
100
AcDbBlockEnd
  0
BLOCK
  5
6F1
100
AcDbEntity
  8
0
100
AcDbBlockBegin
  2
*B120
 70
     0
 10
0.0
 20
0.0
 30
0.0
  3
*B120
  1

  0
TEXT
  5
6F2
100
AcDbEntity
  8
TEXT
  6
Continuous
 62
     0
100
AcDbText
 10
632.0
 20
189.563081
 30
0.0
 40
8.0
  1
18
 50
90.0
100
AcDbText
  0
ENDBLK
  5
6F3
100
AcDbEntity
  8
0
100
AcDbBlockEnd
  0
BLOCK
  5
6F6
100
AcDbEntity
  8
0
100
AcDbBlockBegin
  2
*B121
 70
     0
 10
0.0
 20
0.0
 30
0.0
  3
*B121
  1

  0
TEXT
  5
6F7
100
AcDbEntity
  8
TEXT
  6
Continuous
 62
     0
100
AcDbText
 10
455.303334
 20
329.0
 30
0.0
 40
8.0
  1
22,25
100
AcDbText
  0
ENDBLK
  5
6F8
100
AcDbEntity
  8
0
100
AcDbBlockEnd
  0
BLOCK
  5
6FB
100
AcDbEntity
  8
0
100
AcDbBlockBegin
  2
*B122
 70
     0
 10
0.0
 20
0.0
 30
0.0
  3
*B122
  1

  0
TEXT
  5
6FC
100
AcDbEntity
  8
TEXT
  6
Continuous
 62
     0
100
AcDbText
 10
455.303334
 20
564.0
 30
0.0
 40
8.0
  1
22,25
100
AcDbText
  0
ENDBLK
  5
6FD
100
AcDbEntity
  8
0
100
AcDbBlockEnd
  0
BLOCK
  5
700
100
AcDbEntity
  8
0
100
AcDbBlockBegin
  2
*B123
 70
     0
 10
0.0
 20
0.0
 30
0.0
  3
*B123
  1

  0
TEXT
  5
701
100
AcDbEntity
  8
TEXT
  6
Continuous
 62
     0
100
AcDbText
 10
632.0
 20
135.563081
 30
0.0
 40
8.0
  1
18
 50
90.0
100
AcDbText
  0
ENDBLK
  5
702
100
AcDbEntity
  8
0
100
AcDbBlockEnd
  0
BLOCK
  5
705
100
AcDbEntity
  8
0
100
AcDbBlockBegin
  2
*B124
 70
     0
 10
0.0
 20
0.0
 30
0.0
  3
*B124
  1

  0
TEXT
  5
706
100
AcDbEntity
  8
TEXT
  6
Continuous
 62
     0
100
AcDbText
 10
321.803334
 20
564.0
 30
0.0
 40
8.0
  1
22,25
100
AcDbText
  0
ENDBLK
  5
707
100
AcDbEntity
  8
0
100
AcDbBlockEnd
  0
BLOCK
  5
70A
100
AcDbEntity
  8
0
100
AcDbBlockBegin
  2
*B125
 70
     0
 10
0.0
 20
0.0
 30
0.0
  3
*B125
  1

  0
TEXT
  5
70B
100
AcDbEntity
  8
TEXT
  6
Continuous
 62
     0
100
AcDbText
 10
206.0
 20
381.745401
 30
0.0
 40
8.0
  1
20
 50
90.0
100
AcDbText
  0
ENDBLK
  5
70C
100
AcDbEntity
  8
0
100
AcDbBlockEnd
  0
BLOCK
  5
70F
100
AcDbEntity
  8
0
100
AcDbBlockBegin
  2
*B126
 70
     0
 10
0.0
 20
0.0
 30
0.0
  3
*B126
  1

  0
TEXT
  5
710
100
AcDbEntity
  8
TEXT
  6
Continuous
 62
     0
100
AcDbText
 10
388.553334
 20
329.0
 30
0.0
 40
8.0
  1
22,25
100
AcDbText
  0
ENDBLK
  5
711
100
AcDbEntity
  8
0
100
AcDbBlockEnd
  0
ENDSEC
  0
SECTION
  2
ENTITIES
  0
INSERT
  5
133
100
AcDbEntity
  8
0
  6
Continuous
 62
   174
100
AcDbBlockReference
  2
*B1
 10
0.0
 20
0.0
 30
0.0
  0
INSERT
  5
2C7
100
AcDbEntity
  8
0
  6
HIDDEN
 62
   174
100
AcDbBlockReference
  2
*B2
 10
0.0
 20
0.0
 30
0.0
  0
INSERT
  5
2DB
100
AcDbEntity
  8
0
  6
HIDDEN
 62
   172
100
AcDbBlockReference
  2
*B3
 10
0.0
 20
0.0
 30
0.0
  0
INSERT
  5
2E2
100
AcDbEntity
  8
0
  6
Continuous
 62
     0
100
AcDbBlockReference
  2
*B4
 10
0.0
 20
0.0
 30
0.0
  0
INSERT
  5
2E9
100
AcDbEntity
  8
0
  6
Continuous
 62
     0
100
AcDbBlockReference
  2
*B5
 10
0.0
 20
0.0
 30
0.0
  0
INSERT
  5
2F0
100
AcDbEntity
  8
0
  6
Continuous
 62
     0
100
AcDbBlockReference
  2
*B6
 10
0.0
 20
0.0
 30
0.0
  0
INSERT
  5
2F7
100
AcDbEntity
  8
0
  6
Continuous
 62
     0
100
AcDbBlockReference
  2
*B7
 10
0.0
 20
0.0
 30
0.0
  0
INSERT
  5
2FE
100
AcDbEntity
  8
0
  6
Continuous
 62
     0
100
AcDbBlockReference
  2
*B8
 10
0.0
 20
0.0
 30
0.0
  0
INSERT
  5
305
100
AcDbEntity
  8
0
  6
Continuous
 62
     0
100
AcDbBlockReference
  2
*B9
 10
0.0
 20
0.0
 30
0.0
  0
INSERT
  5
30C
100
AcDbEntity
  8
0
  6
Continuous
 62
     0
100
AcDbBlockReference
  2
*B10
 10
0.0
 20
0.0
 30
0.0
  0
INSERT
  5
313
100
AcDbEntity
  8
0
  6
Continuous
 62
     0
100
AcDbBlockReference
  2
*B11
 10
0.0
 20
0.0
 30
0.0
  0
INSERT
  5
31A
100
AcDbEntity
  8
0
  6
Continuous
 62
     0
100
AcDbBlockReference
  2
*B12
 10
0.0
 20
0.0
 30
0.0
  0
INSERT
  5
321
100
AcDbEntity
  8
0
  6
Continuous
 62
     0
100
AcDbBlockReference
  2
*B13
 10
0.0
 20
0.0
 30
0.0
  0
INSERT
  5
328
100
AcDbEntity
  8
0
  6
Continuous
 62
     0
100
AcDbBlockReference
  2
*B14
 10
0.0
 20
0.0
 30
0.0
  0
INSERT
  5
32F
100
AcDbEntity
  8
0
  6
Continuous
 62
     0
100
AcDbBlockReference
  2
*B15
 10
0.0
 20
0.0
 30
0.0
  0
INSERT
  5
336
100
AcDbEntity
  8
0
  6
Continuous
 62
     0
100
AcDbBlockReference
  2
*B16
 10
0.0
 20
0.0
 30
0.0
  0
INSERT
  5
33D
100
AcDbEntity
  8
0
  6
Continuous
 62
     0
100
AcDbBlockReference
  2
*B17
 10
0.0
 20
0.0
 30
0.0
  0
INSERT
  5
344
100
AcDbEntity
  8
0
  6
Continuous
 62
     0
100
AcDbBlockReference
  2
*B18
 10
0.0
 20
0.0
 30
0.0
  0
INSERT
  5
34B
100
AcDbEntity
  8
0
  6
Continuous
 62
     0
100
AcDbBlockReference
  2
*B19
 10
0.0
 20
0.0
 30
0.0
  0
INSERT
  5
352
100
AcDbEntity
  8
0
  6
Continuous
 62
     0
100
AcDbBlockReference
  2
*B20
 10
0.0
 20
0.0
 30
0.0
  0
INSERT
  5
359
100
AcDbEntity
  8
0
  6
Continuous
 62
     0
100
AcDbBlockReference
  2
*B21
 10
0.0
 20
0.0
 30
0.0
  0
INSERT
  5
360
100
AcDbEntity
  8
0
  6
Continuous
 62
     0
100
AcDbBlockReference
  2
*B22
 10
0.0
 20
0.0
 30
0.0
  0
INSERT
  5
367
100
AcDbEntity
  8
0
  6
Continuous
 62
     0
100
AcDbBlockReference
  2
*B23
 10
0.0
 20
0.0
 30
0.0
  0
INSERT
  5
36E
100
AcDbEntity
  8
0
  6
Continuous
 62
     0
100
AcDbBlockReference
  2
*B24
 10
0.0
 20
0.0
 30
0.0
  0
INSERT
  5
375
100
AcDbEntity
  8
0
  6
Continuous
 62
     0
100
AcDbBlockReference
  2
*B25
 10
0.0
 20
0.0
 30
0.0
  0
INSERT
  5
37A
100
AcDbEntity
  8
0
  6
Continuous
 62
     8
100
AcDbBlockReference
  2
*B26
 10
0.0
 20
0.0
 30
0.0
  0
INSERT
  5
37F
100
AcDbEntity
  8
0
  6
Continuous
 62
     8
100
AcDbBlockReference
  2
*B27
 10
0.0
 20
0.0
 30
0.0
  0
INSERT
  5
385
100
AcDbEntity
  8
0
  6
Continuous
 62
     8
100
AcDbBlockReference
  2
*B28
 10
0.0
 20
0.0
 30
0.0
  0
INSERT
  5
3A4
100
AcDbEntity
  8
0
  6
Continuous
 62
     8
100
AcDbBlockReference
  2
*B29
 10
0.0
 20
0.0
 30
0.0
  0
INSERT
  5
3A9
100
AcDbEntity
  8
0
  6
Continuous
 62
     8
100
AcDbBlockReference
  2
*B30
 10
0.0
 20
0.0
 30
0.0
  0
INSERT
  5
3BC
100
AcDbEntity
  8
0
  6
Continuous
 62
     8
100
AcDbBlockReference
  2
*B31
 10
0.0
 20
0.0
 30
0.0
  0
INSERT
  5
3CC
100
AcDbEntity
  8
0
  6
Continuous
 62
     8
100
AcDbBlockReference
  2
*B32
 10
0.0
 20
0.0
 30
0.0
  0
INSERT
  5
3D2
100
AcDbEntity
  8
0
  6
Continuous
 62
     8
100
AcDbBlockReference
  2
*B33
 10
0.0
 20
0.0
 30
0.0
  0
INSERT
  5
3D8
100
AcDbEntity
  8
0
  6
Continuous
 62
     8
100
AcDbBlockReference
  2
*B34
 10
0.0
 20
0.0
 30
0.0
  0
INSERT
  5
3F8
100
AcDbEntity
  8
0
  6
Continuous
 62
     8
100
AcDbBlockReference
  2
*B35
 10
0.0
 20
0.0
 30
0.0
  0
INSERT
  5
40B
100
AcDbEntity
  8
0
  6
Continuous
 62
     8
100
AcDbBlockReference
  2
*B36
 10
0.0
 20
0.0
 30
0.0
  0
INSERT
  5
41B
100
AcDbEntity
  8
0
  6
Continuous
 62
     8
100
AcDbBlockReference
  2
*B37
 10
0.0
 20
0.0
 30
0.0
  0
INSERT
  5
421
100
AcDbEntity
  8
0
  6
Continuous
 62
     8
100
AcDbBlockReference
  2
*B38
 10
0.0
 20
0.0
 30
0.0
  0
INSERT
  5
42A
100
AcDbEntity
  8
0
  6
Continuous
 62
     8
100
AcDbBlockReference
  2
*B39
 10
0.0
 20
0.0
 30
0.0
  0
INSERT
  5
42F
100
AcDbEntity
  8
0
  6
Continuous
 62
     8
100
AcDbBlockReference
  2
*B40
 10
0.0
 20
0.0
 30
0.0
  0
INSERT
  5
434
100
AcDbEntity
  8
0
  6
Continuous
 62
     8
100
AcDbBlockReference
  2
*B41
 10
0.0
 20
0.0
 30
0.0
  0
INSERT
  5
439
100
AcDbEntity
  8
0
  6
Continuous
 62
     8
100
AcDbBlockReference
  2
*B42
 10
0.0
 20
0.0
 30
0.0
  0
INSERT
  5
43E
100
AcDbEntity
  8
0
  6
Continuous
 62
     8
100
AcDbBlockReference
  2
*B43
 10
0.0
 20
0.0
 30
0.0
  0
INSERT
  5
444
100
AcDbEntity
  8
0
  6
Continuous
 62
     8
100
AcDbBlockReference
  2
*B44
 10
0.0
 20
0.0
 30
0.0
  0
INSERT
  5
465
100
AcDbEntity
  8
0
  6
Continuous
 62
     8
100
AcDbBlockReference
  2
*B45
 10
0.0
 20
0.0
 30
0.0
  0
INSERT
  5
47E
100
AcDbEntity
  8
0
  6
Continuous
 62
     8
100
AcDbBlockReference
  2
*B46
 10
0.0
 20
0.0
 30
0.0
  0
INSERT
  5
483
100
AcDbEntity
  8
0
  6
Continuous
 62
     8
100
AcDbBlockReference
  2
*B47
 10
0.0
 20
0.0
 30
0.0
  0
INSERT
  5
493
100
AcDbEntity
  8
0
  6
Continuous
 62
     8
100
AcDbBlockReference
  2
*B48
 10
0.0
 20
0.0
 30
0.0
  0
INSERT
  5
4A5
100
AcDbEntity
  8
0
  6
Continuous
 62
     8
100
AcDbBlockReference
  2
*B49
 10
0.0
 20
0.0
 30
0.0
  0
INSERT
  5
4BA
100
AcDbEntity
  8
0
  6
Continuous
 62
     8
100
AcDbBlockReference
  2
*B50
 10
0.0
 20
0.0
 30
0.0
  0
INSERT
  5
4C3
100
AcDbEntity
  8
0
  6
Continuous
 62
     8
100
AcDbBlockReference
  2
*B51
 10
0.0
 20
0.0
 30
0.0
  0
INSERT
  5
4C9
100
AcDbEntity
  8
0
  6
Continuous
 62
     8
100
AcDbBlockReference
  2
*B52
 10
0.0
 20
0.0
 30
0.0
  0
INSERT
  5
4DC
100
AcDbEntity
  8
0
  6
Continuous
 62
     8
100
AcDbBlockReference
  2
*B53
 10
0.0
 20
0.0
 30
0.0
  0
INSERT
  5
4E2
100
AcDbEntity
  8
0
  6
Continuous
 62
     8
100
AcDbBlockReference
  2
*B54
 10
0.0
 20
0.0
 30
0.0
  0
INSERT
  5
4F5
100
AcDbEntity
  8
0
  6
Continuous
 62
     8
100
AcDbBlockReference
  2
*B55
 10
0.0
 20
0.0
 30
0.0
  0
INSERT
  5
50A
100
AcDbEntity
  8
0
  6
Continuous
 62
     8
100
AcDbBlockReference
  2
*B56
 10
0.0
 20
0.0
 30
0.0
  0
INSERT
  5
515
100
AcDbEntity
  8
0
  6
Continuous
 62
     8
100
AcDbBlockReference
  2
*B57
 10
0.0
 20
0.0
 30
0.0
  0
INSERT
  5
51B
100
AcDbEntity
  8
0
  6
Continuous
 62
     8
100
AcDbBlockReference
  2
*B58
 10
0.0
 20
0.0
 30
0.0
  0
INSERT
  5
52B
100
AcDbEntity
  8
0
  6
Continuous
 62
     8
100
AcDbBlockReference
  2
*B59
 10
0.0
 20
0.0
 30
0.0
  0
INSERT
  5
531
100
AcDbEntity
  8
0
  6
Continuous
 62
     8
100
AcDbBlockReference
  2
*B60
 10
0.0
 20
0.0
 30
0.0
  0
INSERT
  5
537
100
AcDbEntity
  8
0
  6
Continuous
 62
     8
100
AcDbBlockReference
  2
*B61
 10
0.0
 20
0.0
 30
0.0
  0
INSERT
  5
53D
100
AcDbEntity
  8
0
  6
Continuous
 62
     8
100
AcDbBlockReference
  2
*B62
 10
0.0
 20
0.0
 30
0.0
  0
INSERT
  5
543
100
AcDbEntity
  8
0
  6
Continuous
 62
     8
100
AcDbBlockReference
  2
*B63
 10
0.0
 20
0.0
 30
0.0
  0
INSERT
  5
569
100
AcDbEntity
  8
0
  6
Continuous
 62
     8
100
AcDbBlockReference
  2
*B64
 10
0.0
 20
0.0
 30
0.0
  0
INSERT
  5
572
100
AcDbEntity
  8
0
  6
Continuous
 62
     8
100
AcDbBlockReference
  2
*B65
 10
0.0
 20
0.0
 30
0.0
  0
INSERT
  5
578
100
AcDbEntity
  8
0
  6
Continuous
 62
     8
100
AcDbBlockReference
  2
*B66
 10
0.0
 20
0.0
 30
0.0
  0
INSERT
  5
57D
100
AcDbEntity
  8
0
  6
Continuous
 62
     8
100
AcDbBlockReference
  2
*B67
 10
0.0
 20
0.0
 30
0.0
  0
INSERT
  5
583
100
AcDbEntity
  8
0
  6
Continuous
 62
     8
100
AcDbBlockReference
  2
*B68
 10
0.0
 20
0.0
 30
0.0
  0
INSERT
  5
5A9
100
AcDbEntity
  8
0
  6
Continuous
 62
     8
100
AcDbBlockReference
  2
*B69
 10
0.0
 20
0.0
 30
0.0
  0
INSERT
  5
5AE
100
AcDbEntity
  8
0
  6
Continuous
 62
     8
100
AcDbBlockReference
  2
*B70
 10
0.0
 20
0.0
 30
0.0
  0
INSERT
  5
5C0
100
AcDbEntity
  8
0
  6
Continuous
 62
     8
100
AcDbBlockReference
  2
*B71
 10
0.0
 20
0.0
 30
0.0
  0
INSERT
  5
5C5
100
AcDbEntity
  8
0
  6
Continuous
 62
     8
100
AcDbBlockReference
  2
*B72
 10
0.0
 20
0.0
 30
0.0
  0
INSERT
  5
5E5
100
AcDbEntity
  8
0
  6
Continuous
 62
     8
100
AcDbBlockReference
  2
*B73
 10
0.0
 20
0.0
 30
0.0
  0
INSERT
  5
5F0
100
AcDbEntity
  8
0
  6
Continuous
 62
     8
100
AcDbBlockReference
  2
*B74
 10
0.0
 20
0.0
 30
0.0
  0
INSERT
  5
5F6
100
AcDbEntity
  8
0
  6
Continuous
 62
     6
100
AcDbBlockReference
  2
*B75
 10
0.0
 20
0.0
 30
0.0
  0
INSERT
  5
5FC
100
AcDbEntity
  8
0
  6
Continuous
 62
     6
100
AcDbBlockReference
  2
*B76
 10
0.0
 20
0.0
 30
0.0
  0
INSERT
  5
602
100
AcDbEntity
  8
0
  6
Continuous
 62
     6
100
AcDbBlockReference
  2
*B77
 10
0.0
 20
0.0
 30
0.0
  0
INSERT
  5
608
100
AcDbEntity
  8
0
  6
Continuous
 62
     6
100
AcDbBlockReference
  2
*B78
 10
0.0
 20
0.0
 30
0.0
  0
INSERT
  5
60E
100
AcDbEntity
  8
0
  6
Continuous
 62
     6
100
AcDbBlockReference
  2
*B79
 10
0.0
 20
0.0
 30
0.0
  0
INSERT
  5
614
100
AcDbEntity
  8
0
  6
Continuous
 62
     6
100
AcDbBlockReference
  2
*B80
 10
0.0
 20
0.0
 30
0.0
  0
INSERT
  5
61A
100
AcDbEntity
  8
0
  6
Continuous
 62
     6
100
AcDbBlockReference
  2
*B81
 10
0.0
 20
0.0
 30
0.0
  0
INSERT
  5
620
100
AcDbEntity
  8
0
  6
Continuous
 62
     6
100
AcDbBlockReference
  2
*B82
 10
0.0
 20
0.0
 30
0.0
  0
INSERT
  5
626
100
AcDbEntity
  8
0
  6
Continuous
 62
     6
100
AcDbBlockReference
  2
*B83
 10
0.0
 20
0.0
 30
0.0
  0
INSERT
  5
62C
100
AcDbEntity
  8
0
  6
Continuous
 62
     6
100
AcDbBlockReference
  2
*B84
 10
0.0
 20
0.0
 30
0.0
  0
INSERT
  5
632
100
AcDbEntity
  8
0
  6
Continuous
 62
     6
100
AcDbBlockReference
  2
*B85
 10
0.0
 20
0.0
 30
0.0
  0
INSERT
  5
638
100
AcDbEntity
  8
0
  6
Continuous
 62
     6
100
AcDbBlockReference
  2
*B86
 10
0.0
 20
0.0
 30
0.0
  0
INSERT
  5
63E
100
AcDbEntity
  8
0
  6
Continuous
 62
     6
100
AcDbBlockReference
  2
*B87
 10
0.0
 20
0.0
 30
0.0
  0
INSERT
  5
644
100
AcDbEntity
  8
0
  6
Continuous
 62
     6
100
AcDbBlockReference
  2
*B88
 10
0.0
 20
0.0
 30
0.0
  0
INSERT
  5
64A
100
AcDbEntity
  8
0
  6
Continuous
 62
     6
100
AcDbBlockReference
  2
*B89
 10
0.0
 20
0.0
 30
0.0
  0
INSERT
  5
650
100
AcDbEntity
  8
0
  6
Continuous
 62
     6
100
AcDbBlockReference
  2
*B90
 10
0.0
 20
0.0
 30
0.0
  0
INSERT
  5
656
100
AcDbEntity
  8
0
  6
Continuous
 62
     6
100
AcDbBlockReference
  2
*B91
 10
0.0
 20
0.0
 30
0.0
  0
INSERT
  5
65C
100
AcDbEntity
  8
0
  6
Continuous
 62
     6
100
AcDbBlockReference
  2
*B92
 10
0.0
 20
0.0
 30
0.0
  0
INSERT
  5
662
100
AcDbEntity
  8
0
  6
Continuous
 62
     6
100
AcDbBlockReference
  2
*B93
 10
0.0
 20
0.0
 30
0.0
  0
INSERT
  5
668
100
AcDbEntity
  8
0
  6
Continuous
 62
     6
100
AcDbBlockReference
  2
*B94
 10
0.0
 20
0.0
 30
0.0
  0
INSERT
  5
66E
100
AcDbEntity
  8
0
  6
Continuous
 62
     6
100
AcDbBlockReference
  2
*B95
 10
0.0
 20
0.0
 30
0.0
  0
INSERT
  5
674
100
AcDbEntity
  8
0
  6
Continuous
 62
     6
100
AcDbBlockReference
  2
*B96
 10
0.0
 20
0.0
 30
0.0
  0
INSERT
  5
67A
100
AcDbEntity
  8
0
  6
Continuous
 62
     6
100
AcDbBlockReference
  2
*B97
 10
0.0
 20
0.0
 30
0.0
  0
INSERT
  5
680
100
AcDbEntity
  8
0
  6
Continuous
 62
     6
100
AcDbBlockReference
  2
*B98
 10
0.0
 20
0.0
 30
0.0
  0
INSERT
  5
687
100
AcDbEntity
  8
0
  6
Continuous
 62
     0
100
AcDbBlockReference
  2
*B99
 10
0.0
 20
0.0
 30
0.0
  0
INSERT
  5
68E
100
AcDbEntity
  8
0
  6
Continuous
 62
     0
100
AcDbBlockReference
  2
*B100
 10
0.0
 20
0.0
 30
0.0
  0
INSERT
  5
695
100
AcDbEntity
  8
0
  6
Continuous
 62
     0
100
AcDbBlockReference
  2
*B101
 10
0.0
 20
0.0
 30
0.0
  0
INSERT
  5
69A
100
AcDbEntity
  8
TEXT
  6
Continuous
 62
     0
100
AcDbBlockReference
  2
*B102
 10
0.0
 20
0.0
 30
0.0
  0
INSERT
  5
69F
100
AcDbEntity
  8
TEXT
  6
Continuous
 62
     0
100
AcDbBlockReference
  2
*B103
 10
0.0
 20
0.0
 30
0.0
  0
INSERT
  5
6A4
100
AcDbEntity
  8
TEXT
  6
Continuous
 62
     0
100
AcDbBlockReference
  2
*B104
 10
0.0
 20
0.0
 30
0.0
  0
INSERT
  5
6A9
100
AcDbEntity
  8
TEXT
  6
Continuous
 62
     0
100
AcDbBlockReference
  2
*B105
 10
0.0
 20
0.0
 30
0.0
  0
INSERT
  5
6AE
100
AcDbEntity
  8
TEXT
  6
Continuous
 62
     0
100
AcDbBlockReference
  2
*B106
 10
0.0
 20
0.0
 30
0.0
  0
INSERT
  5
6B3
100
AcDbEntity
  8
TEXT
  6
Continuous
 62
     0
100
AcDbBlockReference
  2
*B107
 10
0.0
 20
0.0
 30
0.0
  0
INSERT
  5
6B8
100
AcDbEntity
  8
TEXT
  6
Continuous
 62
     0
100
AcDbBlockReference
  2
*B108
 10
0.0
 20
0.0
 30
0.0
  0
INSERT
  5
6BD
100
AcDbEntity
  8
TEXT
  6
Continuous
 62
     0
100
AcDbBlockReference
  2
*B109
 10
0.0
 20
0.0
 30
0.0
  0
INSERT
  5
6C2
100
AcDbEntity
  8
TEXT
  6
Continuous
 62
     0
100
AcDbBlockReference
  2
*B110
 10
0.0
 20
0.0
 30
0.0
  0
INSERT
  5
6C7
100
AcDbEntity
  8
TEXT
  6
Continuous
 62
     0
100
AcDbBlockReference
  2
*B111
 10
0.0
 20
0.0
 30
0.0
  0
INSERT
  5
6CC
100
AcDbEntity
  8
TEXT
  6
Continuous
 62
     0
100
AcDbBlockReference
  2
*B112
 10
0.0
 20
0.0
 30
0.0
  0
INSERT
  5
6D1
100
AcDbEntity
  8
TEXT
  6
Continuous
 62
     0
100
AcDbBlockReference
  2
*B113
 10
0.0
 20
0.0
 30
0.0
  0
INSERT
  5
6D6
100
AcDbEntity
  8
TEXT
  6
Continuous
 62
     0
100
AcDbBlockReference
  2
*B114
 10
0.0
 20
0.0
 30
0.0
  0
INSERT
  5
6DB
100
AcDbEntity
  8
TEXT
  6
Continuous
 62
     0
100
AcDbBlockReference
  2
*B115
 10
0.0
 20
0.0
 30
0.0
  0
INSERT
  5
6E0
100
AcDbEntity
  8
TEXT
  6
Continuous
 62
     0
100
AcDbBlockReference
  2
*B116
 10
0.0
 20
0.0
 30
0.0
  0
INSERT
  5
6E5
100
AcDbEntity
  8
TEXT
  6
Continuous
 62
     0
100
AcDbBlockReference
  2
*B117
 10
0.0
 20
0.0
 30
0.0
  0
INSERT
  5
6EA
100
AcDbEntity
  8
TEXT
  6
Continuous
 62
     0
100
AcDbBlockReference
  2
*B118
 10
0.0
 20
0.0
 30
0.0
  0
INSERT
  5
6EF
100
AcDbEntity
  8
TEXT
  6
Continuous
 62
     0
100
AcDbBlockReference
  2
*B119
 10
0.0
 20
0.0
 30
0.0
  0
INSERT
  5
6F4
100
AcDbEntity
  8
TEXT
  6
Continuous
 62
     0
100
AcDbBlockReference
  2
*B120
 10
0.0
 20
0.0
 30
0.0
  0
INSERT
  5
6F9
100
AcDbEntity
  8
TEXT
  6
Continuous
 62
     0
100
AcDbBlockReference
  2
*B121
 10
0.0
 20
0.0
 30
0.0
  0
INSERT
  5
6FE
100
AcDbEntity
  8
TEXT
  6
Continuous
 62
     0
100
AcDbBlockReference
  2
*B122
 10
0.0
 20
0.0
 30
0.0
  0
INSERT
  5
703
100
AcDbEntity
  8
TEXT
  6
Continuous
 62
     0
100
AcDbBlockReference
  2
*B123
 10
0.0
 20
0.0
 30
0.0
  0
INSERT
  5
708
100
AcDbEntity
  8
TEXT
  6
Continuous
 62
     0
100
AcDbBlockReference
  2
*B124
 10
0.0
 20
0.0
 30
0.0
  0
INSERT
  5
70D
100
AcDbEntity
  8
TEXT
  6
Continuous
 62
     0
100
AcDbBlockReference
  2
*B125
 10
0.0
 20
0.0
 30
0.0
  0
INSERT
  5
712
100
AcDbEntity
  8
TEXT
  6
Continuous
 62
     0
100
AcDbBlockReference
  2
*B126
 10
0.0
 20
0.0
 30
0.0
  0
ENDSEC
  0
SECTION
  2
OBJECTS
  0
DICTIONARY
  5
19
100
AcDbDictionary
280
     0
281
     1
  3
ACAD_GROUP
350
1A
  3
ACAD_MLINESTYLE
350
1B
  3
ACAD_LAYOUT
350
1E
  3
ACAD_PLOTSETTINGS
350
22
  3
ACAD_PLOTSTYLENAME
350
1F
  3
ACAD_WIPEOUT_VARS
350
23
  0
DICTIONARY
  5
1A
102
{ACAD_REACTORS
330
19
102
}
100
AcDbDictionary
280
     0
281
     1
  0
DICTIONARY
  5
1B
102
{ACAD_REACTORS
330
19
102
}
100
AcDbDictionary
280
     0
281
     1
  3
Standard
350
1C
  0
MLINESTYLE
  5
1C
102
{ACAD_REACTORS
330
1B
102
}
100
AcDbMlineStyle
  2
Standard
 70
     0
  3

 62
     0
 51
90.0
 52
90.0
 71
     2
 49
0.5
 62
   256
  6
BYLAYER
 49
-0.5
 62
   256
  6
BYLAYER
  0
ACDBDICTIONARYWDFLT
  5
1F
102
{ACAD_REACTORS
330
19
102
}
100
AcDbDictionary
281
     1
  3
Normal
350
1D
100
AcDbDictionaryWithDefault
340
1D
  0
ACDBPLACEHOLDER
  5
1D
102
{ACAD_REACTORS
330
1F
102
}
  0
LAYOUT
  5
20
102
{ACAD_REACTORS
330
1E
102
}
100
AcDbPlotSettings
  1

  2

  4

  6

 40
0.0
 41
0.0
 42
0.0
 43
0.0
 44
0.0
 45
0.0
 46
0.0
 47
0.0
 48
0.0
 49
0.0
140
0.0
141
0.0
142
1.0
143
1.0
 70
     0
 72
     0
 73
     0
 74
     0
  7

 75
     0
147
1.0
148
0.0
149
0.0
100
AcDbLayout
  1
Model
 70
     0
 71
     0
 10
0.0
 20
0.0
 11
0.0
 21
0.0
 12
0.0
 22
0.0
 32
0.0
 14
0.0
 24
0.0
 34
0.0
 15
0.0
 25
0.0
 35
0.0
146
0.0
 13
0.0
 23
0.0
 33
0.0
 16
0.0
 26
0.0
 36
0.0
 17
0.0
 27
0.0
 37
0.0
 76
     0
330
A
331
0
345
0
346
0
  0
LAYOUT
  5
21
102
{ACAD_REACTORS
330
1E
102
}
100
AcDbPlotSettings
  1

  2

  4

  6

 40
0.0
 41
0.0
 42
0.0
 43
0.0
 44
0.0
 45
0.0
 46
0.0
 47
0.0
 48
0.0
 49
0.0
140
0.0
141
0.0
142
1.0
143
1.0
 70
     0
 72
     0
 73
     0
 74
     0
  7

 75
     0
147
1.0
148
0.0
149
0.0
100
AcDbLayout
  1
Layout1
 70
     0
 71
     0
 10
0.0
 20
0.0
 11
0.0
 21
0.0
 12
0.0
 22
0.0
 32
0.0
 14
0.0
 24
0.0
 34
0.0
 15
0.0
 25
0.0
 35
0.0
146
0.0
 13
0.0
 23
0.0
 33
0.0
 16
0.0
 26
0.0
 36
0.0
 17
0.0
 27
0.0
 37
0.0
 76
     0
330
B
331
0
345
0
346
0
  0
DICTIONARY
  5
1E
102
{ACAD_REACTORS
330
19
102
}
100
AcDbDictionary
280
     0
281
     1
  3
Layout1
350
21
  3
Model
350
20
  0
DICTIONARY
  5
22
102
{ACAD_REACTORS
330
19
102
}
100
AcDbDictionary
280
     0
281
     1
  0
WIPEOUTVARIABLES
  5
23
100
AcDbWipeoutVariables
 70
     1
  0
ENDSEC
  0
EOF
