  0
SECTION
  2
HEADER
  9
$ACADVER
  1
AC1015
  9
$ACADMAINTVER
 70
     6
  9
$DWGCODEPAGE
  3
DOS850
  9
$INSBASE
 10
0.0
 20
0.0
 30
0.0
  9
$EXTMIN
 10
0.0
 20
0.0
 30
0.0
  9
$EXTMAX
 10
595.0
 20
420.0
 30
0.0
  9
$LIMMIN
 10
0.0
 20
0.0
  9
$LIMMAX
 10
595.0
 20
420.0
  9
$ORTHOMODE
 70
     0
  9
$REGENMODE
 70
     1
  9
$FILLMODE
 70
     1
  9
$QTEXTMODE
 70
     0
  9
$MIRRTEXT
 70
     1
  9
$LTSCALE
 40
25.4
  9
$ATTMODE
 70
     1
  9
$TEXTSIZE
 40
3.5
  9
$TRACEWID
 40
0.05
  9
$TEXTSTYLE
  7
Standard
  9
$CLAYER
  8
0
  9
$CELTYPE
  6
Continuous
  9
$CECOLOR
 62
   256
  9
$CELTSCALE
 40
1.0
  9
$DISPSILH
 70
     0
  9
$DIMSCALE
 40
1.0
  9
$DIMASZ
 40
5.0
  9
$DIMEXO
 40
3.0
  9
$DIMDLI
 40
0.38
  9
$DIMRND
 40
0.0
  9
$DIMDLE
 40
0.0
  9
$DIMEXE
 40
2.0
  9
$DIMTP
 40
0.0
  9
$DIMTM
 40
0.0
  9
$DIMTXT
 40
3.5
  9
$DIMCEN
 40
4.0
  9
$DIMTSZ
 40
0.0
  9
$DIMTOL
 70
     0
  9
$DIMLIM
 70
     0
  9
$DIMTIH
 70
     1
  9
$DIMTOH
 70
     1
  9
$DIMSE1
 70
     0
  9
$DIMSE2
 70
     0
  9
$DIMTAD
 70
     0
  9
$DIMZIN
 70
     0
  9
$DIMBLK
  1

  9
$DIMASO
 70
     1
  9
$DIMSHO
 70
     1
  9
$DIMPOST
  1

  9
$DIMAPOST
  1

  9
$DIMALT
 70
     0
  9
$DIMALTD
 70
     2
  9
$DIMALTF
 40
25.4
  9
$DIMLFAC
 40
1.0
  9
$DIMTOFL
 70
     0
  9
$DIMTVP
 40
0.0
  9
$DIMTIX
 70
     0
  9
$DIMSOXD
 70
     0
  9
$DIMSAH
 70
     0
  9
$DIMBLK1
  1

  9
$DIMBLK2
  1

  9
$DIMSTYLE
  2
Standard
  9
$DIMCLRD
 70
     0
  9
$DIMCLRE
 70
     0
  9
$DIMCLRT
 70
     0
  9
$DIMTFAC
 40
1.0
  9
$DIMGAP
 40
1.0
  9
$DIMJUST
 70
     0
  9
$DIMSD1
 70
     0
  9
$DIMSD2
 70
     0
  9
$DIMTOLJ
 70
     1
  9
$DIMTZIN
 70
     0
  9
$DIMALTZ
 70
     0
  9
$DIMALTTZ
 70
     0
  9
$DIMUPT
 70
     0
  9
$DIMDEC
 70
     4
  9
$DIMTDEC
 70
     4
  9
$DIMALTU
 70
     2
  9
$DIMALTTD
 70
     2
  9
$DIMTXSTY
  7
Standard
  9
$DIMAUNIT
 70
     0
  9
$DIMADEC
 70
     0
  9
$DIMALTRND
 40
0.0
  9
$DIMAZIN
 70
     0
  9
$DIMDSEP
 70
     0
  9
$DIMATFIT
 70
     3
  9
$DIMFRAC
 70
     0
  9
$DIMLDRBLK
  1

  9
$DIMLUNIT
 70
     2
  9
$DIMLWD
 70
     0
  9
$DIMLWE
 70
     0
  9
$DIMTMOVE
 70
     0
  9
$LUNITS
 70
     2
  9
$LUPREC
 70
     4
  9
$SKETCHINC
 40
0.1
  9
$FILLETRAD
 40
0.0
  9
$AUNITS
 70
     0
  9
$AUPREC
 70
     0
  9
$MENU
  1
acad
  9
$ELEVATION
 40
0.0
  9
$PELEVATION
 40
0.0
  9
$THICKNESS
 40
0.0
  9
$LIMCHECK
 70
     0
  9
$CHAMFERA
 40
0.0
  9
$CHAMFERB
 40
0.0
  9
$CHAMFERC
 40
0.0
  9
$CHAMFERD
 40
0.0
  9
$SKPOLY
 70
     0
  9
$TDCREATE
 40
0.000000000
  9
$TDUCREATE
 40
0.000000000
  9
$TDUPDATE
 40
0.000000000
  9
$TDUUPDATE
 40
0.000000000
  9
$TDINDWG
 40
0.0000000000
  9
$TDUSRTIMER
 40
0.0000000000
  9
$USRTIMER
 70
     1
  9
$ANGBASE
 50
0.0
  9
$ANGDIR
 70
     0
  9
$PDMODE
 70
     0
  9
$PDSIZE
 40
0.0
  9
$PLINEWID
 40
0.0
  9
$SPLFRAME
 70
     0
  9
$SPLINETYPE
 70
     6
  9
$SPLINESEGS
 70
     8
  9
$HANDSEED
  5
7F0
  9
$SURFTAB1
 70
     6
  9
$SURFTAB2
 70
     6
  9
$SURFTYPE
 70
     6
  9
$SURFU
 70
     6
  9
$SURFV
 70
     6
  9
$UCSBASE
  2

  9
$UCSNAME
  2

  9
$UCSORG
 10
0.0
 20
0.0
 30
0.0
  9
$UCSXDIR
 10
1.0
 20
0.0
 30
0.0
  9
$UCSYDIR
 10
0.0
 20
1.0
 30
0.0
  9
$UCSORTHOREF
  2

  9
$UCSORTHOVIEW
 70
     0
  9
$UCSORGTOP
 10
0.0
 20
0.0
 30
0.0
  9
$UCSORGBOTTOM
 10
0.0
 20
0.0
 30
0.0
  9
$UCSORGLEFT
 10
0.0
 20
0.0
 30
0.0
  9
$UCSORGRIGHT
 10
0.0
 20
0.0
 30
0.0
  9
$UCSORGFRONT
 10
0.0
 20
0.0
 30
0.0
  9
$UCSORGBACK
 10
0.0
 20
0.0
 30
0.0
  9
$PUCSBASE
  2

  9
$PUCSNAME
  2

  9
$PUCSORG
 10
0.0
 20
0.0
 30
0.0
  9
$PUCSXDIR
 10
1.0
 20
0.0
 30
0.0
  9
$PUCSYDIR
 10
0.0
 20
1.0
 30
0.0
  9
$PUCSORTHOREF
  2

  9
$PUCSORTHOVIEW
 70
     0
  9
$PUCSORGTOP
 10
0.0
 20
0.0
 30
0.0
  9
$PUCSORGBOTTOM
 10
0.0
 20
0.0
 30
0.0
  9
$PUCSORGLEFT
 10
0.0
 20
0.0
 30
0.0
  9
$PUCSORGRIGHT
 10
0.0
 20
0.0
 30
0.0
  9
$PUCSORGFRONT
 10
0.0
 20
0.0
 30
0.0
  9
$PUCSORGBACK
 10
0.0
 20
0.0
 30
0.0
  9
$USERI1
 70
     0
  9
$USERI2
 70
     0
  9
$USERI3
 70
     0
  9
$USERI4
 70
     0
  9
$USERI5
 70
     0
  9
$USERR1
 40
0.0
  9
$USERR2
 40
0.0
  9
$USERR3
 40
0.0
  9
$USERR4
 40
0.0
  9
$USERR5
 40
0.0
  9
$WORLDVIEW
 70
     1
  9
$SHADEDGE
 70
     3
  9
$SHADEDIF
 70
    70
  9
$TILEMODE
 70
     1
  9
$MAXACTVP
 70
    16
  9
$PINSBASE
 10
0.0
 20
0.0
 30
0.0
  9
$PLIMCHECK
 70
     0
  9
$PEXTMIN
 10
1.000000E+20
 20
1.000000E+20
 30
1.000000E+20
  9
$PEXTMAX
 10
-1.000000E+20
 20
-1.000000E+20
 30
-1.000000E+20
  9
$PLIMMIN
 10
0.0
 20
0.0
  9
$PLIMMAX
 10
595.0
 20
420.0
  9
$UNITMODE
 70
     0
  9
$VISRETAIN
 70
     0
  9
$PLINEGEN
 70
     1
  9
$PSLTSCALE
 70
     0
  9
$TREEDEPTH
 70
  3020
  9
$CMLSTYLE
  2
Standard
  9
$CMLJUST
 70
     0
  9
$CMLSCALE
 40
1.0
  9
$PROXYGRAPHICS
 70
     0
  9
$MEASUREMENT
 70
     0
  9
$CELWEIGHT
370
     0
  9
$ENDCAPS
280
     0
  9
$JOINSTYLE
280
     0
  9
$LWDISPLAY
290
     0
  9
$INSUNITS
 70
     0
  9
$HYPERLINKBASE
  1

  9
$XEDIT
290
     1
  9
$CEPSNTYPE
380
     0
  9
$PSTYLEMODE
290
     0
  9
$FINGERPRINTGUID
  2

  9
$VERSIONGUID
  2

  9
$EXTNAMES
290
     1
  9
$PSVPSCALE
 40
0.0
  0
ENDSEC
  0
SECTION
  2
CLASSES
  0
CLASS
  1
LWPOLYLINE
  2
AcDbPolyline
  3
"AutoCAD"
 90
        0
280
     0
281
     1
  0
CLASS
  1
IMAGE
  2
AcDbRasterImage
  3
ISM
 90
      127
280
     0
281
     1
  0
CLASS
  1
OLE2FRAME
  2
AcDbOle2Frame
  3
""
 90
        0
280
     0
281
     1
  0
CLASS
  1
HATCH
  2
AcDbHatch
  3
"ACAD_SEDONA"
 90
        0
280
     0
281
     1
  0
CLASS
  1
DICTIONARYVAR
  2
AcDbDictionaryVar
  3
"AutoCAD"
 90
        0
280
     0
281
     0
  0
CLASS
  1
RASTERVARIABLES
  2
AcDbRasterVariables
  3
ISM
 90
        0
280
     0
281
     0
  0
CLASS
  1
IMAGEDEF
  2
AcDbRasterImageDef
  3
ISM
 90
        0
280
     0
281
     0
  0
CLASS
  1
IMAGEDEF_REACTOR
  2
AcDbRasterImageDefReactor
  3
ISM
 90
        1
280
     0
281
     0
  0
CLASS
  1
IDBUFFER
  2
AcDbIdBuffer
  3
"Acad"
 90
        0
280
     0
281
     0
  0
CLASS
  1
SPATIAL_FILTER
  2
AcDbSpatialFilter
  3
"Acad"
 90
        0
280
     0
281
     0
  0
CLASS
  1
XRECORD
  2
AcDbXrecord
  3
"<Built In>"
 90
        0
280
     0
281
     0
  0
CLASS
  1
SORTENTSTABLE
  2
AcDbSortentsTable
  3
"AutoCAD"
 90
        0
280
     0
281
     0
  0
CLASS
  1
LAYER_INDEX
  2
AcDbLayerIndex
  3
"Acad"
 90
        0
280
     0
281
     0
  0
CLASS
  1
SPATIAL_INDEX
  2
AcDbSpatialIndex
  3
"Acad"
 90
        0
280
     0
281
     0
  0
CLASS
  1
OBJECT_PTR
  2
CAseDLPNTableRecord
  3
"ASE-LPNTableRecord"
 90
        1
280
     0
281
     0
  0
CLASS
  1
LAYOUT
  2
AcDbLayout
  3
"AutoCAD 2000"
 90
        1
280
     0
281
     0
  0
CLASS
  1
PLOTSETTINGS
  2
AcDbPlotSettings
  3
"AutoCAD 2000"
 90
        1
280
     0
281
     0
  0
CLASS
  1
ACDBDICTIONARYWDFLT
  2
AcDbDictionaryWithDefault
  3
"AutoCAD 2000"
 90
        1
280
     0
281
     0
  0
CLASS
  1
ACDBPLACEHOLDER
  2
AcDbPlaceHolder
  3
"AutoCAD 2000"
 90
        1
280
     0
281
     0
  0
CLASS
  1
VBA_PROJECT
  2
AcDbVbaProject
  3
"acadvba"
 90
        1
280
     0
281
     0
  0
CLASS
  1
WIPEOUT
  2
AcDbWipeout
  3
WipeOut|AutoCAD Express Tool|expresstools@autodesk.com
 90
      127
280
     0
281
     1
  0
CLASS
  1
WIPEOUTVARIABLES
  2
AcDbWipeoutVariables
  3
WipeOut|AutoCAD Express Tool|expresstools@autodesk.com
 90
        0
280
     0
281
     0
  0
CLASS
  1
RTEXT
  2
RText
  3
RText|AutoCAD Express Tool|expresstools@autodesk.com
 90
        0
280
     0
281
     1
  0
CLASS
  1
ARCALIGNEDTEXT
  2
AcDbArcAlignedText
  3
ATEXT|AutoCAD Express Tool|expresstools@autodesk.com
 90
        0
280
     0
281
     1
  0
ENDSEC
  0
SECTION
  2
TABLES
  0
TABLE
  2
VPORT
  5
7
100
AcDbSymbolTable
 70
     1
  0
VPORT
  5
15
100
AcDbSymbolTableRecord
100
AcDbViewportTableRecord
  2
*ACTIVE
 70
     0
 10
0.0
 20
0.0
 11
1.0
 21
1.0
 12
6.591288
 22
4.579184
 13
0.0
 23
0.0
 14
1.0
 24
1.0
 15
0.0
 25
0.0
 16
0.0
 26
0.0
 36
1.0
 17
0.0
 27
0.0
 37
0.0
 40
9.158369
 41
0.688564
 42
50.0
 43
0.0
 44
0.0
 50
0.0
 51
0.0
 71
     0
 72
   100
 73
     1
 74
     1
 75
     0
 76
     0
 77
     0
 78
     0
281
     0
 65
     0
110
0.0
120
0.0
130
0.0
111
1.0
121
0.0
131
0.0
112
0.0
122
1.0
132
0.0
345
0
346
0
 79
     0
146
0.0
  0
ENDTAB
  0
TABLE
  2
LTYPE
  5
4
100
AcDbSymbolTable
 70
     7
  0
LTYPE
  5
11
100
AcDbSymbolTableRecord
100
AcDbLinetypeTableRecord
  2
ByBlock
 70
    64
  3

 72
    65
 73
     0
 40
0.0
  0
LTYPE
  5
12
100
AcDbSymbolTableRecord
100
AcDbLinetypeTableRecord
  2
ByLayer
 70
    64
  3

 72
    65
 73
     0
 40
0.0
  0
LTYPE
  5
13
100
AcDbSymbolTableRecord
100
AcDbLinetypeTableRecord
  2
Continuous
 70
    64
  3
Solid line
 72
    65
 73
     0
 40
0.0
  0
LTYPE
  5
24
100
AcDbSymbolTableRecord
100
AcDbLinetypeTableRecord
  2
HIDDEN
 70
    64
  3
_ _ _ _ _ _ _ _ _ _ _ _ _ _ _ _ _ _ _ _ _ _ _ _
 72
    65
 73
     2
 40
0.1875
 49
0.125
 74
     0
 49
-0.0625
 74
     0
  0
LTYPE
  5
25
100
AcDbSymbolTableRecord
100
AcDbLinetypeTableRecord
  2
DOTTED
 70
    64
  3
...............................................
 72
    65
 73
     2
 40
0.125
 49
0.0
 74
     0
 49
-0.125
 74
     0
  0
LTYPE
  5
26
100
AcDbSymbolTableRecord
100
AcDbLinetypeTableRecord
  2
CENTER
 70
    64
  3
____ _ ____ _ ____ _ ____ _ ____ _ ____ _ ____ 
 72
    65
 73
     4
 40
1.125
 49
0.75
 74
     0
 49
-0.125
 74
     0
 49
0.125
 74
     0
 49
-0.125
 74
     0
  0
LTYPE
  5
27
100
AcDbSymbolTableRecord
100
AcDbLinetypeTableRecord
  2
PHANTOM
 70
    64
  3
______  __  __  ______  __  __  ______  __  __ 
 72
    65
 73
     6
 40
1.25
 49
0.625
 74
     0
 49
-0.125
 74
     0
 49
0.125
 74
     0
 49
-0.125
 74
     0
 49
0.125
 74
     0
 49
-0.125
 74
     0
  0
ENDTAB
  0
TABLE
  2
LAYER
  5
2
100
AcDbSymbolTable
 70
     2
  0
LAYER
  5
14
100
AcDbSymbolTableRecord
100
AcDbLayerTableRecord
  2
0
 70
     0
 62
     7
  6
Continuous
290
     1
370
    -3
390
1D
  0
LAYER
  5
28
100
AcDbSymbolTableRecord
100
AcDbLayerTableRecord
  2
TEXT
 70
     0
 62
     8
  6
Continuous
290
     1
370
    -3
390
1F
  0
ENDTAB
  0
TABLE
  2
STYLE
  5
3
100
AcDbSymbolTable
 70
     1
  0
STYLE
  5
17
100
AcDbSymbolTableRecord
100
AcDbTextStyleTableRecord
  2
Standard
 70
     0
 40
0.0
 41
1.0
 50
0.0
 71
     0
 42
0.0
  3
txt
  4

  0
ENDTAB
  0
TABLE
  2
VIEW
  5
5
100
AcDbSymbolTable
 70
     0
  0
ENDTAB
  0
TABLE
  2
UCS
  5
6
100
AcDbSymbolTable
 70
     0
  0
ENDTAB
  0
TABLE
  2
APPID
  5
8
100
AcDbSymbolTable
 70
     1
  0
APPID
  5
16
100
AcDbSymbolTableRecord
100
AcDbRegAppTableRecord
  2
ACAD
 70
     0
  0
ENDTAB
  0
TABLE
  2
DIMSTYLE
  5
9
100
AcDbSymbolTable
 70
     1
100
AcDbDimStyleTable
 71
     0
  0
DIMSTYLE
105
18
100
AcDbSymbolTableRecord
100
AcDbDimStyleTableRecord
  2
Standard
 70
     0
  3

  4

 40
1.0
 41
0.18
 42
0.0625
 43
0.38
 44
0.18
 45
0.0
 46
0.0
 47
0.0
 48
0.0
 71
     0
 72
     0
 73
     1
 74
     1
 75
     0
 76
     0
 77
     0
 78
     0
 79
     0
140
0.18
141
0.09
142
0.0
143
25.4
144
1.0
145
0.0
146
1.0
147
0.09
148
0.0
170
     0
171
     2
172
     0
173
     0
174
     0
175
     0
176
     0
177
     0
178
     0
179
     0
271
     4
272
     4
273
     2
274
     2
275
     0
276
     0
277
     2
278
    46
279
     0
280
     0
281
     0
282
     0
283
     1
284
     0
285
     0
286
     0
288
     0
340
17
341
0
342
0
343
0
344
0
371
    -2
372
    -2
  0
ENDTAB
  0
TABLE
  2
BLOCK_RECORD
  5
1
100
AcDbSymbolTable
 70
   212
  0
BLOCK_RECORD
  5
A
100
AcDbSymbolTableRecord
100
AcDbBlockTableRecord
  2
*MODEL_SPACE
340
20
  0
BLOCK_RECORD
  5
B
100
AcDbSymbolTableRecord
100
AcDbBlockTableRecord
  2
*PAPER_SPACE
340
21
  0
BLOCK_RECORD
  5
29
100
AcDbSymbolTableRecord
100
AcDbBlockTableRecord
  2
*B0
340
0
  0
BLOCK_RECORD
  5
2C
100
AcDbSymbolTableRecord
100
AcDbBlockTableRecord
  2
*B1
340
0
  0
BLOCK_RECORD
  5
C8
100
AcDbSymbolTableRecord
100
AcDbBlockTableRecord
  2
*B2
340
0
  0
BLOCK_RECORD
  5
15E
100
AcDbSymbolTableRecord
100
AcDbBlockTableRecord
  2
*B3
340
0
  0
BLOCK_RECORD
  5
1AD
100
AcDbSymbolTableRecord
100
AcDbBlockTableRecord
  2
*B4
340
0
  0
BLOCK_RECORD
  5
1B4
100
AcDbSymbolTableRecord
100
AcDbBlockTableRecord
  2
*B5
340
0
  0
BLOCK_RECORD
  5
1BB
100
AcDbSymbolTableRecord
100
AcDbBlockTableRecord
  2
*B6
340
0
  0
BLOCK_RECORD
  5
1C2
100
AcDbSymbolTableRecord
100
AcDbBlockTableRecord
  2
*B7
340
0
  0
BLOCK_RECORD
  5
1C9
100
AcDbSymbolTableRecord
100
AcDbBlockTableRecord
  2
*B8
340
0
  0
BLOCK_RECORD
  5
1D0
100
AcDbSymbolTableRecord
100
AcDbBlockTableRecord
  2
*B9
340
0
  0
BLOCK_RECORD
  5
1D7
100
AcDbSymbolTableRecord
100
AcDbBlockTableRecord
  2
*B10
340
0
  0
BLOCK_RECORD
  5
1DE
100
AcDbSymbolTableRecord
100
AcDbBlockTableRecord
  2
*B11
340
0
  0
BLOCK_RECORD
  5
1E5
100
AcDbSymbolTableRecord
100
AcDbBlockTableRecord
  2
*B12
340
0
  0
BLOCK_RECORD
  5
1EC
100
AcDbSymbolTableRecord
100
AcDbBlockTableRecord
  2
*B13
340
0
  0
BLOCK_RECORD
  5
1F3
100
AcDbSymbolTableRecord
100
AcDbBlockTableRecord
  2
*B14
340
0
  0
BLOCK_RECORD
  5
1FA
100
AcDbSymbolTableRecord
100
AcDbBlockTableRecord
  2
*B15
340
0
  0
BLOCK_RECORD
  5
201
100
AcDbSymbolTableRecord
100
AcDbBlockTableRecord
  2
*B16
340
0
  0
BLOCK_RECORD
  5
208
100
AcDbSymbolTableRecord
100
AcDbBlockTableRecord
  2
*B17
340
0
  0
BLOCK_RECORD
  5
20F
100
AcDbSymbolTableRecord
100
AcDbBlockTableRecord
  2
*B18
340
0
  0
BLOCK_RECORD
  5
216
100
AcDbSymbolTableRecord
100
AcDbBlockTableRecord
  2
*B19
340
0
  0
BLOCK_RECORD
  5
21D
100
AcDbSymbolTableRecord
100
AcDbBlockTableRecord
  2
*B20
340
0
  0
BLOCK_RECORD
  5
224
100
AcDbSymbolTableRecord
100
AcDbBlockTableRecord
  2
*B21
340
0
  0
BLOCK_RECORD
  5
22B
100
AcDbSymbolTableRecord
100
AcDbBlockTableRecord
  2
*B22
340
0
  0
BLOCK_RECORD
  5
232
100
AcDbSymbolTableRecord
100
AcDbBlockTableRecord
  2
*B23
340
0
  0
BLOCK_RECORD
  5
239
100
AcDbSymbolTableRecord
100
AcDbBlockTableRecord
  2
*B24
340
0
  0
BLOCK_RECORD
  5
240
100
AcDbSymbolTableRecord
100
AcDbBlockTableRecord
  2
*B25
340
0
  0
BLOCK_RECORD
  5
247
100
AcDbSymbolTableRecord
100
AcDbBlockTableRecord
  2
*B26
340
0
  0
BLOCK_RECORD
  5
24E
100
AcDbSymbolTableRecord
100
AcDbBlockTableRecord
  2
*B27
340
0
  0
BLOCK_RECORD
  5
255
100
AcDbSymbolTableRecord
100
AcDbBlockTableRecord
  2
*B28
340
0
  0
BLOCK_RECORD
  5
25C
100
AcDbSymbolTableRecord
100
AcDbBlockTableRecord
  2
*B29
340
0
  0
BLOCK_RECORD
  5
263
100
AcDbSymbolTableRecord
100
AcDbBlockTableRecord
  2
*B30
340
0
  0
BLOCK_RECORD
  5
26A
100
AcDbSymbolTableRecord
100
AcDbBlockTableRecord
  2
*B31
340
0
  0
BLOCK_RECORD
  5
271
100
AcDbSymbolTableRecord
100
AcDbBlockTableRecord
  2
*B32
340
0
  0
BLOCK_RECORD
  5
278
100
AcDbSymbolTableRecord
100
AcDbBlockTableRecord
  2
*B33
340
0
  0
BLOCK_RECORD
  5
27F
100
AcDbSymbolTableRecord
100
AcDbBlockTableRecord
  2
*B34
340
0
  0
BLOCK_RECORD
  5
284
100
AcDbSymbolTableRecord
100
AcDbBlockTableRecord
  2
*B35
340
0
  0
BLOCK_RECORD
  5
28A
100
AcDbSymbolTableRecord
100
AcDbBlockTableRecord
  2
*B36
340
0
  0
BLOCK_RECORD
  5
290
100
AcDbSymbolTableRecord
100
AcDbBlockTableRecord
  2
*B37
340
0
  0
BLOCK_RECORD
  5
296
100
AcDbSymbolTableRecord
100
AcDbBlockTableRecord
  2
*B38
340
0
  0
BLOCK_RECORD
  5
29C
100
AcDbSymbolTableRecord
100
AcDbBlockTableRecord
  2
*B39
340
0
  0
BLOCK_RECORD
  5
2AB
100
AcDbSymbolTableRecord
100
AcDbBlockTableRecord
  2
*B40
340
0
  0
BLOCK_RECORD
  5
2B1
100
AcDbSymbolTableRecord
100
AcDbBlockTableRecord
  2
*B41
340
0
  0
BLOCK_RECORD
  5
2BE
100
AcDbSymbolTableRecord
100
AcDbBlockTableRecord
  2
*B42
340
0
  0
BLOCK_RECORD
  5
2CD
100
AcDbSymbolTableRecord
100
AcDbBlockTableRecord
  2
*B43
340
0
  0
BLOCK_RECORD
  5
2D3
100
AcDbSymbolTableRecord
100
AcDbBlockTableRecord
  2
*B44
340
0
  0
BLOCK_RECORD
  5
2D8
100
AcDbSymbolTableRecord
100
AcDbBlockTableRecord
  2
*B45
340
0
  0
BLOCK_RECORD
  5
2E1
100
AcDbSymbolTableRecord
100
AcDbBlockTableRecord
  2
*B46
340
0
  0
BLOCK_RECORD
  5
2E7
100
AcDbSymbolTableRecord
100
AcDbBlockTableRecord
  2
*B47
340
0
  0
BLOCK_RECORD
  5
2ED
100
AcDbSymbolTableRecord
100
AcDbBlockTableRecord
  2
*B48
340
0
  0
BLOCK_RECORD
  5
2F3
100
AcDbSymbolTableRecord
100
AcDbBlockTableRecord
  2
*B49
340
0
  0
BLOCK_RECORD
  5
2F8
100
AcDbSymbolTableRecord
100
AcDbBlockTableRecord
  2
*B50
340
0
  0
BLOCK_RECORD
  5
305
100
AcDbSymbolTableRecord
100
AcDbBlockTableRecord
  2
*B51
340
0
  0
BLOCK_RECORD
  5
30B
100
AcDbSymbolTableRecord
100
AcDbBlockTableRecord
  2
*B52
340
0
  0
BLOCK_RECORD
  5
310
100
AcDbSymbolTableRecord
100
AcDbBlockTableRecord
  2
*B53
340
0
  0
BLOCK_RECORD
  5
315
100
AcDbSymbolTableRecord
100
AcDbBlockTableRecord
  2
*B54
340
0
  0
BLOCK_RECORD
  5
322
100
AcDbSymbolTableRecord
100
AcDbBlockTableRecord
  2
*B55
340
0
  0
BLOCK_RECORD
  5
328
100
AcDbSymbolTableRecord
100
AcDbBlockTableRecord
  2
*B56
340
0
  0
BLOCK_RECORD
  5
32E
100
AcDbSymbolTableRecord
100
AcDbBlockTableRecord
  2
*B57
340
0
  0
BLOCK_RECORD
  5
351
100
AcDbSymbolTableRecord
100
AcDbBlockTableRecord
  2
*B58
340
0
  0
BLOCK_RECORD
  5
356
100
AcDbSymbolTableRecord
100
AcDbBlockTableRecord
  2
*B59
340
0
  0
BLOCK_RECORD
  5
35C
100
AcDbSymbolTableRecord
100
AcDbBlockTableRecord
  2
*B60
340
0
  0
BLOCK_RECORD
  5
369
100
AcDbSymbolTableRecord
100
AcDbBlockTableRecord
  2
*B61
340
0
  0
BLOCK_RECORD
  5
36F
100
AcDbSymbolTableRecord
100
AcDbBlockTableRecord
  2
*B62
340
0
  0
BLOCK_RECORD
  5
374
100
AcDbSymbolTableRecord
100
AcDbBlockTableRecord
  2
*B63
340
0
  0
BLOCK_RECORD
  5
37A
100
AcDbSymbolTableRecord
100
AcDbBlockTableRecord
  2
*B64
340
0
  0
BLOCK_RECORD
  5
394
100
AcDbSymbolTableRecord
100
AcDbBlockTableRecord
  2
*B65
340
0
  0
BLOCK_RECORD
  5
39F
100
AcDbSymbolTableRecord
100
AcDbBlockTableRecord
  2
*B66
340
0
  0
BLOCK_RECORD
  5
3AC
100
AcDbSymbolTableRecord
100
AcDbBlockTableRecord
  2
*B67
340
0
  0
BLOCK_RECORD
  5
3B1
100
AcDbSymbolTableRecord
100
AcDbBlockTableRecord
  2
*B68
340
0
  0
BLOCK_RECORD
  5
3B7
100
AcDbSymbolTableRecord
100
AcDbBlockTableRecord
  2
*B69
340
0
  0
BLOCK_RECORD
  5
3C4
100
AcDbSymbolTableRecord
100
AcDbBlockTableRecord
  2
*B70
340
0
  0
BLOCK_RECORD
  5
3CA
100
AcDbSymbolTableRecord
100
AcDbBlockTableRecord
  2
*B71
340
0
  0
BLOCK_RECORD
  5
3CF
100
AcDbSymbolTableRecord
100
AcDbBlockTableRecord
  2
*B72
340
0
  0
BLOCK_RECORD
  5
3D4
100
AcDbSymbolTableRecord
100
AcDbBlockTableRecord
  2
*B73
340
0
  0
BLOCK_RECORD
  5
3D9
100
AcDbSymbolTableRecord
100
AcDbBlockTableRecord
  2
*B74
340
0
  0
BLOCK_RECORD
  5
3DF
100
AcDbSymbolTableRecord
100
AcDbBlockTableRecord
  2
*B75
340
0
  0
BLOCK_RECORD
  5
3E5
100
AcDbSymbolTableRecord
100
AcDbBlockTableRecord
  2
*B76
340
0
  0
BLOCK_RECORD
  5
3EB
100
AcDbSymbolTableRecord
100
AcDbBlockTableRecord
  2
*B77
340
0
  0
BLOCK_RECORD
  5
3F0
100
AcDbSymbolTableRecord
100
AcDbBlockTableRecord
  2
*B78
340
0
  0
BLOCK_RECORD
  5
413
100
AcDbSymbolTableRecord
100
AcDbBlockTableRecord
  2
*B79
340
0
  0
BLOCK_RECORD
  5
41E
100
AcDbSymbolTableRecord
100
AcDbBlockTableRecord
  2
*B80
340
0
  0
BLOCK_RECORD
  5
424
100
AcDbSymbolTableRecord
100
AcDbBlockTableRecord
  2
*B81
340
0
  0
BLOCK_RECORD
  5
431
100
AcDbSymbolTableRecord
100
AcDbBlockTableRecord
  2
*B82
340
0
  0
BLOCK_RECORD
  5
43C
100
AcDbSymbolTableRecord
100
AcDbBlockTableRecord
  2
*B83
340
0
  0
BLOCK_RECORD
  5
466
100
AcDbSymbolTableRecord
100
AcDbBlockTableRecord
  2
*B84
340
0
  0
BLOCK_RECORD
  5
480
100
AcDbSymbolTableRecord
100
AcDbBlockTableRecord
  2
*B85
340
0
  0
BLOCK_RECORD
  5
485
100
AcDbSymbolTableRecord
100
AcDbBlockTableRecord
  2
*B86
340
0
  0
BLOCK_RECORD
  5
492
100
AcDbSymbolTableRecord
100
AcDbBlockTableRecord
  2
*B87
340
0
  0
BLOCK_RECORD
  5
498
100
AcDbSymbolTableRecord
100
AcDbBlockTableRecord
  2
*B88
340
0
  0
BLOCK_RECORD
  5
4B9
100
AcDbSymbolTableRecord
100
AcDbBlockTableRecord
  2
*B89
340
0
  0
BLOCK_RECORD
  5
4C6
100
AcDbSymbolTableRecord
100
AcDbBlockTableRecord
  2
*B90
340
0
  0
BLOCK_RECORD
  5
4D3
100
AcDbSymbolTableRecord
100
AcDbBlockTableRecord
  2
*B91
340
0
  0
BLOCK_RECORD
  5
4E0
100
AcDbSymbolTableRecord
100
AcDbBlockTableRecord
  2
*B92
340
0
  0
BLOCK_RECORD
  5
4E6
100
AcDbSymbolTableRecord
100
AcDbBlockTableRecord
  2
*B93
340
0
  0
BLOCK_RECORD
  5
4EC
100
AcDbSymbolTableRecord
100
AcDbBlockTableRecord
  2
*B94
340
0
  0
BLOCK_RECORD
  5
4F2
100
AcDbSymbolTableRecord
100
AcDbBlockTableRecord
  2
*B95
340
0
  0
BLOCK_RECORD
  5
4F8
100
AcDbSymbolTableRecord
100
AcDbBlockTableRecord
  2
*B96
340
0
  0
BLOCK_RECORD
  5
4FE
100
AcDbSymbolTableRecord
100
AcDbBlockTableRecord
  2
*B97
340
0
  0
BLOCK_RECORD
  5
50B
100
AcDbSymbolTableRecord
100
AcDbBlockTableRecord
  2
*B98
340
0
  0
BLOCK_RECORD
  5
514
100
AcDbSymbolTableRecord
100
AcDbBlockTableRecord
  2
*B99
340
0
  0
BLOCK_RECORD
  5
51A
100
AcDbSymbolTableRecord
100
AcDbBlockTableRecord
  2
*B100
340
0
  0
BLOCK_RECORD
  5
520
100
AcDbSymbolTableRecord
100
AcDbBlockTableRecord
  2
*B101
340
0
  0
BLOCK_RECORD
  5
526
100
AcDbSymbolTableRecord
100
AcDbBlockTableRecord
  2
*B102
340
0
  0
BLOCK_RECORD
  5
52C
100
AcDbSymbolTableRecord
100
AcDbBlockTableRecord
  2
*B103
340
0
  0
BLOCK_RECORD
  5
539
100
AcDbSymbolTableRecord
100
AcDbBlockTableRecord
  2
*B104
340
0
  0
BLOCK_RECORD
  5
558
100
AcDbSymbolTableRecord
100
AcDbBlockTableRecord
  2
*B105
340
0
  0
BLOCK_RECORD
  5
563
100
AcDbSymbolTableRecord
100
AcDbBlockTableRecord
  2
*B106
340
0
  0
BLOCK_RECORD
  5
56C
100
AcDbSymbolTableRecord
100
AcDbBlockTableRecord
  2
*B107
340
0
  0
BLOCK_RECORD
  5
572
100
AcDbSymbolTableRecord
100
AcDbBlockTableRecord
  2
*B108
340
0
  0
BLOCK_RECORD
  5
589
100
AcDbSymbolTableRecord
100
AcDbBlockTableRecord
  2
*B109
340
0
  0
BLOCK_RECORD
  5
58F
100
AcDbSymbolTableRecord
100
AcDbBlockTableRecord
  2
*B110
340
0
  0
BLOCK_RECORD
  5
595
100
AcDbSymbolTableRecord
100
AcDbBlockTableRecord
  2
*B111
340
0
  0
BLOCK_RECORD
  5
5A0
100
AcDbSymbolTableRecord
100
AcDbBlockTableRecord
  2
*B112
340
0
  0
BLOCK_RECORD
  5
5A5
100
AcDbSymbolTableRecord
100
AcDbBlockTableRecord
  2
*B113
340
0
  0
BLOCK_RECORD
  5
5AA
100
AcDbSymbolTableRecord
100
AcDbBlockTableRecord
  2
*B114
340
0
  0
BLOCK_RECORD
  5
5B5
100
AcDbSymbolTableRecord
100
AcDbBlockTableRecord
  2
*B115
340
0
  0
BLOCK_RECORD
  5
5BB
100
AcDbSymbolTableRecord
100
AcDbBlockTableRecord
  2
*B116
340
0
  0
BLOCK_RECORD
  5
5C1
100
AcDbSymbolTableRecord
100
AcDbBlockTableRecord
  2
*B117
340
0
  0
BLOCK_RECORD
  5
5C6
100
AcDbSymbolTableRecord
100
AcDbBlockTableRecord
  2
*B118
340
0
  0
BLOCK_RECORD
  5
5CB
100
AcDbSymbolTableRecord
100
AcDbBlockTableRecord
  2
*B119
340
0
  0
BLOCK_RECORD
  5
5F3
100
AcDbSymbolTableRecord
100
AcDbBlockTableRecord
  2
*B120
340
0
  0
BLOCK_RECORD
  5
5F9
100
AcDbSymbolTableRecord
100
AcDbBlockTableRecord
  2
*B121
340
0
  0
BLOCK_RECORD
  5
5FF
100
AcDbSymbolTableRecord
100
AcDbBlockTableRecord
  2
*B122
340
0
  0
BLOCK_RECORD
  5
605
100
AcDbSymbolTableRecord
100
AcDbBlockTableRecord
  2
*B123
340
0
  0
BLOCK_RECORD
  5
60B
100
AcDbSymbolTableRecord
100
AcDbBlockTableRecord
  2
*B124
340
0
  0
BLOCK_RECORD
  5
611
100
AcDbSymbolTableRecord
100
AcDbBlockTableRecord
  2
*B125
340
0
  0
BLOCK_RECORD
  5
617
100
AcDbSymbolTableRecord
100
AcDbBlockTableRecord
  2
*B126
340
0
  0
BLOCK_RECORD
  5
61D
100
AcDbSymbolTableRecord
100
AcDbBlockTableRecord
  2
*B127
340
0
  0
BLOCK_RECORD
  5
623
100
AcDbSymbolTableRecord
100
AcDbBlockTableRecord
  2
*B128
340
0
  0
BLOCK_RECORD
  5
629
100
AcDbSymbolTableRecord
100
AcDbBlockTableRecord
  2
*B129
340
0
  0
BLOCK_RECORD
  5
62F
100
AcDbSymbolTableRecord
100
AcDbBlockTableRecord
  2
*B130
340
0
  0
BLOCK_RECORD
  5
635
100
AcDbSymbolTableRecord
100
AcDbBlockTableRecord
  2
*B131
340
0
  0
BLOCK_RECORD
  5
63B
100
AcDbSymbolTableRecord
100
AcDbBlockTableRecord
  2
*B132
340
0
  0
BLOCK_RECORD
  5
641
100
AcDbSymbolTableRecord
100
AcDbBlockTableRecord
  2
*B133
340
0
  0
BLOCK_RECORD
  5
647
100
AcDbSymbolTableRecord
100
AcDbBlockTableRecord
  2
*B134
340
0
  0
BLOCK_RECORD
  5
64D
100
AcDbSymbolTableRecord
100
AcDbBlockTableRecord
  2
*B135
340
0
  0
BLOCK_RECORD
  5
653
100
AcDbSymbolTableRecord
100
AcDbBlockTableRecord
  2
*B136
340
0
  0
BLOCK_RECORD
  5
659
100
AcDbSymbolTableRecord
100
AcDbBlockTableRecord
  2
*B137
340
0
  0
BLOCK_RECORD
  5
65F
100
AcDbSymbolTableRecord
100
AcDbBlockTableRecord
  2
*B138
340
0
  0
BLOCK_RECORD
  5
665
100
AcDbSymbolTableRecord
100
AcDbBlockTableRecord
  2
*B139
340
0
  0
BLOCK_RECORD
  5
66B
100
AcDbSymbolTableRecord
100
AcDbBlockTableRecord
  2
*B140
340
0
  0
BLOCK_RECORD
  5
671
100
AcDbSymbolTableRecord
100
AcDbBlockTableRecord
  2
*B141
340
0
  0
BLOCK_RECORD
  5
677
100
AcDbSymbolTableRecord
100
AcDbBlockTableRecord
  2
*B142
340
0
  0
BLOCK_RECORD
  5
67D
100
AcDbSymbolTableRecord
100
AcDbBlockTableRecord
  2
*B143
340
0
  0
BLOCK_RECORD
  5
683
100
AcDbSymbolTableRecord
100
AcDbBlockTableRecord
  2
*B144
340
0
  0
BLOCK_RECORD
  5
689
100
AcDbSymbolTableRecord
100
AcDbBlockTableRecord
  2
*B145
340
0
  0
BLOCK_RECORD
  5
68F
100
AcDbSymbolTableRecord
100
AcDbBlockTableRecord
  2
*B146
340
0
  0
BLOCK_RECORD
  5
695
100
AcDbSymbolTableRecord
100
AcDbBlockTableRecord
  2
*B147
340
0
  0
BLOCK_RECORD
  5
69B
100
AcDbSymbolTableRecord
100
AcDbBlockTableRecord
  2
*B148
340
0
  0
BLOCK_RECORD
  5
6A1
100
AcDbSymbolTableRecord
100
AcDbBlockTableRecord
  2
*B149
340
0
  0
BLOCK_RECORD
  5
6A7
100
AcDbSymbolTableRecord
100
AcDbBlockTableRecord
  2
*B150
340
0
  0
BLOCK_RECORD
  5
6AD
100
AcDbSymbolTableRecord
100
AcDbBlockTableRecord
  2
*B151
340
0
  0
BLOCK_RECORD
  5
6B3
100
AcDbSymbolTableRecord
100
AcDbBlockTableRecord
  2
*B152
340
0
  0
BLOCK_RECORD
  5
6B9
100
AcDbSymbolTableRecord
100
AcDbBlockTableRecord
  2
*B153
340
0
  0
BLOCK_RECORD
  5
6BF
100
AcDbSymbolTableRecord
100
AcDbBlockTableRecord
  2
*B154
340
0
  0
BLOCK_RECORD
  5
6C5
100
AcDbSymbolTableRecord
100
AcDbBlockTableRecord
  2
*B155
340
0
  0
BLOCK_RECORD
  5
6CB
100
AcDbSymbolTableRecord
100
AcDbBlockTableRecord
  2
*B156
340
0
  0
BLOCK_RECORD
  5
6D1
100
AcDbSymbolTableRecord
100
AcDbBlockTableRecord
  2
*B157
340
0
  0
BLOCK_RECORD
  5
6D7
100
AcDbSymbolTableRecord
100
AcDbBlockTableRecord
  2
*B158
340
0
  0
BLOCK_RECORD
  5
6DD
100
AcDbSymbolTableRecord
100
AcDbBlockTableRecord
  2
*B159
340
0
  0
BLOCK_RECORD
  5
6E3
100
AcDbSymbolTableRecord
100
AcDbBlockTableRecord
  2
*B160
340
0
  0
BLOCK_RECORD
  5
6E9
100
AcDbSymbolTableRecord
100
AcDbBlockTableRecord
  2
*B161
340
0
  0
BLOCK_RECORD
  5
6EF
100
AcDbSymbolTableRecord
100
AcDbBlockTableRecord
  2
*B162
340
0
  0
BLOCK_RECORD
  5
6F5
100
AcDbSymbolTableRecord
100
AcDbBlockTableRecord
  2
*B163
340
0
  0
BLOCK_RECORD
  5
6FB
100
AcDbSymbolTableRecord
100
AcDbBlockTableRecord
  2
*B164
340
0
  0
BLOCK_RECORD
  5
701
100
AcDbSymbolTableRecord
100
AcDbBlockTableRecord
  2
*B165
340
0
  0
BLOCK_RECORD
  5
707
100
AcDbSymbolTableRecord
100
AcDbBlockTableRecord
  2
*B166
340
0
  0
BLOCK_RECORD
  5
70D
100
AcDbSymbolTableRecord
100
AcDbBlockTableRecord
  2
*B167
340
0
  0
BLOCK_RECORD
  5
713
100
AcDbSymbolTableRecord
100
AcDbBlockTableRecord
  2
*B168
340
0
  0
BLOCK_RECORD
  5
719
100
AcDbSymbolTableRecord
100
AcDbBlockTableRecord
  2
*B169
340
0
  0
BLOCK_RECORD
  5
71E
100
AcDbSymbolTableRecord
100
AcDbBlockTableRecord
  2
*B170
340
0
  0
BLOCK_RECORD
  5
723
100
AcDbSymbolTableRecord
100
AcDbBlockTableRecord
  2
*B171
340
0
  0
BLOCK_RECORD
  5
728
100
AcDbSymbolTableRecord
100
AcDbBlockTableRecord
  2
*B172
340
0
  0
BLOCK_RECORD
  5
72D
100
AcDbSymbolTableRecord
100
AcDbBlockTableRecord
  2
*B173
340
0
  0
BLOCK_RECORD
  5
732
100
AcDbSymbolTableRecord
100
AcDbBlockTableRecord
  2
*B174
340
0
  0
BLOCK_RECORD
  5
737
100
AcDbSymbolTableRecord
100
AcDbBlockTableRecord
  2
*B175
340
0
  0
BLOCK_RECORD
  5
73C
100
AcDbSymbolTableRecord
100
AcDbBlockTableRecord
  2
*B176
340
0
  0
BLOCK_RECORD
  5
741
100
AcDbSymbolTableRecord
100
AcDbBlockTableRecord
  2
*B177
340
0
  0
BLOCK_RECORD
  5
746
100
AcDbSymbolTableRecord
100
AcDbBlockTableRecord
  2
*B178
340
0
  0
BLOCK_RECORD
  5
74B
100
AcDbSymbolTableRecord
100
AcDbBlockTableRecord
  2
*B179
340
0
  0
BLOCK_RECORD
  5
750
100
AcDbSymbolTableRecord
100
AcDbBlockTableRecord
  2
*B180
340
0
  0
BLOCK_RECORD
  5
755
100
AcDbSymbolTableRecord
100
AcDbBlockTableRecord
  2
*B181
340
0
  0
BLOCK_RECORD
  5
75A
100
AcDbSymbolTableRecord
100
AcDbBlockTableRecord
  2
*B182
340
0
  0
BLOCK_RECORD
  5
75F
100
AcDbSymbolTableRecord
100
AcDbBlockTableRecord
  2
*B183
340
0
  0
BLOCK_RECORD
  5
764
100
AcDbSymbolTableRecord
100
AcDbBlockTableRecord
  2
*B184
340
0
  0
BLOCK_RECORD
  5
769
100
AcDbSymbolTableRecord
100
AcDbBlockTableRecord
  2
*B185
340
0
  0
BLOCK_RECORD
  5
76E
100
AcDbSymbolTableRecord
100
AcDbBlockTableRecord
  2
*B186
340
0
  0
BLOCK_RECORD
  5
773
100
AcDbSymbolTableRecord
100
AcDbBlockTableRecord
  2
*B187
340
0
  0
BLOCK_RECORD
  5
778
100
AcDbSymbolTableRecord
100
AcDbBlockTableRecord
  2
*B188
340
0
  0
BLOCK_RECORD
  5
77D
100
AcDbSymbolTableRecord
100
AcDbBlockTableRecord
  2
*B189
340
0
  0
BLOCK_RECORD
  5
782
100
AcDbSymbolTableRecord
100
AcDbBlockTableRecord
  2
*B190
340
0
  0
BLOCK_RECORD
  5
787
100
AcDbSymbolTableRecord
100
AcDbBlockTableRecord
  2
*B191
340
0
  0
BLOCK_RECORD
  5
78C
100
AcDbSymbolTableRecord
100
AcDbBlockTableRecord
  2
*B192
340
0
  0
BLOCK_RECORD
  5
791
100
AcDbSymbolTableRecord
100
AcDbBlockTableRecord
  2
*B193
340
0
  0
BLOCK_RECORD
  5
796
100
AcDbSymbolTableRecord
100
AcDbBlockTableRecord
  2
*B194
340
0
  0
BLOCK_RECORD
  5
79B
100
AcDbSymbolTableRecord
100
AcDbBlockTableRecord
  2
*B195
340
0
  0
BLOCK_RECORD
  5
7A0
100
AcDbSymbolTableRecord
100
AcDbBlockTableRecord
  2
*B196
340
0
  0
BLOCK_RECORD
  5
7A5
100
AcDbSymbolTableRecord
100
AcDbBlockTableRecord
  2
*B197
340
0
  0
BLOCK_RECORD
  5
7AA
100
AcDbSymbolTableRecord
100
AcDbBlockTableRecord
  2
*B198
340
0
  0
BLOCK_RECORD
  5
7AF
100
AcDbSymbolTableRecord
100
AcDbBlockTableRecord
  2
*B199
340
0
  0
BLOCK_RECORD
  5
7B4
100
AcDbSymbolTableRecord
100
AcDbBlockTableRecord
  2
*B200
340
0
  0
BLOCK_RECORD
  5
7B9
100
AcDbSymbolTableRecord
100
AcDbBlockTableRecord
  2
*B201
340
0
  0
BLOCK_RECORD
  5
7BE
100
AcDbSymbolTableRecord
100
AcDbBlockTableRecord
  2
*B202
340
0
  0
BLOCK_RECORD
  5
7C3
100
AcDbSymbolTableRecord
100
AcDbBlockTableRecord
  2
*B203
340
0
  0
BLOCK_RECORD
  5
7C8
100
AcDbSymbolTableRecord
100
AcDbBlockTableRecord
  2
*B204
340
0
  0
BLOCK_RECORD
  5
7CD
100
AcDbSymbolTableRecord
100
AcDbBlockTableRecord
  2
*B205
340
0
  0
BLOCK_RECORD
  5
7D2
100
AcDbSymbolTableRecord
100
AcDbBlockTableRecord
  2
*B206
340
0
  0
BLOCK_RECORD
  5
7D7
100
AcDbSymbolTableRecord
100
AcDbBlockTableRecord
  2
*B207
340
0
  0
BLOCK_RECORD
  5
7DC
100
AcDbSymbolTableRecord
100
AcDbBlockTableRecord
  2
*B208
340
0
  0
BLOCK_RECORD
  5
7E1
100
AcDbSymbolTableRecord
100
AcDbBlockTableRecord
  2
*B209
340
0
  0
BLOCK_RECORD
  5
7E6
100
AcDbSymbolTableRecord
100
AcDbBlockTableRecord
  2
*B210
340
0
  0
BLOCK_RECORD
  5
7EB
100
AcDbSymbolTableRecord
100
AcDbBlockTableRecord
  2
*B211
340
0
  0
ENDTAB
  0
ENDSEC
  0
SECTION
  2
BLOCKS
  0
BLOCK
  5
D
100
AcDbEntity
  8
0
100
AcDbBlockBegin
  2
*MODEL_SPACE
 70
     0
 10
0.0
 20
0.0
 30
0.0
  3
*MODEL_SPACE
  1

  0
ENDBLK
  5
E
100
AcDbEntity
  8
0
100
AcDbBlockEnd
  0
BLOCK
  5
F
100
AcDbEntity
 67
     1
  8
0
100
AcDbBlockBegin
  2
*PAPER_SPACE
 70
     0
 10
0.0
 20
0.0
 30
0.0
  3
*PAPER_SPACE
  1

  0
ENDBLK
  5
10
100
AcDbEntity
 67
     1
  8
0
100
AcDbBlockEnd
  0
BLOCK
  5
2A
100
AcDbEntity
  8
0
100
AcDbBlockBegin
  2
*B0
 70
     0
 10
0.0
 20
0.0
 30
0.0
  3
*B0
  1

  0
ENDBLK
  5
2B
100
AcDbEntity
  8
0
100
AcDbBlockEnd
  0
BLOCK
  5
2D
100
AcDbEntity
  8
0
100
AcDbBlockBegin
  2
*B1
 70
     0
 10
0.0
 20
0.0
 30
0.0
  3
*B1
  1

  0
LINE
  5
2E
100
AcDbEntity
  8
0
  6
HIDDEN
 62
   174
100
AcDbLine
 10
426.958302
 20
70.415998
 30
0.0
 11
426.958302
 21
93.915943
 31
0.0
  0
LINE
  5
2F
100
AcDbEntity
  8
0
  6
HIDDEN
 62
   174
100
AcDbLine
 10
426.958302
 20
134.415143
 30
0.0
 11
426.958302
 21
157.914662
 31
0.0
  0
LINE
  5
30
100
AcDbEntity
  8
0
  6
HIDDEN
 62
   174
100
AcDbLine
 10
430.958302
 20
134.41718
 30
0.0
 11
450.958302
 21
134.41718
 31
0.0
  0
LINE
  5
31
100
AcDbEntity
  8
0
  6
HIDDEN
 62
   174
100
AcDbLine
 10
430.958302
 20
157.91718
 30
0.0
 11
450.958302
 21
157.91718
 31
0.0
  0
LINE
  5
32
100
AcDbEntity
  8
0
  6
HIDDEN
 62
   174
100
AcDbLine
 10
430.958302
 20
134.41718
 30
0.0
 11
450.958302
 21
134.41718
 31
0.0
  0
LINE
  5
33
100
AcDbEntity
  8
0
  6
HIDDEN
 62
   174
100
AcDbLine
 10
430.958302
 20
157.91718
 30
0.0
 11
450.958302
 21
157.91718
 31
0.0
  0
LINE
  5
34
100
AcDbEntity
  8
0
  6
HIDDEN
 62
   174
100
AcDbLine
 10
450.958302
 20
157.91718
 30
0.0
 11
426.958302
 21
157.91718
 31
0.0
  0
LINE
  5
35
100
AcDbEntity
  8
0
  6
HIDDEN
 62
   174
100
AcDbLine
 10
450.958302
 20
134.41718
 30
0.0
 11
426.958302
 21
134.41718
 31
0.0
  0
LINE
  5
36
100
AcDbEntity
  8
0
  6
HIDDEN
 62
   174
100
AcDbLine
 10
450.958302
 20
157.91718
 30
0.0
 11
426.958302
 21
157.91718
 31
0.0
  0
LINE
  5
37
100
AcDbEntity
  8
0
  6
HIDDEN
 62
   174
100
AcDbLine
 10
450.958302
 20
134.41718
 30
0.0
 11
426.958302
 21
134.41718
 31
0.0
  0
LINE
  5
38
100
AcDbEntity
  8
0
  6
HIDDEN
 62
   174
100
AcDbLine
 10
430.958302
 20
133.00718
 30
0.0
 11
450.958302
 21
133.00718
 31
0.0
  0
LINE
  5
39
100
AcDbEntity
  8
0
  6
HIDDEN
 62
   174
100
AcDbLine
 10
430.958302
 20
159.32718
 30
0.0
 11
450.958302
 21
159.32718
 31
0.0
  0
LINE
  5
3A
100
AcDbEntity
  8
0
  6
HIDDEN
 62
   174
100
AcDbLine
 10
430.958302
 20
133.00718
 30
0.0
 11
450.958302
 21
133.00718
 31
0.0
  0
LINE
  5
3B
100
AcDbEntity
  8
0
  6
HIDDEN
 62
   174
100
AcDbLine
 10
450.958302
 20
93.91718
 30
0.0
 11
426.958302
 21
93.91718
 31
0.0
  0
LINE
  5
3C
100
AcDbEntity
  8
0
  6
HIDDEN
 62
   174
100
AcDbLine
 10
450.958302
 20
70.41718
 30
0.0
 11
426.958302
 21
70.41718
 31
0.0
  0
LINE
  5
3D
100
AcDbEntity
  8
0
  6
HIDDEN
 62
   174
100
AcDbLine
 10
450.958302
 20
157.914662
 30
0.0
 11
450.958302
 21
134.415143
 31
0.0
  0
LINE
  5
3E
100
AcDbEntity
  8
0
  6
HIDDEN
 62
   174
100
AcDbLine
 10
183.958302
 20
125.91718
 30
0.0
 11
207.958302
 21
125.91718
 31
0.0
  0
LINE
  5
3F
100
AcDbEntity
  8
0
  6
HIDDEN
 62
   174
100
AcDbLine
 10
203.958302
 20
101.00718
 30
0.0
 11
183.958302
 21
101.00718
 31
0.0
  0
LINE
  5
40
100
AcDbEntity
  8
0
  6
Continuous
 62
   174
100
AcDbLine
 10
450.958302
 20
174.16718
 30
0.0
 11
183.958302
 21
174.16718
 31
0.0
  0
ARC
  5
41
100
AcDbEntity
  8
0
  6
Continuous
 62
   174
100
AcDbCircle
 10
211.958302
 20
68.16718
 30
0.0
 40
3.0
100
AcDbArc
 50
-180.0
 51
0.0
  0
ARC
  5
42
100
AcDbEntity
  8
0
  6
Continuous
 62
   174
100
AcDbCircle
 10
211.958302
 20
68.16718
 30
0.0
 40
3.0
100
AcDbArc
 50
0.0
 51
118.810059
  0
ARC
  5
43
100
AcDbEntity
  8
0
  6
Continuous
 62
   174
100
AcDbCircle
 10
389.958302
 20
68.16718
 30
0.0
 40
3.0
100
AcDbArc
 50
-180.0
 51
0.0
  0
ARC
  5
44
100
AcDbEntity
  8
0
  6
Continuous
 62
   174
100
AcDbCircle
 10
422.958302
 20
160.16718
 30
0.0
 40
3.0
100
AcDbArc
 50
0.0
 51
118.810059
  0
ARC
  5
45
100
AcDbEntity
  8
0
  6
Continuous
 62
   174
100
AcDbCircle
 10
256.458302
 20
68.16718
 30
0.0
 40
2.5
100
AcDbArc
 50
0.0
 51
180.0
  0
ARC
  5
46
100
AcDbEntity
  8
0
  6
Continuous
 62
   174
100
AcDbCircle
 10
361.958302
 20
146.16718
 30
0.0
 40
5.0
100
AcDbArc
 50
0.0
 51
180.0
  0
ARC
  5
47
100
AcDbEntity
  8
0
  6
Continuous
 62
   174
100
AcDbCircle
 10
406.458302
 20
146.16718
 30
0.0
 40
5.0
100
AcDbArc
 50
-180.0
 51
0.0
  0
LINE
  5
48
100
AcDbEntity
  8
0
  6
HIDDEN
 62
   174
100
AcDbLine
 10
430.958302
 20
133.005205
 30
0.0
 11
430.958302
 21
159.3246
 31
0.0
  0
LINE
  5
49
100
AcDbEntity
  8
0
  6
HIDDEN
 62
   174
100
AcDbLine
 10
430.958302
 20
93.91718
 30
0.0
 11
450.958302
 21
93.91718
 31
0.0
  0
ARC
  5
4A
100
AcDbEntity
  8
0
  6
Continuous
 62
   174
100
AcDbCircle
 10
195.958302
 20
160.16718
 30
0.0
 40
4.5
100
AcDbArc
 50
-180.0
 51
0.0
  0
ARC
  5
4B
100
AcDbEntity
  8
0
  6
Continuous
 62
   174
100
AcDbCircle
 10
438.958302
 20
114.16718
 30
0.0
 40
4.5
100
AcDbArc
 50
0.0
 51
180.0
  0
LINE
  5
4C
100
AcDbEntity
  8
0
  6
HIDDEN
 62
   174
100
AcDbLine
 10
203.958302
 20
125.91718
 30
0.0
 11
183.958302
 21
125.91718
 31
0.0
  0
LINE
  5
4D
100
AcDbEntity
  8
0
  6
HIDDEN
 62
   174
100
AcDbLine
 10
183.958302
 20
127.325453
 30
0.0
 11
183.958302
 21
101.005633
 31
0.0
  0
LINE
  5
4E
100
AcDbEntity
  8
0
  6
HIDDEN
 62
   174
100
AcDbLine
 10
203.958302
 20
101.00718
 30
0.0
 11
183.958302
 21
101.00718
 31
0.0
  0
LINE
  5
4F
100
AcDbEntity
  8
0
  6
Continuous
 62
   174
100
AcDbLine
 10
183.958302
 20
54.16718
 30
0.0
 11
450.958302
 21
54.16718
 31
0.0
  0
ARC
  5
50
100
AcDbEntity
  8
0
  6
Continuous
 62
   174
100
AcDbCircle
 10
256.458302
 20
68.16718
 30
0.0
 40
3.0
100
AcDbArc
 50
0.0
 51
118.774077
  0
ARC
  5
51
100
AcDbEntity
  8
0
  6
Continuous
 62
   174
100
AcDbCircle
 10
216.458302
 20
130.16718
 30
0.0
 40
5.0
100
AcDbArc
 50
-180.0
 51
0.0
  0
ARC
  5
52
100
AcDbEntity
  8
0
  6
Continuous
 62
   174
100
AcDbCircle
 10
256.458302
 20
68.16718
 30
0.0
 40
2.5
100
AcDbArc
 50
-180.0
 51
0.0
  0
ARC
  5
53
100
AcDbEntity
  8
0
  6
Continuous
 62
   174
100
AcDbCircle
 10
345.458302
 20
68.16718
 30
0.0
 40
2.5
100
AcDbArc
 50
-157.057864
 51
0.0
  0
LINE
  5
54
100
AcDbEntity
  8
0
  6
HIDDEN
 62
   174
100
AcDbLine
 10
430.958302
 20
69.00718
 30
0.0
 11
450.958302
 21
69.00718
 31
0.0
  0
ARC
  5
55
100
AcDbEntity
  8
0
  6
Continuous
 62
   174
100
AcDbCircle
 10
438.958302
 20
114.16718
 30
0.0
 40
4.5
100
AcDbArc
 50
-180.0
 51
0.0
  0
LINE
  5
56
100
AcDbEntity
  8
0
  6
HIDDEN
 62
   174
100
AcDbLine
 10
183.958302
 20
102.41718
 30
0.0
 11
207.958302
 21
102.41718
 31
0.0
  0
LINE
  5
57
100
AcDbEntity
  8
0
  6
HIDDEN
 62
   174
100
AcDbLine
 10
203.958302
 20
127.32718
 30
0.0
 11
183.958302
 21
127.32718
 31
0.0
  0
ARC
  5
58
100
AcDbEntity
  8
0
  6
Continuous
 62
   174
100
AcDbCircle
 10
244.958302
 20
160.16718
 30
0.0
 40
3.0
100
AcDbArc
 50
-180.0
 51
0.0
  0
ARC
  5
59
100
AcDbEntity
  8
0
  6
Continuous
 62
   174
100
AcDbCircle
 10
389.958302
 20
68.16718
 30
0.0
 40
3.0
100
AcDbArc
 50
0.0
 51
118.774077
  0
ARC
  5
5A
100
AcDbEntity
  8
0
  6
Continuous
 62
   174
100
AcDbCircle
 10
333.958302
 20
160.16718
 30
0.0
 40
3.0
100
AcDbArc
 50
-180.0
 51
0.0
  0
ARC
  5
5B
100
AcDbEntity
  8
0
  6
Continuous
 62
   174
100
AcDbCircle
 10
211.958302
 20
68.16718
 30
0.0
 40
2.5
100
AcDbArc
 50
0.0
 51
180.0
  0
ARC
  5
5C
100
AcDbEntity
  8
0
  6
Continuous
 62
   174
100
AcDbCircle
 10
272.958302
 20
146.16718
 30
0.0
 40
5.0
100
AcDbArc
 50
0.0
 51
180.0
  0
ARC
  5
5D
100
AcDbEntity
  8
0
  6
Continuous
 62
   174
100
AcDbCircle
 10
361.958302
 20
146.16718
 30
0.0
 40
5.0
100
AcDbArc
 50
-180.0
 51
0.0
  0
ARC
  5
5E
100
AcDbEntity
  8
0
  6
Continuous
 62
   174
100
AcDbCircle
 10
345.458302
 20
68.16718
 30
0.0
 40
2.5
100
AcDbArc
 50
0.0
 51
157.057864
  0
LINE
  5
5F
100
AcDbEntity
  8
0
  6
HIDDEN
 62
   174
100
AcDbLine
 10
430.958302
 20
159.32718
 30
0.0
 11
450.958302
 21
159.32718
 31
0.0
  0
LINE
  5
60
100
AcDbEntity
  8
0
  6
HIDDEN
 62
   174
100
AcDbLine
 10
450.958302
 20
93.91718
 30
0.0
 11
426.958302
 21
93.91718
 31
0.0
  0
LINE
  5
61
100
AcDbEntity
  8
0
  6
HIDDEN
 62
   174
100
AcDbLine
 10
430.958302
 20
69.00606
 30
0.0
 11
430.958302
 21
95.32588
 31
0.0
  0
ARC
  5
62
100
AcDbEntity
  8
0
  6
Continuous
 62
   174
100
AcDbCircle
 10
195.958302
 20
160.16718
 30
0.0
 40
4.5
100
AcDbArc
 50
0.0
 51
180.0
  0
ARC
  5
63
100
AcDbEntity
  8
0
  6
Continuous
 62
   174
100
AcDbCircle
 10
195.958302
 20
68.16718
 30
0.0
 40
4.5
100
AcDbArc
 50
0.0
 51
180.0
  0
LINE
  5
64
100
AcDbEntity
  8
0
  6
HIDDEN
 62
   174
100
AcDbLine
 10
203.958302
 20
125.91718
 30
0.0
 11
183.958302
 21
125.91718
 31
0.0
  0
ARC
  5
65
100
AcDbEntity
  8
0
  6
Continuous
 62
   174
100
AcDbCircle
 10
244.958302
 20
160.16718
 30
0.0
 40
3.0
100
AcDbArc
 50
0.0
 51
118.810059
  0
ARC
  5
66
100
AcDbEntity
  8
0
  6
Continuous
 62
   174
100
AcDbCircle
 10
228.458302
 20
146.16718
 30
0.0
 40
5.0
100
AcDbArc
 50
0.0
 51
180.0
  0
ARC
  5
67
100
AcDbEntity
  8
0
  6
Continuous
 62
   174
100
AcDbCircle
 10
228.458302
 20
114.16718
 30
0.0
 40
5.0
100
AcDbArc
 50
0.0
 51
180.0
  0
ARC
  5
68
100
AcDbEntity
  8
0
  6
Continuous
 62
   174
100
AcDbCircle
 10
228.458302
 20
114.16718
 30
0.0
 40
5.0
100
AcDbArc
 50
-180.0
 51
0.0
  0
ARC
  5
69
100
AcDbEntity
  8
0
  6
Continuous
 62
   174
100
AcDbCircle
 10
333.958302
 20
160.16718
 30
0.0
 40
3.0
100
AcDbArc
 50
0.0
 51
118.810059
  0
ARC
  5
6A
100
AcDbEntity
  8
0
  6
Continuous
 62
   174
100
AcDbCircle
 10
240.458302
 20
98.16718
 30
0.0
 40
5.0
100
AcDbArc
 50
0.0
 51
180.0
  0
ARC
  5
6B
100
AcDbEntity
  8
0
  6
Continuous
 62
   174
100
AcDbCircle
 10
300.958302
 20
68.16718
 30
0.0
 40
2.5
100
AcDbArc
 50
0.0
 51
180.0
  0
ARC
  5
6C
100
AcDbEntity
  8
0
  6
Continuous
 62
   174
100
AcDbCircle
 10
260.958302
 20
130.16718
 30
0.0
 40
5.0
100
AcDbArc
 50
0.0
 51
180.0
  0
ARC
  5
6D
100
AcDbEntity
  8
0
  6
Continuous
 62
   174
100
AcDbCircle
 10
260.958302
 20
130.16718
 30
0.0
 40
5.0
100
AcDbArc
 50
-180.0
 51
0.0
  0
LINE
  5
6E
100
AcDbEntity
  8
0
  6
HIDDEN
 62
   174
100
AcDbLine
 10
430.958302
 20
95.32718
 30
0.0
 11
450.958302
 21
95.32718
 31
0.0
  0
LINE
  5
6F
100
AcDbEntity
  8
0
  6
HIDDEN
 62
   174
100
AcDbLine
 10
450.958302
 20
93.915943
 30
0.0
 11
450.958302
 21
70.415998
 31
0.0
  0
LINE
  5
70
100
AcDbEntity
  8
0
  6
HIDDEN
 62
   174
100
AcDbLine
 10
207.958302
 20
125.915515
 30
0.0
 11
207.958302
 21
102.41557
 31
0.0
  0
LINE
  5
71
100
AcDbEntity
  8
0
  6
HIDDEN
 62
   174
100
AcDbLine
 10
203.958302
 20
102.41718
 30
0.0
 11
183.958302
 21
102.41718
 31
0.0
  0
LINE
  5
72
100
AcDbEntity
  8
0
  6
HIDDEN
 62
   174
100
AcDbLine
 10
183.958302
 20
125.91718
 30
0.0
 11
207.958302
 21
125.91718
 31
0.0
  0
LINE
  5
73
100
AcDbEntity
  8
0
  6
HIDDEN
 62
   174
100
AcDbLine
 10
183.958302
 20
102.41557
 30
0.0
 11
183.958302
 21
125.915515
 31
0.0
  0
LINE
  5
74
100
AcDbEntity
  8
0
  6
Continuous
 62
   174
100
AcDbLine
 10
450.958302
 20
54.16718
 30
0.0
 11
450.958302
 21
174.16718
 31
0.0
  0
ARC
  5
75
100
AcDbEntity
  8
0
  6
Continuous
 62
   174
100
AcDbCircle
 10
300.958302
 20
68.16718
 30
0.0
 40
3.0
100
AcDbArc
 50
-180.0
 51
0.0
  0
ARC
  5
76
100
AcDbEntity
  8
0
  6
Continuous
 62
   174
100
AcDbCircle
 10
228.458302
 20
146.16718
 30
0.0
 40
5.0
100
AcDbArc
 50
-180.0
 51
0.0
  0
ARC
  5
77
100
AcDbEntity
  8
0
  6
Continuous
 62
   174
100
AcDbCircle
 10
228.458302
 20
82.16718
 30
0.0
 40
5.0
100
AcDbArc
 50
0.0
 51
180.0
  0
ARC
  5
78
100
AcDbEntity
  8
0
  6
Continuous
 62
   174
100
AcDbCircle
 10
240.458302
 20
98.16718
 30
0.0
 40
5.0
100
AcDbArc
 50
-180.0
 51
0.0
  0
ARC
  5
79
100
AcDbEntity
  8
0
  6
Continuous
 62
   174
100
AcDbCircle
 10
211.958302
 20
68.16718
 30
0.0
 40
2.5
100
AcDbArc
 50
-180.0
 51
0.0
  0
ARC
  5
7A
100
AcDbEntity
  8
0
  6
Continuous
 62
   174
100
AcDbCircle
 10
272.958302
 20
146.16718
 30
0.0
 40
5.0
100
AcDbArc
 50
-180.0
 51
0.0
  0
ARC
  5
7B
100
AcDbEntity
  8
0
  6
Continuous
 62
   174
100
AcDbCircle
 10
300.958302
 20
68.16718
 30
0.0
 40
2.5
100
AcDbArc
 50
-180.0
 51
0.0
  0
LINE
  5
7C
100
AcDbEntity
  8
0
  6
HIDDEN
 62
   174
100
AcDbLine
 10
430.958302
 20
93.91718
 30
0.0
 11
450.958302
 21
93.91718
 31
0.0
  0
LINE
  5
7D
100
AcDbEntity
  8
0
  6
HIDDEN
 62
   174
100
AcDbLine
 10
450.958302
 20
70.41718
 30
0.0
 11
426.958302
 21
70.41718
 31
0.0
  0
LINE
  5
7E
100
AcDbEntity
  8
0
  6
HIDDEN
 62
   174
100
AcDbLine
 10
450.958302
 20
69.00606
 30
0.0
 11
450.958302
 21
95.32588
 31
0.0
  0
LINE
  5
7F
100
AcDbEntity
  8
0
  6
HIDDEN
 62
   174
100
AcDbLine
 10
430.958302
 20
95.32718
 30
0.0
 11
450.958302
 21
95.32718
 31
0.0
  0
ARC
  5
80
100
AcDbEntity
  8
0
  6
Continuous
 62
   174
100
AcDbCircle
 10
195.958302
 20
68.16718
 30
0.0
 40
4.5
100
AcDbArc
 50
-180.0
 51
0.0
  0
ARC
  5
81
100
AcDbEntity
  8
0
  6
Continuous
 62
   174
100
AcDbCircle
 10
289.458302
 20
160.16718
 30
0.0
 40
3.0
100
AcDbArc
 50
-180.0
 51
0.0
  0
ARC
  5
82
100
AcDbEntity
  8
0
  6
Continuous
 62
   174
100
AcDbCircle
 10
345.458302
 20
68.16718
 30
0.0
 40
3.0
100
AcDbArc
 50
-180.0
 51
0.0
  0
ARC
  5
83
100
AcDbEntity
  8
0
  6
Continuous
 62
   174
100
AcDbCircle
 10
378.458302
 20
160.16718
 30
0.0
 40
3.0
100
AcDbArc
 50
-180.0
 51
0.0
  0
ARC
  5
84
100
AcDbEntity
  8
0
  6
Continuous
 62
   174
100
AcDbCircle
 10
317.458302
 20
146.16718
 30
0.0
 40
5.0
100
AcDbArc
 50
0.0
 51
180.0
  0
LINE
  5
85
100
AcDbEntity
  8
0
  6
HIDDEN
 62
   174
100
AcDbLine
 10
430.958302
 20
69.00718
 30
0.0
 11
450.958302
 21
69.00718
 31
0.0
  0
LINE
  5
86
100
AcDbEntity
  8
0
  6
HIDDEN
 62
   174
100
AcDbLine
 10
183.958302
 20
102.41718
 30
0.0
 11
207.958302
 21
102.41718
 31
0.0
  0
LINE
  5
87
100
AcDbEntity
  8
0
  6
HIDDEN
 62
   174
100
AcDbLine
 10
203.958302
 20
127.32718
 30
0.0
 11
183.958302
 21
127.32718
 31
0.0
  0
ARC
  5
88
100
AcDbEntity
  8
0
  6
Continuous
 62
   174
100
AcDbCircle
 10
300.958302
 20
68.16718
 30
0.0
 40
3.0
100
AcDbArc
 50
0.0
 51
118.824842
  0
ARC
  5
89
100
AcDbEntity
  8
0
  6
Continuous
 62
   174
100
AcDbCircle
 10
289.458302
 20
160.16718
 30
0.0
 40
3.0
100
AcDbArc
 50
0.0
 51
118.810059
  0
ARC
  5
8A
100
AcDbEntity
  8
0
  6
Continuous
 62
   174
100
AcDbCircle
 10
228.458302
 20
82.16718
 30
0.0
 40
5.0
100
AcDbArc
 50
-180.0
 51
0.0
  0
ARC
  5
8B
100
AcDbEntity
  8
0
  6
Continuous
 62
   174
100
AcDbCircle
 10
378.458302
 20
160.16718
 30
0.0
 40
3.0
100
AcDbArc
 50
0.0
 51
118.810059
  0
ARC
  5
8C
100
AcDbEntity
  8
0
  6
Continuous
 62
   174
100
AcDbCircle
 10
244.958302
 20
160.16718
 30
0.0
 40
2.5
100
AcDbArc
 50
0.0
 51
180.0
  0
ARC
  5
8D
100
AcDbEntity
  8
0
  6
Continuous
 62
   174
100
AcDbCircle
 10
244.958302
 20
160.16718
 30
0.0
 40
2.5
100
AcDbArc
 50
-180.0
 51
0.0
  0
ARC
  5
8E
100
AcDbEntity
  8
0
  6
Continuous
 62
   174
100
AcDbCircle
 10
406.458302
 20
146.16718
 30
0.0
 40
5.0
100
AcDbArc
 50
0.0
 51
180.0
  0
ARC
  5
8F
100
AcDbEntity
  8
0
  6
Continuous
 62
   174
100
AcDbCircle
 10
345.458302
 20
68.16718
 30
0.0
 40
2.5
100
AcDbArc
 50
157.057864
 51
180.0
  0
LINE
  5
90
100
AcDbEntity
  8
0
  6
HIDDEN
 62
   174
100
AcDbLine
 10
450.958302
 20
133.005205
 30
0.0
 11
450.958302
 21
159.3246
 31
0.0
  0
LINE
  5
91
100
AcDbEntity
  8
0
  6
HIDDEN
 62
   174
100
AcDbLine
 10
430.958302
 20
70.41718
 30
0.0
 11
450.958302
 21
70.41718
 31
0.0
  0
LINE
  5
92
100
AcDbEntity
  8
0
  6
HIDDEN
 62
   174
100
AcDbLine
 10
430.958302
 20
70.41718
 30
0.0
 11
450.958302
 21
70.41718
 31
0.0
  0
LINE
  5
93
100
AcDbEntity
  8
0
  6
HIDDEN
 62
   174
100
AcDbLine
 10
203.958302
 20
102.41718
 30
0.0
 11
183.958302
 21
102.41718
 31
0.0
  0
LINE
  5
94
100
AcDbEntity
  8
0
  6
HIDDEN
 62
   174
100
AcDbLine
 10
203.958302
 20
127.325453
 30
0.0
 11
203.958302
 21
101.005633
 31
0.0
  0
LINE
  5
95
100
AcDbEntity
  8
0
  6
Continuous
 62
   174
100
AcDbLine
 10
183.958302
 20
174.16718
 30
0.0
 11
183.958302
 21
54.16718
 31
0.0
  0
ARC
  5
96
100
AcDbEntity
  8
0
  6
Continuous
 62
   174
100
AcDbCircle
 10
256.458302
 20
68.16718
 30
0.0
 40
3.0
100
AcDbArc
 50
-180.0
 51
0.0
  0
ARC
  5
97
100
AcDbEntity
  8
0
  6
Continuous
 62
   174
100
AcDbCircle
 10
345.458302
 20
68.16718
 30
0.0
 40
3.0
100
AcDbArc
 50
0.0
 51
118.824842
  0
ARC
  5
98
100
AcDbEntity
  8
0
  6
Continuous
 62
   174
100
AcDbCircle
 10
422.958302
 20
160.16718
 30
0.0
 40
3.0
100
AcDbArc
 50
-180.0
 51
0.0
  0
ARC
  5
99
100
AcDbEntity
  8
0
  6
Continuous
 62
   174
100
AcDbCircle
 10
216.458302
 20
130.16718
 30
0.0
 40
5.0
100
AcDbArc
 50
0.0
 51
180.0
  0
ARC
  5
9A
100
AcDbEntity
  8
0
  6
Continuous
 62
   174
100
AcDbCircle
 10
317.458302
 20
146.16718
 30
0.0
 40
5.0
100
AcDbArc
 50
-180.0
 51
0.0
  0
ARC
  5
9B
100
AcDbEntity
  8
0
  6
Continuous
 62
   174
100
AcDbCircle
 10
345.458302
 20
68.16718
 30
0.0
 40
2.5
100
AcDbArc
 50
180.0
 51
202.942136
  0
ARC
  5
9C
100
AcDbEntity
  8
0
  6
Continuous
 62
   174
100
AcDbCircle
 10
329.458302
 20
98.16718
 30
0.0
 40
5.0
100
AcDbArc
 50
-180.0
 51
0.0
  0
ARC
  5
9D
100
AcDbEntity
  8
0
  6
Continuous
 62
   174
100
AcDbCircle
 10
317.458302
 20
114.16718
 30
0.0
 40
5.0
100
AcDbArc
 50
-180.0
 51
0.0
  0
ARC
  5
9E
100
AcDbEntity
  8
0
  6
Continuous
 62
   174
100
AcDbCircle
 10
406.458302
 20
82.16718
 30
0.0
 40
5.0
100
AcDbArc
 50
-180.0
 51
0.0
  0
ARC
  5
9F
100
AcDbEntity
  8
0
  6
Continuous
 62
   174
100
AcDbCircle
 10
361.958302
 20
82.16718
 30
0.0
 40
5.0
100
AcDbArc
 50
-180.0
 51
0.0
  0
ARC
  5
A0
100
AcDbEntity
  8
0
  6
Continuous
 62
   174
100
AcDbCircle
 10
418.458302
 20
98.16718
 30
0.0
 40
5.0
100
AcDbArc
 50
0.0
 51
180.0
  0
ARC
  5
A1
100
AcDbEntity
  8
0
  6
Continuous
 62
   174
100
AcDbCircle
 10
389.958302
 20
68.16718
 30
0.0
 40
2.5
100
AcDbArc
 50
-180.0
 51
0.0
  0
ARC
  5
A2
100
AcDbEntity
  8
0
  6
Continuous
 62
   174
100
AcDbCircle
 10
333.958302
 20
160.16718
 30
0.0
 40
2.5
100
AcDbArc
 50
-20.161478
 51
0.0
  0
ARC
  5
A3
100
AcDbEntity
  8
0
  6
Continuous
 62
   174
100
AcDbCircle
 10
373.958302
 20
98.16718
 30
0.0
 40
5.0
100
AcDbArc
 50
0.0
 51
180.0
  0
ARC
  5
A4
100
AcDbEntity
  8
0
  6
Continuous
 62
   174
100
AcDbCircle
 10
272.958302
 20
82.16718
 30
0.0
 40
5.0
100
AcDbArc
 50
0.0
 51
180.0
  0
ARC
  5
A5
100
AcDbEntity
  8
0
  6
Continuous
 62
   174
100
AcDbCircle
 10
422.958302
 20
160.16718
 30
0.0
 40
2.5
100
AcDbArc
 50
0.0
 51
180.0
  0
ARC
  5
A6
100
AcDbEntity
  8
0
  6
Continuous
 62
   174
100
AcDbCircle
 10
418.458302
 20
98.16718
 30
0.0
 40
5.0
100
AcDbArc
 50
-180.0
 51
0.0
  0
ARC
  5
A7
100
AcDbEntity
  8
0
  6
Continuous
 62
   174
100
AcDbCircle
 10
406.458302
 20
114.16718
 30
0.0
 40
5.0
100
AcDbArc
 50
0.0
 51
180.0
  0
ARC
  5
A8
100
AcDbEntity
  8
0
  6
Continuous
 62
   174
100
AcDbCircle
 10
272.958302
 20
114.16718
 30
0.0
 40
5.0
100
AcDbArc
 50
0.0
 51
180.0
  0
ARC
  5
A9
100
AcDbEntity
  8
0
  6
Continuous
 62
   174
100
AcDbCircle
 10
317.458302
 20
114.16718
 30
0.0
 40
5.0
100
AcDbArc
 50
0.0
 51
180.0
  0
ARC
  5
AA
100
AcDbEntity
  8
0
  6
Continuous
 62
   174
100
AcDbCircle
 10
333.958302
 20
160.16718
 30
0.0
 40
2.5
100
AcDbArc
 50
0.0
 51
20.161478
  0
ARC
  5
AB
100
AcDbEntity
  8
0
  6
Continuous
 62
   174
100
AcDbCircle
 10
272.958302
 20
82.16718
 30
0.0
 40
5.0
100
AcDbArc
 50
-180.0
 51
0.0
  0
ARC
  5
AC
100
AcDbEntity
  8
0
  6
Continuous
 62
   174
100
AcDbCircle
 10
373.958302
 20
98.16718
 30
0.0
 40
5.0
100
AcDbArc
 50
-180.0
 51
0.0
  0
ARC
  5
AD
100
AcDbEntity
  8
0
  6
Continuous
 62
   174
100
AcDbCircle
 10
422.958302
 20
160.16718
 30
0.0
 40
2.5
100
AcDbArc
 50
-180.0
 51
0.0
  0
ARC
  5
AE
100
AcDbEntity
  8
0
  6
Continuous
 62
   174
100
AcDbCircle
 10
406.458302
 20
114.16718
 30
0.0
 40
5.0
100
AcDbArc
 50
-180.0
 51
0.0
  0
ARC
  5
AF
100
AcDbEntity
  8
0
  6
Continuous
 62
   174
100
AcDbCircle
 10
272.958302
 20
114.16718
 30
0.0
 40
5.0
100
AcDbArc
 50
-180.0
 51
0.0
  0
ARC
  5
B0
100
AcDbEntity
  8
0
  6
Continuous
 62
   174
100
AcDbCircle
 10
394.458302
 20
130.16718
 30
0.0
 40
5.0
100
AcDbArc
 50
0.0
 51
180.0
  0
ARC
  5
B1
100
AcDbEntity
  8
0
  6
Continuous
 62
   174
100
AcDbCircle
 10
289.458302
 20
160.16718
 30
0.0
 40
2.5
100
AcDbArc
 50
0.0
 51
180.0
  0
ARC
  5
B2
100
AcDbEntity
  8
0
  6
Continuous
 62
   174
100
AcDbCircle
 10
349.958302
 20
130.16718
 30
0.0
 40
5.0
100
AcDbArc
 50
0.0
 51
180.0
  0
ARC
  5
B3
100
AcDbEntity
  8
0
  6
Continuous
 62
   174
100
AcDbCircle
 10
361.958302
 20
114.16718
 30
0.0
 40
5.0
100
AcDbArc
 50
0.0
 51
180.0
  0
ARC
  5
B4
100
AcDbEntity
  8
0
  6
Continuous
 62
   174
100
AcDbCircle
 10
284.958302
 20
98.16718
 30
0.0
 40
5.0
100
AcDbArc
 50
0.0
 51
180.0
  0
ARC
  5
B5
100
AcDbEntity
  8
0
  6
Continuous
 62
   174
100
AcDbCircle
 10
317.458302
 20
82.16718
 30
0.0
 40
5.0
100
AcDbArc
 50
0.0
 51
180.0
  0
ARC
  5
B6
100
AcDbEntity
  8
0
  6
Continuous
 62
   174
100
AcDbCircle
 10
394.458302
 20
130.16718
 30
0.0
 40
5.0
100
AcDbArc
 50
-180.0
 51
0.0
  0
ARC
  5
B7
100
AcDbEntity
  8
0
  6
Continuous
 62
   174
100
AcDbCircle
 10
289.458302
 20
160.16718
 30
0.0
 40
2.5
100
AcDbArc
 50
-180.0
 51
0.0
  0
ARC
  5
B8
100
AcDbEntity
  8
0
  6
Continuous
 62
   174
100
AcDbCircle
 10
349.958302
 20
130.16718
 30
0.0
 40
5.0
100
AcDbArc
 50
-180.0
 51
0.0
  0
ARC
  5
B9
100
AcDbEntity
  8
0
  6
Continuous
 62
   174
100
AcDbCircle
 10
361.958302
 20
114.16718
 30
0.0
 40
5.0
100
AcDbArc
 50
-180.0
 51
0.0
  0
ARC
  5
BA
100
AcDbEntity
  8
0
  6
Continuous
 62
   174
100
AcDbCircle
 10
284.958302
 20
98.16718
 30
0.0
 40
5.0
100
AcDbArc
 50
-180.0
 51
0.0
  0
ARC
  5
BB
100
AcDbEntity
  8
0
  6
Continuous
 62
   174
100
AcDbCircle
 10
317.458302
 20
82.16718
 30
0.0
 40
5.0
100
AcDbArc
 50
-180.0
 51
0.0
  0
ARC
  5
BC
100
AcDbEntity
  8
0
  6
Continuous
 62
   174
100
AcDbCircle
 10
378.458302
 20
160.16718
 30
0.0
 40
2.5
100
AcDbArc
 50
0.0
 51
180.0
  0
ARC
  5
BD
100
AcDbEntity
  8
0
  6
Continuous
 62
   174
100
AcDbCircle
 10
305.458302
 20
130.16718
 30
0.0
 40
5.0
100
AcDbArc
 50
0.0
 51
180.0
  0
ARC
  5
BE
100
AcDbEntity
  8
0
  6
Continuous
 62
   174
100
AcDbCircle
 10
333.958302
 20
160.16718
 30
0.0
 40
2.5
100
AcDbArc
 50
20.161478
 51
180.0
  0
ARC
  5
BF
100
AcDbEntity
  8
0
  6
Continuous
 62
   174
100
AcDbCircle
 10
329.458302
 20
98.16718
 30
0.0
 40
5.0
100
AcDbArc
 50
0.0
 51
180.0
  0
ARC
  5
C0
100
AcDbEntity
  8
0
  6
Continuous
 62
   174
100
AcDbCircle
 10
406.458302
 20
82.16718
 30
0.0
 40
5.0
100
AcDbArc
 50
0.0
 51
180.0
  0
ARC
  5
C1
100
AcDbEntity
  8
0
  6
Continuous
 62
   174
100
AcDbCircle
 10
361.958302
 20
82.16718
 30
0.0
 40
5.0
100
AcDbArc
 50
0.0
 51
180.0
  0
ARC
  5
C2
100
AcDbEntity
  8
0
  6
Continuous
 62
   174
100
AcDbCircle
 10
378.458302
 20
160.16718
 30
0.0
 40
2.5
100
AcDbArc
 50
-180.0
 51
0.0
  0
ARC
  5
C3
100
AcDbEntity
  8
0
  6
Continuous
 62
   174
100
AcDbCircle
 10
389.958302
 20
68.16718
 30
0.0
 40
2.5
100
AcDbArc
 50
0.0
 51
180.0
  0
ARC
  5
C4
100
AcDbEntity
  8
0
  6
Continuous
 62
   174
100
AcDbCircle
 10
305.458302
 20
130.16718
 30
0.0
 40
5.0
100
AcDbArc
 50
-180.0
 51
0.0
  0
ARC
  5
C5
100
AcDbEntity
  8
0
  6
Continuous
 62
   174
100
AcDbCircle
 10
333.958302
 20
160.16718
 30
0.0
 40
2.5
100
AcDbArc
 50
180.0
 51
339.838522
  0
ENDBLK
  5
C6
100
AcDbEntity
  8
0
100
AcDbBlockEnd
  0
BLOCK
  5
C9
100
AcDbEntity
  8
0
100
AcDbBlockBegin
  2
*B2
 70
     0
 10
0.0
 20
0.0
 30
0.0
  3
*B2
  1

  0
LINE
  5
CA
100
AcDbEntity
  8
0
  6
HIDDEN
 62
   174
100
AcDbLine
 10
223.494827
 20
337.59333
 30
0.0
 11
233.494613
 21
337.59333
 31
0.0
  0
LINE
  5
CB
100
AcDbEntity
  8
0
  6
HIDDEN
 62
   174
100
AcDbLine
 10
426.958302
 20
307.688459
 30
0.0
 11
426.958302
 21
295.938699
 31
0.0
  0
LINE
  5
CC
100
AcDbEntity
  8
0
  6
HIDDEN
 62
   174
100
AcDbLine
 10
426.958302
 20
307.688459
 30
0.0
 11
426.958302
 21
319.438219
 31
0.0
  0
LINE
  5
CD
100
AcDbEntity
  8
0
  6
HIDDEN
 62
   174
100
AcDbLine
 10
430.958302
 20
319.44333
 30
0.0
 11
450.958302
 21
319.44333
 31
0.0
  0
LINE
  5
CE
100
AcDbEntity
  8
0
  6
HIDDEN
 62
   174
100
AcDbLine
 10
430.958302
 20
295.94333
 30
0.0
 11
450.958302
 21
295.94333
 31
0.0
  0
LINE
  5
CF
100
AcDbEntity
  8
0
  6
HIDDEN
 62
   174
100
AcDbLine
 10
450.958302
 20
295.94333
 30
0.0
 11
426.958302
 21
295.94333
 31
0.0
  0
LINE
  5
D0
100
AcDbEntity
  8
0
  6
HIDDEN
 62
   174
100
AcDbLine
 10
450.958302
 20
319.44333
 30
0.0
 11
426.958302
 21
319.44333
 31
0.0
  0
LINE
  5
D1
100
AcDbEntity
  8
0
  6
HIDDEN
 62
   174
100
AcDbLine
 10
430.958302
 20
294.528762
 30
0.0
 11
430.958302
 21
307.688459
 31
0.0
  0
LINE
  5
D2
100
AcDbEntity
  8
0
  6
HIDDEN
 62
   174
100
AcDbLine
 10
430.958302
 20
294.53333
 30
0.0
 11
450.958302
 21
294.53333
 31
0.0
  0
LINE
  5
D3
100
AcDbEntity
  8
0
  6
HIDDEN
 62
   174
100
AcDbLine
 10
450.958302
 20
294.528762
 30
0.0
 11
450.958302
 21
307.688459
 31
0.0
  0
LINE
  5
D4
100
AcDbEntity
  8
0
  6
HIDDEN
 62
   174
100
AcDbLine
 10
450.958302
 20
307.688459
 30
0.0
 11
450.958302
 21
320.848156
 31
0.0
  0
LINE
  5
D5
100
AcDbEntity
  8
0
  6
HIDDEN
 62
   174
100
AcDbLine
 10
430.958302
 20
320.85333
 30
0.0
 11
450.958302
 21
320.85333
 31
0.0
  0
LINE
  5
D6
100
AcDbEntity
  8
0
  6
HIDDEN
 62
   174
100
AcDbLine
 10
430.958302
 20
307.688459
 30
0.0
 11
430.958302
 21
320.848156
 31
0.0
  0
LINE
  5
D7
100
AcDbEntity
  8
0
  6
HIDDEN
 62
   174
100
AcDbLine
 10
443.458302
 20
337.69333
 30
0.0
 11
443.458302
 21
277.69333
 31
0.0
  0
ARC
  5
D8
100
AcDbEntity
  8
0
  6
Continuous
 62
   174
100
AcDbCircle
 10
284.958302
 20
321.69333
 30
0.0
 40
9.73
100
AcDbArc
 50
0.0
 51
118.807171
  0
ARC
  5
D9
100
AcDbEntity
  8
0
  6
Continuous
 62
   174
100
AcDbCircle
 10
418.458302
 20
321.69333
 30
0.0
 40
9.73
100
AcDbArc
 50
-180.0
 51
0.0
  0
ARC
  5
DA
100
AcDbEntity
  8
0
  6
Continuous
 62
   174
100
AcDbCircle
 10
373.958302
 20
321.69333
 30
0.0
 40
8.75
100
AcDbArc
 50
180.0
 51
343.988581
  0
LINE
  5
DB
100
AcDbEntity
  8
0
  6
Continuous
 62
   174
100
AcDbLine
 10
183.958302
 20
277.69333
 30
0.0
 11
183.958302
 21
337.69333
 31
0.0
  0
LINE
  5
DC
100
AcDbEntity
  8
0
  6
Continuous
 62
   174
100
AcDbLine
 10
450.958302
 20
277.69333
 30
0.0
 11
450.958302
 21
337.69333
 31
0.0
  0
LINE
  5
DD
100
AcDbEntity
  8
0
  6
HIDDEN
 62
   174
100
AcDbLine
 10
233.458302
 20
337.69333
 30
0.0
 11
233.458302
 21
337.59333
 31
0.0
  0
LINE
  5
DE
100
AcDbEntity
  8
0
  6
HIDDEN
 62
   174
100
AcDbLine
 10
366.958302
 20
337.69333
 30
0.0
 11
366.958302
 21
337.59333
 31
0.0
  0
LINE
  5
DF
100
AcDbEntity
  8
0
  6
HIDDEN
 62
   174
100
AcDbLine
 10
267.958302
 20
337.69333
 30
0.0
 11
267.958302
 21
337.59333
 31
0.0
  0
LINE
  5
E0
100
AcDbEntity
  8
0
  6
HIDDEN
 62
   174
100
AcDbLine
 10
450.958302
 20
307.688459
 30
0.0
 11
450.958302
 21
295.938699
 31
0.0
  0
LINE
  5
E1
100
AcDbEntity
  8
0
  6
HIDDEN
 62
   174
100
AcDbLine
 10
450.958302
 20
319.438219
 30
0.0
 11
450.958302
 21
307.688459
 31
0.0
  0
LINE
  5
E2
100
AcDbEntity
  8
0
  6
HIDDEN
 62
   174
100
AcDbLine
 10
191.458302
 20
337.69333
 30
0.0
 11
191.458302
 21
277.69333
 31
0.0
  0
LINE
  5
E3
100
AcDbEntity
  8
0
  6
HIDDEN
 62
   174
100
AcDbLine
 10
200.458302
 20
337.69333
 30
0.0
 11
200.458302
 21
277.69333
 31
0.0
  0
ARC
  5
E4
100
AcDbEntity
  8
0
  6
Continuous
 62
   174
100
AcDbCircle
 10
216.458302
 20
293.69333
 30
0.0
 40
9.73
100
AcDbArc
 50
-180.0
 51
0.0
  0
LINE
  5
E5
100
AcDbEntity
  8
0
  6
Continuous
 62
   174
100
AcDbLine
 10
183.958302
 20
337.69333
 30
0.0
 11
450.958302
 21
337.69333
 31
0.0
  0
ARC
  5
E6
100
AcDbEntity
  8
0
  6
Continuous
 62
   174
100
AcDbCircle
 10
373.958302
 20
321.69333
 30
0.0
 40
8.75
100
AcDbArc
 50
0.0
 51
16.011419
  0
ARC
  5
E7
100
AcDbEntity
  8
0
  6
Continuous
 62
   174
100
AcDbCircle
 10
373.958302
 20
321.69333
 30
0.0
 40
8.75
100
AcDbArc
 50
-16.011419
 51
0.0
  0
ARC
  5
E8
100
AcDbEntity
  8
0
  6
Continuous
 62
   174
100
AcDbCircle
 10
418.458302
 20
321.69333
 30
0.0
 40
8.75
100
AcDbArc
 50
-14.674894
 51
0.0
  0
ARC
  5
E9
100
AcDbEntity
  8
0
  6
Continuous
 62
   174
100
AcDbCircle
 10
260.958302
 20
293.69333
 30
0.0
 40
8.75
100
AcDbArc
 50
180.0
 51
343.988581
  0
LINE
  5
EA
100
AcDbEntity
  8
0
  6
HIDDEN
 62
   174
100
AcDbLine
 10
401.494603
 20
337.59333
 30
0.0
 11
411.49439
 21
337.59333
 31
0.0
  0
LINE
  5
EB
100
AcDbEntity
  8
0
  6
HIDDEN
 62
   174
100
AcDbLine
 10
233.458302
 20
337.69333
 30
0.0
 11
233.458302
 21
337.59333
 31
0.0
  0
LINE
  5
EC
100
AcDbEntity
  8
0
  6
HIDDEN
 62
   174
100
AcDbLine
 10
434.458302
 20
337.69333
 30
0.0
 11
434.458302
 21
277.69333
 31
0.0
  0
LINE
  5
ED
100
AcDbEntity
  8
0
  6
HIDDEN
 62
   174
100
AcDbLine
 10
267.994452
 20
337.59333
 30
0.0
 11
277.994664
 21
337.59333
 31
0.0
  0
ARC
  5
EE
100
AcDbEntity
  8
0
  6
Continuous
 62
   174
100
AcDbCircle
 10
418.458302
 20
321.69333
 30
0.0
 40
9.73
100
AcDbArc
 50
0.0
 51
118.805294
  0
ARC
  5
EF
100
AcDbEntity
  8
0
  6
Continuous
 62
   174
100
AcDbCircle
 10
373.958302
 20
321.69333
 30
0.0
 40
9.73
100
AcDbArc
 50
-180.0
 51
0.0
  0
ARC
  5
F0
100
AcDbEntity
  8
0
  6
Continuous
 62
   174
100
AcDbCircle
 10
373.958302
 20
321.69333
 30
0.0
 40
9.73
100
AcDbArc
 50
0.0
 51
118.789674
  0
ARC
  5
F1
100
AcDbEntity
  8
0
  6
Continuous
 62
   174
100
AcDbCircle
 10
284.958302
 20
321.69333
 30
0.0
 40
8.75
100
AcDbArc
 50
-180.0
 51
0.0
  0
ARC
  5
F2
100
AcDbEntity
  8
0
  6
Continuous
 62
   174
100
AcDbCircle
 10
329.458302
 20
321.69333
 30
0.0
 40
8.75
100
AcDbArc
 50
0.0
 51
180.0
  0
ARC
  5
F3
100
AcDbEntity
  8
0
  6
Continuous
 62
   174
100
AcDbCircle
 10
329.458302
 20
321.69333
 30
0.0
 40
8.75
100
AcDbArc
 50
-180.0
 51
0.0
  0
ARC
  5
F4
100
AcDbEntity
  8
0
  6
Continuous
 62
   174
100
AcDbCircle
 10
260.958302
 20
293.69333
 30
0.0
 40
8.75
100
AcDbArc
 50
-16.011419
 51
0.0
  0
ARC
  5
F5
100
AcDbEntity
  8
0
  6
Continuous
 62
   174
100
AcDbCircle
 10
349.958302
 20
293.69333
 30
0.0
 40
8.75
100
AcDbArc
 50
0.0
 51
180.0
  0
LINE
  5
F6
100
AcDbEntity
  8
0
  6
HIDDEN
 62
   174
100
AcDbLine
 10
223.458302
 20
337.69333
 30
0.0
 11
223.458302
 21
337.59333
 31
0.0
  0
LINE
  5
F7
100
AcDbEntity
  8
0
  6
HIDDEN
 62
   174
100
AcDbLine
 10
356.958302
 20
337.69333
 30
0.0
 11
356.958302
 21
337.59333
 31
0.0
  0
LINE
  5
F8
100
AcDbEntity
  8
0
  6
HIDDEN
 62
   174
100
AcDbLine
 10
277.958302
 20
337.69333
 30
0.0
 11
277.958302
 21
337.59333
 31
0.0
  0
LINE
  5
F9
100
AcDbEntity
  8
0
  6
HIDDEN
 62
   174
100
AcDbLine
 10
200.458302
 20
337.69333
 30
0.0
 11
200.458302
 21
277.69333
 31
0.0
  0
LINE
  5
FA
100
AcDbEntity
  8
0
  6
HIDDEN
 62
   174
100
AcDbLine
 10
191.458302
 20
337.69333
 30
0.0
 11
191.458302
 21
277.69333
 31
0.0
  0
LINE
  5
FB
100
AcDbEntity
  8
0
  6
HIDDEN
 62
   174
100
AcDbLine
 10
191.494828
 20
277.69333
 30
0.0
 11
200.494509
 21
277.69333
 31
0.0
  0
LINE
  5
FC
100
AcDbEntity
  8
0
  6
HIDDEN
 62
   174
100
AcDbLine
 10
191.494828
 20
277.69333
 30
0.0
 11
200.494509
 21
277.69333
 31
0.0
  0
LINE
  5
FD
100
AcDbEntity
  8
0
  6
HIDDEN
 62
   174
100
AcDbLine
 10
434.494708
 20
277.69333
 30
0.0
 11
443.494388
 21
277.69333
 31
0.0
  0
LINE
  5
FE
100
AcDbEntity
  8
0
  6
HIDDEN
 62
   174
100
AcDbLine
 10
356.994553
 20
337.59333
 30
0.0
 11
366.994765
 21
337.59333
 31
0.0
  0
ARC
  5
FF
100
AcDbEntity
  8
0
  6
Continuous
 62
   174
100
AcDbCircle
 10
216.458302
 20
293.69333
 30
0.0
 40
9.73
100
AcDbArc
 50
0.0
 51
118.805294
  0
ARC
  5
100
100
AcDbEntity
  8
0
  6
Continuous
 62
   174
100
AcDbCircle
 10
305.458302
 20
293.69333
 30
0.0
 40
9.73
100
AcDbArc
 50
-180.0
 51
0.0
  0
ARC
  5
101
100
AcDbEntity
  8
0
  6
Continuous
 62
   174
100
AcDbCircle
 10
284.958302
 20
321.69333
 30
0.0
 40
8.75
100
AcDbArc
 50
0.0
 51
180.0
  0
LINE
  5
102
100
AcDbEntity
  8
0
  6
HIDDEN
 62
   174
100
AcDbLine
 10
223.458302
 20
337.69333
 30
0.0
 11
223.458302
 21
337.59333
 31
0.0
  0
LINE
  5
103
100
AcDbEntity
  8
0
  6
HIDDEN
 62
   174
100
AcDbLine
 10
443.458302
 20
337.69333
 30
0.0
 11
443.458302
 21
277.69333
 31
0.0
  0
LINE
  5
104
100
AcDbEntity
  8
0
  6
HIDDEN
 62
   174
100
AcDbLine
 10
312.494502
 20
337.59333
 30
0.0
 11
322.494714
 21
337.59333
 31
0.0
  0
ARC
  5
105
100
AcDbEntity
  8
0
  6
Continuous
 62
   174
100
AcDbCircle
 10
216.458302
 20
293.69333
 30
0.0
 40
8.75
100
AcDbArc
 50
166.280128
 51
180.0
  0
ARC
  5
106
100
AcDbEntity
  8
0
  6
Continuous
 62
   174
100
AcDbCircle
 10
260.958302
 20
293.69333
 30
0.0
 40
8.75
100
AcDbArc
 50
0.0
 51
16.011419
  0
ARC
  5
107
100
AcDbEntity
  8
0
  6
Continuous
 62
   174
100
AcDbCircle
 10
349.958302
 20
293.69333
 30
0.0
 40
8.75
100
AcDbArc
 50
180.0
 51
360.0
  0
LINE
  5
108
100
AcDbEntity
  8
0
  6
HIDDEN
 62
   174
100
AcDbLine
 10
356.994553
 20
337.59333
 30
0.0
 11
366.994765
 21
337.59333
 31
0.0
  0
LINE
  5
109
100
AcDbEntity
  8
0
  6
HIDDEN
 62
   174
100
AcDbLine
 10
233.458302
 20
337.69333
 30
0.0
 11
233.458302
 21
337.59333
 31
0.0
  0
LINE
  5
10A
100
AcDbEntity
  8
0
  6
HIDDEN
 62
   174
100
AcDbLine
 10
366.958302
 20
337.69333
 30
0.0
 11
366.958302
 21
337.59333
 31
0.0
  0
LINE
  5
10B
100
AcDbEntity
  8
0
  6
HIDDEN
 62
   174
100
AcDbLine
 10
267.958302
 20
337.69333
 30
0.0
 11
267.958302
 21
337.59333
 31
0.0
  0
LINE
  5
10C
100
AcDbEntity
  8
0
  6
HIDDEN
 62
   174
100
AcDbLine
 10
191.458302
 20
337.69333
 30
0.0
 11
191.458302
 21
277.69333
 31
0.0
  0
LINE
  5
10D
100
AcDbEntity
  8
0
  6
HIDDEN
 62
   174
100
AcDbLine
 10
200.458302
 20
337.69333
 30
0.0
 11
200.458302
 21
277.69333
 31
0.0
  0
ARC
  5
10E
100
AcDbEntity
  8
0
  6
Continuous
 62
   174
100
AcDbCircle
 10
305.458302
 20
293.69333
 30
0.0
 40
9.73
100
AcDbArc
 50
0.0
 51
118.810059
  0
ARC
  5
10F
100
AcDbEntity
  8
0
  6
Continuous
 62
   174
100
AcDbCircle
 10
394.458302
 20
293.69333
 30
0.0
 40
9.73
100
AcDbArc
 50
0.0
 51
118.789674
  0
ARC
  5
110
100
AcDbEntity
  8
0
  6
Continuous
 62
   174
100
AcDbCircle
 10
349.958302
 20
293.69333
 30
0.0
 40
9.73
100
AcDbArc
 50
-180.0
 51
0.0
  0
ARC
  5
111
100
AcDbEntity
  8
0
  6
Continuous
 62
   174
100
AcDbCircle
 10
349.958302
 20
293.69333
 30
0.0
 40
9.73
100
AcDbArc
 50
0.0
 51
118.810059
  0
ARC
  5
112
100
AcDbEntity
  8
0
  6
Continuous
 62
   174
100
AcDbCircle
 10
216.458302
 20
293.69333
 30
0.0
 40
8.75
100
AcDbArc
 50
180.0
 51
193.719872
  0
ARC
  5
113
100
AcDbEntity
  8
0
  6
Continuous
 62
   174
100
AcDbCircle
 10
240.458302
 20
321.69333
 30
0.0
 40
8.75
100
AcDbArc
 50
0.0
 51
165.325106
  0
ARC
  5
114
100
AcDbEntity
  8
0
  6
Continuous
 62
   174
100
AcDbCircle
 10
240.458302
 20
321.69333
 30
0.0
 40
8.75
100
AcDbArc
 50
-165.325106
 51
0.0
  0
ARC
  5
115
100
AcDbEntity
  8
0
  6
Continuous
 62
   174
100
AcDbCircle
 10
240.458302
 20
321.69333
 30
0.0
 40
8.75
100
AcDbArc
 50
180.0
 51
194.674894
  0
ARC
  5
116
100
AcDbEntity
  8
0
  6
Continuous
 62
   174
100
AcDbCircle
 10
305.458302
 20
293.69333
 30
0.0
 40
8.75
100
AcDbArc
 50
0.0
 51
180.0
  0
ARC
  5
117
100
AcDbEntity
  8
0
  6
Continuous
 62
   174
100
AcDbCircle
 10
394.458302
 20
293.69333
 30
0.0
 40
8.75
100
AcDbArc
 50
0.0
 51
180.0
  0
ARC
  5
118
100
AcDbEntity
  8
0
  6
Continuous
 62
   174
100
AcDbCircle
 10
394.458302
 20
293.69333
 30
0.0
 40
8.75
100
AcDbArc
 50
-180.0
 51
0.0
  0
LINE
  5
119
100
AcDbEntity
  8
0
  6
HIDDEN
 62
   174
100
AcDbLine
 10
312.494502
 20
337.59333
 30
0.0
 11
322.494714
 21
337.59333
 31
0.0
  0
LINE
  5
11A
100
AcDbEntity
  8
0
  6
HIDDEN
 62
   174
100
AcDbLine
 10
233.458302
 20
337.69333
 30
0.0
 11
233.458302
 21
337.59333
 31
0.0
  0
ARC
  5
11B
100
AcDbEntity
  8
0
  6
Continuous
 62
   174
100
AcDbCircle
 10
329.458302
 20
321.69333
 30
0.0
 40
9.73
100
AcDbArc
 50
-180.0
 51
0.0
  0
ARC
  5
11C
100
AcDbEntity
  8
0
  6
Continuous
 62
   174
100
AcDbCircle
 10
329.458302
 20
321.69333
 30
0.0
 40
9.73
100
AcDbArc
 50
0.0
 51
118.807171
  0
ARC
  5
11D
100
AcDbEntity
  8
0
  6
Continuous
 62
   174
100
AcDbCircle
 10
240.458302
 20
321.69333
 30
0.0
 40
9.73
100
AcDbArc
 50
-180.0
 51
0.0
  0
ARC
  5
11E
100
AcDbEntity
  8
0
  6
Continuous
 62
   174
100
AcDbCircle
 10
260.958302
 20
293.69333
 30
0.0
 40
9.73
100
AcDbArc
 50
-180.0
 51
0.0
  0
LINE
  5
11F
100
AcDbEntity
  8
0
  6
Continuous
 62
   174
100
AcDbLine
 10
183.958302
 20
277.69333
 30
0.0
 11
450.958302
 21
277.69333
 31
0.0
  0
ARC
  5
120
100
AcDbEntity
  8
0
  6
Continuous
 62
   174
100
AcDbCircle
 10
240.458302
 20
321.69333
 30
0.0
 40
8.75
100
AcDbArc
 50
165.325106
 51
180.0
  0
ARC
  5
121
100
AcDbEntity
  8
0
  6
Continuous
 62
   174
100
AcDbCircle
 10
373.958302
 20
321.69333
 30
0.0
 40
8.75
100
AcDbArc
 50
16.011419
 51
180.0
  0
ARC
  5
122
100
AcDbEntity
  8
0
  6
Continuous
 62
   174
100
AcDbCircle
 10
418.458302
 20
321.69333
 30
0.0
 40
8.75
100
AcDbArc
 50
14.674894
 51
180.0
  0
ARC
  5
123
100
AcDbEntity
  8
0
  6
Continuous
 62
   174
100
AcDbCircle
 10
305.458302
 20
293.69333
 30
0.0
 40
8.75
100
AcDbArc
 50
180.0
 51
360.0
  0
LINE
  5
124
100
AcDbEntity
  8
0
  6
HIDDEN
 62
   174
100
AcDbLine
 10
223.458302
 20
337.69333
 30
0.0
 11
223.458302
 21
337.59333
 31
0.0
  0
LINE
  5
125
100
AcDbEntity
  8
0
  6
HIDDEN
 62
   174
100
AcDbLine
 10
200.458302
 20
337.69333
 30
0.0
 11
200.458302
 21
277.69333
 31
0.0
  0
LINE
  5
126
100
AcDbEntity
  8
0
  6
HIDDEN
 62
   174
100
AcDbLine
 10
434.458302
 20
337.69333
 30
0.0
 11
434.458302
 21
277.69333
 31
0.0
  0
LINE
  5
127
100
AcDbEntity
  8
0
  6
HIDDEN
 62
   174
100
AcDbLine
 10
191.458302
 20
337.69333
 30
0.0
 11
191.458302
 21
277.69333
 31
0.0
  0
LINE
  5
128
100
AcDbEntity
  8
0
  6
HIDDEN
 62
   174
100
AcDbLine
 10
191.494828
 20
337.69333
 30
0.0
 11
200.494509
 21
337.69333
 31
0.0
  0
LINE
  5
129
100
AcDbEntity
  8
0
  6
HIDDEN
 62
   174
100
AcDbLine
 10
191.494828
 20
337.69333
 30
0.0
 11
200.494509
 21
337.69333
 31
0.0
  0
LINE
  5
12A
100
AcDbEntity
  8
0
  6
HIDDEN
 62
   174
100
AcDbLine
 10
434.494708
 20
337.69333
 30
0.0
 11
443.494388
 21
337.69333
 31
0.0
  0
LINE
  5
12B
100
AcDbEntity
  8
0
  6
HIDDEN
 62
   174
100
AcDbLine
 10
401.494603
 20
337.59333
 30
0.0
 11
411.49439
 21
337.59333
 31
0.0
  0
ARC
  5
12C
100
AcDbEntity
  8
0
  6
Continuous
 62
   174
100
AcDbCircle
 10
284.958302
 20
321.69333
 30
0.0
 40
9.73
100
AcDbArc
 50
-180.0
 51
0.0
  0
ARC
  5
12D
100
AcDbEntity
  8
0
  6
Continuous
 62
   174
100
AcDbCircle
 10
240.458302
 20
321.69333
 30
0.0
 40
9.73
100
AcDbArc
 50
0.0
 51
118.805294
  0
ARC
  5
12E
100
AcDbEntity
  8
0
  6
Continuous
 62
   174
100
AcDbCircle
 10
260.958302
 20
293.69333
 30
0.0
 40
9.73
100
AcDbArc
 50
0.0
 51
118.789674
  0
ARC
  5
12F
100
AcDbEntity
  8
0
  6
Continuous
 62
   174
100
AcDbCircle
 10
394.458302
 20
293.69333
 30
0.0
 40
9.73
100
AcDbArc
 50
-180.0
 51
0.0
  0
ARC
  5
130
100
AcDbEntity
  8
0
  6
Continuous
 62
   174
100
AcDbCircle
 10
216.458302
 20
293.69333
 30
0.0
 40
8.75
100
AcDbArc
 50
0.0
 51
166.280128
  0
ARC
  5
131
100
AcDbEntity
  8
0
  6
Continuous
 62
   174
100
AcDbCircle
 10
216.458302
 20
293.69333
 30
0.0
 40
8.75
100
AcDbArc
 50
-166.280128
 51
0.0
  0
ARC
  5
132
100
AcDbEntity
  8
0
  6
Continuous
 62
   174
100
AcDbCircle
 10
418.458302
 20
321.69333
 30
0.0
 40
8.75
100
AcDbArc
 50
0.0
 51
14.674894
  0
ARC
  5
133
100
AcDbEntity
  8
0
  6
Continuous
 62
   174
100
AcDbCircle
 10
418.458302
 20
321.69333
 30
0.0
 40
8.75
100
AcDbArc
 50
180.0
 51
345.325106
  0
ARC
  5
134
100
AcDbEntity
  8
0
  6
Continuous
 62
   174
100
AcDbCircle
 10
260.958302
 20
293.69333
 30
0.0
 40
8.75
100
AcDbArc
 50
16.011419
 51
180.0
  0
LINE
  5
135
100
AcDbEntity
  8
0
  6
HIDDEN
 62
   174
100
AcDbLine
 10
267.994452
 20
337.59333
 30
0.0
 11
277.994664
 21
337.59333
 31
0.0
  0
LINE
  5
136
100
AcDbEntity
  8
0
  6
HIDDEN
 62
   174
100
AcDbLine
 10
223.458302
 20
337.69333
 30
0.0
 11
223.458302
 21
337.59333
 31
0.0
  0
LINE
  5
137
100
AcDbEntity
  8
0
  6
HIDDEN
 62
   174
100
AcDbLine
 10
356.958302
 20
337.69333
 30
0.0
 11
356.958302
 21
337.59333
 31
0.0
  0
LINE
  5
138
100
AcDbEntity
  8
0
  6
HIDDEN
 62
   174
100
AcDbLine
 10
322.458302
 20
337.69333
 30
0.0
 11
322.458302
 21
337.59333
 31
0.0
  0
LINE
  5
139
100
AcDbEntity
  8
0
  6
HIDDEN
 62
   174
100
AcDbLine
 10
411.458302
 20
337.69333
 30
0.0
 11
411.458302
 21
337.59333
 31
0.0
  0
LINE
  5
13A
100
AcDbEntity
  8
0
  6
HIDDEN
 62
   174
100
AcDbLine
 10
312.494502
 20
337.69333
 30
0.0
 11
322.494714
 21
337.69333
 31
0.0
  0
LINE
  5
13B
100
AcDbEntity
  8
0
  6
HIDDEN
 62
   174
100
AcDbLine
 10
356.994553
 20
337.69333
 30
0.0
 11
366.994765
 21
337.69333
 31
0.0
  0
LINE
  5
13C
100
AcDbEntity
  8
0
  6
HIDDEN
 62
   174
100
AcDbLine
 10
401.458302
 20
337.69333
 30
0.0
 11
401.458302
 21
337.59333
 31
0.0
  0
LINE
  5
13D
100
AcDbEntity
  8
0
  6
HIDDEN
 62
   174
100
AcDbLine
 10
223.494827
 20
337.69333
 30
0.0
 11
233.494613
 21
337.69333
 31
0.0
  0
LINE
  5
13E
100
AcDbEntity
  8
0
  6
HIDDEN
 62
   174
100
AcDbLine
 10
411.458302
 20
337.69333
 30
0.0
 11
411.458302
 21
337.59333
 31
0.0
  0
LINE
  5
13F
100
AcDbEntity
  8
0
  6
HIDDEN
 62
   174
100
AcDbLine
 10
267.994452
 20
337.69333
 30
0.0
 11
277.994664
 21
337.69333
 31
0.0
  0
LINE
  5
140
100
AcDbEntity
  8
0
  6
HIDDEN
 62
   174
100
AcDbLine
 10
401.458302
 20
337.69333
 30
0.0
 11
401.458302
 21
337.59333
 31
0.0
  0
LINE
  5
141
100
AcDbEntity
  8
0
  6
HIDDEN
 62
   174
100
AcDbLine
 10
356.958302
 20
337.69333
 30
0.0
 11
356.958302
 21
337.59333
 31
0.0
  0
LINE
  5
142
100
AcDbEntity
  8
0
  6
HIDDEN
 62
   174
100
AcDbLine
 10
411.458302
 20
337.69333
 30
0.0
 11
411.458302
 21
337.59333
 31
0.0
  0
LINE
  5
143
100
AcDbEntity
  8
0
  6
HIDDEN
 62
   174
100
AcDbLine
 10
312.458302
 20
337.69333
 30
0.0
 11
312.458302
 21
337.59333
 31
0.0
  0
LINE
  5
144
100
AcDbEntity
  8
0
  6
HIDDEN
 62
   174
100
AcDbLine
 10
356.994553
 20
337.69333
 30
0.0
 11
366.994765
 21
337.69333
 31
0.0
  0
LINE
  5
145
100
AcDbEntity
  8
0
  6
HIDDEN
 62
   174
100
AcDbLine
 10
223.494827
 20
337.59333
 30
0.0
 11
233.494613
 21
337.59333
 31
0.0
  0
LINE
  5
146
100
AcDbEntity
  8
0
  6
HIDDEN
 62
   174
100
AcDbLine
 10
366.958302
 20
337.69333
 30
0.0
 11
366.958302
 21
337.59333
 31
0.0
  0
LINE
  5
147
100
AcDbEntity
  8
0
  6
HIDDEN
 62
   174
100
AcDbLine
 10
401.458302
 20
337.69333
 30
0.0
 11
401.458302
 21
337.59333
 31
0.0
  0
LINE
  5
148
100
AcDbEntity
  8
0
  6
HIDDEN
 62
   174
100
AcDbLine
 10
401.494603
 20
337.69333
 30
0.0
 11
411.49439
 21
337.69333
 31
0.0
  0
LINE
  5
149
100
AcDbEntity
  8
0
  6
HIDDEN
 62
   174
100
AcDbLine
 10
322.458302
 20
337.69333
 30
0.0
 11
322.458302
 21
337.59333
 31
0.0
  0
LINE
  5
14A
100
AcDbEntity
  8
0
  6
HIDDEN
 62
   174
100
AcDbLine
 10
356.958302
 20
337.69333
 30
0.0
 11
356.958302
 21
337.59333
 31
0.0
  0
LINE
  5
14B
100
AcDbEntity
  8
0
  6
HIDDEN
 62
   174
100
AcDbLine
 10
267.994452
 20
337.69333
 30
0.0
 11
277.994664
 21
337.69333
 31
0.0
  0
LINE
  5
14C
100
AcDbEntity
  8
0
  6
HIDDEN
 62
   174
100
AcDbLine
 10
411.458302
 20
337.69333
 30
0.0
 11
411.458302
 21
337.59333
 31
0.0
  0
LINE
  5
14D
100
AcDbEntity
  8
0
  6
HIDDEN
 62
   174
100
AcDbLine
 10
267.958302
 20
337.69333
 30
0.0
 11
267.958302
 21
337.59333
 31
0.0
  0
LINE
  5
14E
100
AcDbEntity
  8
0
  6
HIDDEN
 62
   174
100
AcDbLine
 10
277.958302
 20
337.69333
 30
0.0
 11
277.958302
 21
337.59333
 31
0.0
  0
LINE
  5
14F
100
AcDbEntity
  8
0
  6
HIDDEN
 62
   174
100
AcDbLine
 10
312.458302
 20
337.69333
 30
0.0
 11
312.458302
 21
337.59333
 31
0.0
  0
LINE
  5
150
100
AcDbEntity
  8
0
  6
HIDDEN
 62
   174
100
AcDbLine
 10
366.958302
 20
337.69333
 30
0.0
 11
366.958302
 21
337.59333
 31
0.0
  0
LINE
  5
151
100
AcDbEntity
  8
0
  6
HIDDEN
 62
   174
100
AcDbLine
 10
277.958302
 20
337.69333
 30
0.0
 11
277.958302
 21
337.59333
 31
0.0
  0
LINE
  5
152
100
AcDbEntity
  8
0
  6
HIDDEN
 62
   174
100
AcDbLine
 10
322.458302
 20
337.69333
 30
0.0
 11
322.458302
 21
337.59333
 31
0.0
  0
LINE
  5
153
100
AcDbEntity
  8
0
  6
HIDDEN
 62
   174
100
AcDbLine
 10
267.958302
 20
337.69333
 30
0.0
 11
267.958302
 21
337.59333
 31
0.0
  0
LINE
  5
154
100
AcDbEntity
  8
0
  6
HIDDEN
 62
   174
100
AcDbLine
 10
401.494603
 20
337.69333
 30
0.0
 11
411.49439
 21
337.69333
 31
0.0
  0
LINE
  5
155
100
AcDbEntity
  8
0
  6
HIDDEN
 62
   174
100
AcDbLine
 10
223.494827
 20
337.69333
 30
0.0
 11
233.494613
 21
337.69333
 31
0.0
  0
LINE
  5
156
100
AcDbEntity
  8
0
  6
HIDDEN
 62
   174
100
AcDbLine
 10
277.958302
 20
337.69333
 30
0.0
 11
277.958302
 21
337.59333
 31
0.0
  0
LINE
  5
157
100
AcDbEntity
  8
0
  6
HIDDEN
 62
   174
100
AcDbLine
 10
322.458302
 20
337.69333
 30
0.0
 11
322.458302
 21
337.59333
 31
0.0
  0
LINE
  5
158
100
AcDbEntity
  8
0
  6
HIDDEN
 62
   174
100
AcDbLine
 10
312.494502
 20
337.69333
 30
0.0
 11
322.494714
 21
337.69333
 31
0.0
  0
LINE
  5
159
100
AcDbEntity
  8
0
  6
HIDDEN
 62
   174
100
AcDbLine
 10
312.458302
 20
337.69333
 30
0.0
 11
312.458302
 21
337.59333
 31
0.0
  0
LINE
  5
15A
100
AcDbEntity
  8
0
  6
HIDDEN
 62
   174
100
AcDbLine
 10
312.458302
 20
337.69333
 30
0.0
 11
312.458302
 21
337.59333
 31
0.0
  0
LINE
  5
15B
100
AcDbEntity
  8
0
  6
HIDDEN
 62
   174
100
AcDbLine
 10
401.458302
 20
337.69333
 30
0.0
 11
401.458302
 21
337.59333
 31
0.0
  0
ENDBLK
  5
15C
100
AcDbEntity
  8
0
100
AcDbBlockEnd
  0
BLOCK
  5
15F
100
AcDbEntity
  8
0
100
AcDbBlockBegin
  2
*B3
 70
     0
 10
0.0
 20
0.0
 30
0.0
  3
*B3
  1

  0
LINE
  5
160
100
AcDbEntity
  8
0
  6
DOTTED
 62
    42
100
AcDbLine
 10
383.458302
 20
337.468414
 30
0.0
 11
383.458302
 21
381.69333
 31
0.0
  0
LINE
  5
161
100
AcDbEntity
  8
0
  6
DOTTED
 62
    42
100
AcDbLine
 10
427.458302
 20
381.69333
 30
0.0
 11
427.458302
 21
337.468414
 31
0.0
  0
LINE
  5
162
100
AcDbEntity
  8
0
  6
DOTTED
 62
    42
100
AcDbLine
 10
383.458302
 20
337.468414
 30
0.0
 11
383.458302
 21
381.69333
 31
0.0
  0
LINE
  5
163
100
AcDbEntity
  8
0
  6
DOTTED
 62
    42
100
AcDbLine
 10
339.458302
 20
337.468414
 30
0.0
 11
339.458302
 21
381.69333
 31
0.0
  0
LINE
  5
164
100
AcDbEntity
  8
0
  6
DOTTED
 62
    42
100
AcDbLine
 10
295.458302
 20
337.468414
 30
0.0
 11
295.458302
 21
381.69333
 31
0.0
  0
LINE
  5
165
100
AcDbEntity
  8
0
  6
DOTTED
 62
    42
100
AcDbLine
 10
295.458302
 20
337.468414
 30
0.0
 11
295.458302
 21
381.69333
 31
0.0
  0
LINE
  5
166
100
AcDbEntity
  8
0
  6
DOTTED
 62
    42
100
AcDbLine
 10
339.458302
 20
381.69333
 30
0.0
 11
339.458302
 21
337.468414
 31
0.0
  0
LINE
  5
167
100
AcDbEntity
  8
0
  6
DOTTED
 62
    42
100
AcDbLine
 10
339.458302
 20
381.69333
 30
0.0
 11
339.458302
 21
337.468414
 31
0.0
  0
LINE
  5
168
100
AcDbEntity
  8
0
  6
DOTTED
 62
    42
100
AcDbLine
 10
251.458302
 20
337.468414
 30
0.0
 11
251.458302
 21
381.69333
 31
0.0
  0
LINE
  5
169
100
AcDbEntity
  8
0
  6
DOTTED
 62
    42
100
AcDbLine
 10
295.458302
 20
381.69333
 30
0.0
 11
295.458302
 21
337.468414
 31
0.0
  0
LINE
  5
16A
100
AcDbEntity
  8
0
  6
DOTTED
 62
    42
100
AcDbLine
 10
251.458302
 20
381.69333
 30
0.0
 11
295.458302
 21
381.69333
 31
0.0
  0
LINE
  5
16B
100
AcDbEntity
  8
0
  6
DOTTED
 62
    42
100
AcDbLine
 10
427.458302
 20
381.69333
 30
0.0
 11
427.458302
 21
337.468414
 31
0.0
  0
LINE
  5
16C
100
AcDbEntity
  8
0
  6
DOTTED
 62
    42
100
AcDbLine
 10
339.458302
 20
337.468414
 30
0.0
 11
339.458302
 21
381.69333
 31
0.0
  0
LINE
  5
16D
100
AcDbEntity
  8
0
  6
DOTTED
 62
    42
100
AcDbLine
 10
339.458302
 20
381.69333
 30
0.0
 11
339.458302
 21
337.468414
 31
0.0
  0
LINE
  5
16E
100
AcDbEntity
  8
0
  6
DOTTED
 62
    42
100
AcDbLine
 10
207.458302
 20
337.468414
 30
0.0
 11
207.458302
 21
381.69333
 31
0.0
  0
LINE
  5
16F
100
AcDbEntity
  8
0
  6
DOTTED
 62
    42
100
AcDbLine
 10
383.458302
 20
381.69333
 30
0.0
 11
383.458302
 21
337.468414
 31
0.0
  0
LINE
  5
170
100
AcDbEntity
  8
0
  6
DOTTED
 62
    42
100
AcDbLine
 10
251.458302
 20
381.69333
 30
0.0
 11
251.458302
 21
337.468414
 31
0.0
  0
LINE
  5
171
100
AcDbEntity
  8
0
  6
DOTTED
 62
    42
100
AcDbLine
 10
427.458302
 20
381.69333
 30
0.0
 11
427.458302
 21
337.468414
 31
0.0
  0
LINE
  5
172
100
AcDbEntity
  8
0
  6
DOTTED
 62
    42
100
AcDbLine
 10
383.458302
 20
381.69333
 30
0.0
 11
383.458302
 21
337.468414
 31
0.0
  0
LINE
  5
173
100
AcDbEntity
  8
0
  6
DOTTED
 62
    42
100
AcDbLine
 10
383.458302
 20
381.69333
 30
0.0
 11
427.458302
 21
381.69333
 31
0.0
  0
LINE
  5
174
100
AcDbEntity
  8
0
  6
DOTTED
 62
    42
100
AcDbLine
 10
339.458302
 20
337.468414
 30
0.0
 11
339.458302
 21
381.69333
 31
0.0
  0
LINE
  5
175
100
AcDbEntity
  8
0
  6
DOTTED
 62
    42
100
AcDbLine
 10
251.458302
 20
381.69333
 30
0.0
 11
295.458302
 21
381.69333
 31
0.0
  0
LINE
  5
176
100
AcDbEntity
  8
0
  6
DOTTED
 62
    42
100
AcDbLine
 10
383.458302
 20
381.69333
 30
0.0
 11
383.458302
 21
337.468414
 31
0.0
  0
LINE
  5
177
100
AcDbEntity
  8
0
  6
DOTTED
 62
    42
100
AcDbLine
 10
383.458302
 20
381.69333
 30
0.0
 11
427.458302
 21
381.69333
 31
0.0
  0
LINE
  5
178
100
AcDbEntity
  8
0
  6
DOTTED
 62
    42
100
AcDbLine
 10
207.458302
 20
337.468414
 30
0.0
 11
207.458302
 21
381.69333
 31
0.0
  0
LINE
  5
179
100
AcDbEntity
  8
0
  6
DOTTED
 62
    42
100
AcDbLine
 10
383.458302
 20
381.69333
 30
0.0
 11
427.458302
 21
381.69333
 31
0.0
  0
LINE
  5
17A
100
AcDbEntity
  8
0
  6
DOTTED
 62
    42
100
AcDbLine
 10
295.458302
 20
337.468414
 30
0.0
 11
295.458302
 21
381.69333
 31
0.0
  0
LINE
  5
17B
100
AcDbEntity
  8
0
  6
DOTTED
 62
    42
100
AcDbLine
 10
207.458302
 20
381.69333
 30
0.0
 11
251.458302
 21
381.69333
 31
0.0
  0
LINE
  5
17C
100
AcDbEntity
  8
0
  6
DOTTED
 62
    42
100
AcDbLine
 10
339.458302
 20
381.69333
 30
0.0
 11
339.458302
 21
337.468414
 31
0.0
  0
LINE
  5
17D
100
AcDbEntity
  8
0
  6
DOTTED
 62
    42
100
AcDbLine
 10
251.458302
 20
381.69333
 30
0.0
 11
295.458302
 21
381.69333
 31
0.0
  0
LINE
  5
17E
100
AcDbEntity
  8
0
  6
DOTTED
 62
    42
100
AcDbLine
 10
251.458302
 20
381.69333
 30
0.0
 11
251.458302
 21
337.468414
 31
0.0
  0
LINE
  5
17F
100
AcDbEntity
  8
0
  6
DOTTED
 62
    42
100
AcDbLine
 10
207.458302
 20
337.468414
 30
0.0
 11
207.458302
 21
381.69333
 31
0.0
  0
LINE
  5
180
100
AcDbEntity
  8
0
  6
DOTTED
 62
    42
100
AcDbLine
 10
383.458302
 20
381.69333
 30
0.0
 11
383.458302
 21
337.468414
 31
0.0
  0
LINE
  5
181
100
AcDbEntity
  8
0
  6
DOTTED
 62
    42
100
AcDbLine
 10
383.458302
 20
337.468414
 30
0.0
 11
383.458302
 21
381.69333
 31
0.0
  0
LINE
  5
182
100
AcDbEntity
  8
0
  6
DOTTED
 62
    42
100
AcDbLine
 10
339.458302
 20
381.69333
 30
0.0
 11
383.458302
 21
381.69333
 31
0.0
  0
LINE
  5
183
100
AcDbEntity
  8
0
  6
DOTTED
 62
    42
100
AcDbLine
 10
207.458302
 20
381.69333
 30
0.0
 11
251.458302
 21
381.69333
 31
0.0
  0
LINE
  5
184
100
AcDbEntity
  8
0
  6
DOTTED
 62
    42
100
AcDbLine
 10
251.458302
 20
337.468414
 30
0.0
 11
251.458302
 21
381.69333
 31
0.0
  0
LINE
  5
185
100
AcDbEntity
  8
0
  6
DOTTED
 62
    42
100
AcDbLine
 10
295.458302
 20
381.69333
 30
0.0
 11
339.458302
 21
381.69333
 31
0.0
  0
LINE
  5
186
100
AcDbEntity
  8
0
  6
DOTTED
 62
    42
100
AcDbLine
 10
339.458302
 20
381.69333
 30
0.0
 11
383.458302
 21
381.69333
 31
0.0
  0
LINE
  5
187
100
AcDbEntity
  8
0
  6
DOTTED
 62
    42
100
AcDbLine
 10
339.458302
 20
381.69333
 30
0.0
 11
383.458302
 21
381.69333
 31
0.0
  0
LINE
  5
188
100
AcDbEntity
  8
0
  6
DOTTED
 62
    42
100
AcDbLine
 10
295.458302
 20
337.468414
 30
0.0
 11
295.458302
 21
381.69333
 31
0.0
  0
LINE
  5
189
100
AcDbEntity
  8
0
  6
DOTTED
 62
    42
100
AcDbLine
 10
251.458302
 20
381.69333
 30
0.0
 11
251.458302
 21
337.468414
 31
0.0
  0
LINE
  5
18A
100
AcDbEntity
  8
0
  6
DOTTED
 62
    42
100
AcDbLine
 10
251.458302
 20
381.69333
 30
0.0
 11
295.458302
 21
381.69333
 31
0.0
  0
LINE
  5
18B
100
AcDbEntity
  8
0
  6
DOTTED
 62
    42
100
AcDbLine
 10
207.458302
 20
381.69333
 30
0.0
 11
251.458302
 21
381.69333
 31
0.0
  0
LINE
  5
18C
100
AcDbEntity
  8
0
  6
DOTTED
 62
    42
100
AcDbLine
 10
295.458302
 20
381.69333
 30
0.0
 11
339.458302
 21
381.69333
 31
0.0
  0
LINE
  5
18D
100
AcDbEntity
  8
0
  6
DOTTED
 62
    42
100
AcDbLine
 10
295.458302
 20
381.69333
 30
0.0
 11
295.458302
 21
337.468414
 31
0.0
  0
LINE
  5
18E
100
AcDbEntity
  8
0
  6
DOTTED
 62
    42
100
AcDbLine
 10
295.458302
 20
381.69333
 30
0.0
 11
339.458302
 21
381.69333
 31
0.0
  0
LINE
  5
18F
100
AcDbEntity
  8
0
  6
DOTTED
 62
    42
100
AcDbLine
 10
383.458302
 20
381.69333
 30
0.0
 11
427.458302
 21
381.69333
 31
0.0
  0
LINE
  5
190
100
AcDbEntity
  8
0
  6
DOTTED
 62
    42
100
AcDbLine
 10
339.458302
 20
337.468414
 30
0.0
 11
339.458302
 21
381.69333
 31
0.0
  0
LINE
  5
191
100
AcDbEntity
  8
0
  6
DOTTED
 62
    42
100
AcDbLine
 10
339.458302
 20
381.69333
 30
0.0
 11
339.458302
 21
337.468414
 31
0.0
  0
LINE
  5
192
100
AcDbEntity
  8
0
  6
DOTTED
 62
    42
100
AcDbLine
 10
251.458302
 20
381.69333
 30
0.0
 11
251.458302
 21
337.468414
 31
0.0
  0
LINE
  5
193
100
AcDbEntity
  8
0
  6
DOTTED
 62
    42
100
AcDbLine
 10
295.458302
 20
381.69333
 30
0.0
 11
339.458302
 21
381.69333
 31
0.0
  0
LINE
  5
194
100
AcDbEntity
  8
0
  6
DOTTED
 62
    42
100
AcDbLine
 10
251.458302
 20
381.69333
 30
0.0
 11
295.458302
 21
381.69333
 31
0.0
  0
LINE
  5
195
100
AcDbEntity
  8
0
  6
DOTTED
 62
    42
100
AcDbLine
 10
251.458302
 20
337.468414
 30
0.0
 11
251.458302
 21
381.69333
 31
0.0
  0
LINE
  5
196
100
AcDbEntity
  8
0
  6
DOTTED
 62
    42
100
AcDbLine
 10
427.458302
 20
381.69333
 30
0.0
 11
427.458302
 21
337.468414
 31
0.0
  0
LINE
  5
197
100
AcDbEntity
  8
0
  6
DOTTED
 62
    42
100
AcDbLine
 10
207.458302
 20
381.69333
 30
0.0
 11
251.458302
 21
381.69333
 31
0.0
  0
LINE
  5
198
100
AcDbEntity
  8
0
  6
DOTTED
 62
    42
100
AcDbLine
 10
295.458302
 20
381.69333
 30
0.0
 11
295.458302
 21
337.468414
 31
0.0
  0
LINE
  5
199
100
AcDbEntity
  8
0
  6
DOTTED
 62
    42
100
AcDbLine
 10
295.458302
 20
381.69333
 30
0.0
 11
339.458302
 21
381.69333
 31
0.0
  0
LINE
  5
19A
100
AcDbEntity
  8
0
  6
DOTTED
 62
    42
100
AcDbLine
 10
383.458302
 20
337.468414
 30
0.0
 11
383.458302
 21
381.69333
 31
0.0
  0
LINE
  5
19B
100
AcDbEntity
  8
0
  6
DOTTED
 62
    42
100
AcDbLine
 10
207.458302
 20
337.468414
 30
0.0
 11
207.458302
 21
381.69333
 31
0.0
  0
LINE
  5
19C
100
AcDbEntity
  8
0
  6
DOTTED
 62
    42
100
AcDbLine
 10
251.458302
 20
381.69333
 30
0.0
 11
251.458302
 21
337.468414
 31
0.0
  0
LINE
  5
19D
100
AcDbEntity
  8
0
  6
DOTTED
 62
    42
100
AcDbLine
 10
383.458302
 20
381.69333
 30
0.0
 11
383.458302
 21
337.468414
 31
0.0
  0
LINE
  5
19E
100
AcDbEntity
  8
0
  6
DOTTED
 62
    42
100
AcDbLine
 10
295.458302
 20
337.468414
 30
0.0
 11
295.458302
 21
381.69333
 31
0.0
  0
LINE
  5
19F
100
AcDbEntity
  8
0
  6
DOTTED
 62
    42
100
AcDbLine
 10
339.458302
 20
337.468414
 30
0.0
 11
339.458302
 21
381.69333
 31
0.0
  0
LINE
  5
1A0
100
AcDbEntity
  8
0
  6
DOTTED
 62
    42
100
AcDbLine
 10
251.458302
 20
337.468414
 30
0.0
 11
251.458302
 21
381.69333
 31
0.0
  0
LINE
  5
1A1
100
AcDbEntity
  8
0
  6
DOTTED
 62
    42
100
AcDbLine
 10
207.458302
 20
381.69333
 30
0.0
 11
251.458302
 21
381.69333
 31
0.0
  0
LINE
  5
1A2
100
AcDbEntity
  8
0
  6
DOTTED
 62
    42
100
AcDbLine
 10
295.458302
 20
381.69333
 30
0.0
 11
295.458302
 21
337.468414
 31
0.0
  0
LINE
  5
1A3
100
AcDbEntity
  8
0
  6
DOTTED
 62
    42
100
AcDbLine
 10
383.458302
 20
381.69333
 30
0.0
 11
427.458302
 21
381.69333
 31
0.0
  0
LINE
  5
1A4
100
AcDbEntity
  8
0
  6
DOTTED
 62
    42
100
AcDbLine
 10
383.458302
 20
337.468414
 30
0.0
 11
383.458302
 21
381.69333
 31
0.0
  0
LINE
  5
1A5
100
AcDbEntity
  8
0
  6
DOTTED
 62
    42
100
AcDbLine
 10
251.458302
 20
337.468414
 30
0.0
 11
251.458302
 21
381.69333
 31
0.0
  0
LINE
  5
1A6
100
AcDbEntity
  8
0
  6
DOTTED
 62
    42
100
AcDbLine
 10
207.458302
 20
337.468414
 30
0.0
 11
207.458302
 21
381.69333
 31
0.0
  0
LINE
  5
1A7
100
AcDbEntity
  8
0
  6
DOTTED
 62
    42
100
AcDbLine
 10
339.458302
 20
381.69333
 30
0.0
 11
383.458302
 21
381.69333
 31
0.0
  0
LINE
  5
1A8
100
AcDbEntity
  8
0
  6
DOTTED
 62
    42
100
AcDbLine
 10
427.458302
 20
381.69333
 30
0.0
 11
427.458302
 21
337.468414
 31
0.0
  0
LINE
  5
1A9
100
AcDbEntity
  8
0
  6
DOTTED
 62
    42
100
AcDbLine
 10
339.458302
 20
381.69333
 30
0.0
 11
383.458302
 21
381.69333
 31
0.0
  0
LINE
  5
1AA
100
AcDbEntity
  8
0
  6
DOTTED
 62
    42
100
AcDbLine
 10
295.458302
 20
381.69333
 30
0.0
 11
295.458302
 21
337.468414
 31
0.0
  0
ENDBLK
  5
1AB
100
AcDbEntity
  8
0
100
AcDbBlockEnd
  0
BLOCK
  5
1AE
100
AcDbEntity
  8
0
100
AcDbBlockBegin
  2
*B4
 70
     0
 10
0.0
 20
0.0
 30
0.0
  3
*B4
  1

  0
LINE
  5
1AF
100
AcDbEntity
  8
0
  6
Continuous
 62
     0
100
AcDbLine
 10
453.4946
 20
260.995835
 30
0.0
 11
409.106902
 21
260.995835
 31
0.0
  0
SOLID
  5
1B0
100
AcDbEntity
  8
0
  6
Continuous
 62
     0
100
AcDbTrace
 10
448.494494
 20
261.995941
 30
0.0
 11
443.494388
 21
260.995835
 31
0.0
 12
448.494494
 22
259.996154
 32
0.0
 13
448.494494
 23
259.996154
 33
0.0
  0
SOLID
  5
1B1
100
AcDbEntity
  8
0
  6
Continuous
 62
     0
100
AcDbTrace
 10
429.494601
 20
259.996154
 30
0.0
 11
434.494708
 21
260.995835
 31
0.0
 12
429.494601
 22
261.995941
 32
0.0
 13
429.494601
 23
261.995941
 33
0.0
  0
ENDBLK
  5
1B2
100
AcDbEntity
  8
0
100
AcDbBlockEnd
  0
BLOCK
  5
1B5
100
AcDbEntity
  8
0
100
AcDbBlockBegin
  2
*B5
 70
     0
 10
0.0
 20
0.0
 30
0.0
  3
*B5
  1

  0
LINE
  5
1B6
100
AcDbEntity
  8
0
  6
Continuous
 62
     0
100
AcDbLine
 10
166.97137
 20
321.688246
 30
0.0
 11
166.97137
 21
293.688673
 31
0.0
  0
SOLID
  5
1B7
100
AcDbEntity
  8
0
  6
Continuous
 62
     0
100
AcDbTrace
 10
167.971476
 20
316.688565
 30
0.0
 11
166.97137
 21
321.688246
 31
0.0
 12
165.971689
 22
316.688565
 32
0.0
 13
165.971689
 23
316.688565
 33
0.0
  0
SOLID
  5
1B8
100
AcDbEntity
  8
0
  6
Continuous
 62
     0
100
AcDbTrace
 10
165.971689
 20
298.688779
 30
0.0
 11
166.97137
 21
293.688673
 31
0.0
 12
167.971476
 22
298.688779
 32
0.0
 13
167.971476
 23
298.688779
 33
0.0
  0
ENDBLK
  5
1B9
100
AcDbEntity
  8
0
100
AcDbBlockEnd
  0
BLOCK
  5
1BC
100
AcDbEntity
  8
0
100
AcDbBlockBegin
  2
*B6
 70
     0
 10
0.0
 20
0.0
 30
0.0
  3
*B6
  1

  0
LINE
  5
1BD
100
AcDbEntity
  8
0
  6
Continuous
 62
     0
100
AcDbLine
 10
148.036165
 20
337.688245
 30
0.0
 11
148.036165
 21
277.689099
 31
0.0
  0
SOLID
  5
1BE
100
AcDbEntity
  8
0
  6
Continuous
 62
     0
100
AcDbTrace
 10
149.036272
 20
332.688138
 30
0.0
 11
148.036165
 21
337.688245
 31
0.0
 12
147.036484
 22
332.688138
 32
0.0
 13
147.036484
 23
332.688138
 33
0.0
  0
SOLID
  5
1BF
100
AcDbEntity
  8
0
  6
Continuous
 62
     0
100
AcDbTrace
 10
147.036484
 20
282.68878
 30
0.0
 11
148.036165
 21
277.689099
 31
0.0
 12
149.036272
 22
282.68878
 32
0.0
 13
149.036272
 23
282.68878
 33
0.0
  0
ENDBLK
  5
1C0
100
AcDbEntity
  8
0
100
AcDbBlockEnd
  0
BLOCK
  5
1C3
100
AcDbEntity
  8
0
100
AcDbBlockBegin
  2
*B7
 70
     0
 10
0.0
 20
0.0
 30
0.0
  3
*B7
  1

  0
LINE
  5
1C4
100
AcDbEntity
  8
0
  6
Continuous
 62
     0
100
AcDbLine
 10
167.036483
 20
303.688459
 30
0.0
 11
167.036483
 21
267.689313
 31
0.0
  0
SOLID
  5
1C5
100
AcDbEntity
  8
0
  6
Continuous
 62
     0
100
AcDbTrace
 10
166.036377
 20
298.688779
 30
0.0
 11
167.036483
 21
293.688673
 31
0.0
 12
168.03659
 22
298.688779
 32
0.0
 13
168.03659
 23
298.688779
 33
0.0
  0
SOLID
  5
1C6
100
AcDbEntity
  8
0
  6
Continuous
 62
     0
100
AcDbTrace
 10
168.03659
 20
272.688993
 30
0.0
 11
167.036483
 21
277.689099
 31
0.0
 12
166.036377
 22
272.688993
 32
0.0
 13
166.036377
 23
272.688993
 33
0.0
  0
ENDBLK
  5
1C7
100
AcDbEntity
  8
0
100
AcDbBlockEnd
  0
BLOCK
  5
1CA
100
AcDbEntity
  8
0
100
AcDbBlockBegin
  2
*B8
 70
     0
 10
0.0
 20
0.0
 30
0.0
  3
*B8
  1

  0
LINE
  5
1CB
100
AcDbEntity
  8
0
  6
Continuous
 62
     0
100
AcDbLine
 10
250.494719
 20
259.464608
 30
0.0
 11
206.494721
 21
259.464608
 31
0.0
  0
SOLID
  5
1CC
100
AcDbEntity
  8
0
  6
Continuous
 62
     0
100
AcDbTrace
 10
245.494612
 20
260.464289
 30
0.0
 11
240.494506
 21
259.464608
 31
0.0
 12
245.494612
 22
258.464502
 32
0.0
 13
245.494612
 23
258.464502
 33
0.0
  0
SOLID
  5
1CD
100
AcDbEntity
  8
0
  6
Continuous
 62
     0
100
AcDbTrace
 10
211.494827
 20
258.464502
 30
0.0
 11
216.494508
 21
259.464608
 31
0.0
 12
211.494827
 22
260.464289
 32
0.0
 13
211.494827
 23
260.464289
 33
0.0
  0
ENDBLK
  5
1CE
100
AcDbEntity
  8
0
100
AcDbBlockEnd
  0
BLOCK
  5
1D1
100
AcDbEntity
  8
0
100
AcDbBlockBegin
  2
*B9
 70
     0
 10
0.0
 20
0.0
 30
0.0
  3
*B9
  1

  0
LINE
  5
1D2
100
AcDbEntity
  8
0
  6
Continuous
 62
     0
100
AcDbLine
 10
342.932206
 20
259.464608
 30
0.0
 11
286.74453
 21
259.464608
 31
0.0
  0
SOLID
  5
1D3
100
AcDbEntity
  8
0
  6
Continuous
 62
     0
100
AcDbTrace
 10
319.244581
 20
260.464289
 30
0.0
 11
314.244475
 21
259.464608
 31
0.0
 12
319.244581
 22
258.464502
 32
0.0
 13
319.244581
 23
258.464502
 33
0.0
  0
SOLID
  5
1D4
100
AcDbEntity
  8
0
  6
Continuous
 62
     0
100
AcDbTrace
 10
291.744636
 20
258.464502
 30
0.0
 11
296.744742
 21
259.464608
 31
0.0
 12
291.744636
 22
260.464289
 32
0.0
 13
291.744636
 23
260.464289
 33
0.0
  0
ENDBLK
  5
1D5
100
AcDbEntity
  8
0
100
AcDbBlockEnd
  0
BLOCK
  5
1D8
100
AcDbEntity
  8
0
100
AcDbBlockBegin
  2
*B10
 70
     0
 10
0.0
 20
0.0
 30
0.0
  3
*B10
  1

  0
LINE
  5
1D9
100
AcDbEntity
  8
0
  6
Continuous
 62
     0
100
AcDbLine
 10
226.49472
 20
231.465036
 30
0.0
 11
173.99467
 21
231.465036
 31
0.0
  0
SOLID
  5
1DA
100
AcDbEntity
  8
0
  6
Continuous
 62
     0
100
AcDbTrace
 10
221.494614
 20
232.464716
 30
0.0
 11
216.494508
 21
231.465036
 31
0.0
 12
221.494614
 22
230.464929
 32
0.0
 13
221.494614
 23
230.464929
 33
0.0
  0
SOLID
  5
1DB
100
AcDbEntity
  8
0
  6
Continuous
 62
     0
100
AcDbTrace
 10
178.994776
 20
230.464929
 30
0.0
 11
183.994882
 21
231.465036
 31
0.0
 12
178.994776
 22
232.464716
 32
0.0
 13
178.994776
 23
232.464716
 33
0.0
  0
ENDBLK
  5
1DC
100
AcDbEntity
  8
0
100
AcDbBlockEnd
  0
BLOCK
  5
1DF
100
AcDbEntity
  8
0
100
AcDbBlockBegin
  2
*B11
 70
     0
 10
0.0
 20
0.0
 30
0.0
  3
*B11
  1

  0
LINE
  5
1E0
100
AcDbEntity
  8
0
  6
Continuous
 62
     0
100
AcDbLine
 10
216.494508
 20
231.465036
 30
0.0
 11
260.994558
 21
231.465036
 31
0.0
  0
SOLID
  5
1E1
100
AcDbEntity
  8
0
  6
Continuous
 62
     0
100
AcDbTrace
 10
221.494614
 20
232.464716
 30
0.0
 11
216.494508
 21
231.465036
 31
0.0
 12
221.494614
 22
230.464929
 32
0.0
 13
221.494614
 23
230.464929
 33
0.0
  0
SOLID
  5
1E2
100
AcDbEntity
  8
0
  6
Continuous
 62
     0
100
AcDbTrace
 10
255.994452
 20
230.464929
 30
0.0
 11
260.994558
 21
231.465036
 31
0.0
 12
255.994452
 22
232.464716
 32
0.0
 13
255.994452
 23
232.464716
 33
0.0
  0
ENDBLK
  5
1E3
100
AcDbEntity
  8
0
100
AcDbBlockEnd
  0
BLOCK
  5
1E6
100
AcDbEntity
  8
0
100
AcDbBlockBegin
  2
*B12
 70
     0
 10
0.0
 20
0.0
 30
0.0
  3
*B12
  1

  0
LINE
  5
1E7
100
AcDbEntity
  8
0
  6
Continuous
 62
     0
100
AcDbLine
 10
260.994558
 20
231.465036
 30
0.0
 11
305.494609
 21
231.465036
 31
0.0
  0
SOLID
  5
1E8
100
AcDbEntity
  8
0
  6
Continuous
 62
     0
100
AcDbTrace
 10
265.994664
 20
232.464716
 30
0.0
 11
260.994558
 21
231.465036
 31
0.0
 12
265.994664
 22
230.464929
 32
0.0
 13
265.994664
 23
230.464929
 33
0.0
  0
SOLID
  5
1E9
100
AcDbEntity
  8
0
  6
Continuous
 62
     0
100
AcDbTrace
 10
300.494503
 20
230.464929
 30
0.0
 11
305.494609
 21
231.465036
 31
0.0
 12
300.494503
 22
232.464716
 32
0.0
 13
300.494503
 23
232.464716
 33
0.0
  0
ENDBLK
  5
1EA
100
AcDbEntity
  8
0
100
AcDbBlockEnd
  0
BLOCK
  5
1ED
100
AcDbEntity
  8
0
100
AcDbBlockBegin
  2
*B13
 70
     0
 10
0.0
 20
0.0
 30
0.0
  3
*B13
  1

  0
LINE
  5
1EE
100
AcDbEntity
  8
0
  6
Continuous
 62
     0
100
AcDbLine
 10
305.494609
 20
231.465036
 30
0.0
 11
349.994659
 21
231.465036
 31
0.0
  0
SOLID
  5
1EF
100
AcDbEntity
  8
0
  6
Continuous
 62
     0
100
AcDbTrace
 10
310.494715
 20
232.464716
 30
0.0
 11
305.494609
 21
231.465036
 31
0.0
 12
310.494715
 22
230.464929
 32
0.0
 13
310.494715
 23
230.464929
 33
0.0
  0
SOLID
  5
1F0
100
AcDbEntity
  8
0
  6
Continuous
 62
     0
100
AcDbTrace
 10
344.994553
 20
230.464929
 30
0.0
 11
349.994659
 21
231.465036
 31
0.0
 12
344.994553
 22
232.464716
 32
0.0
 13
344.994553
 23
232.464716
 33
0.0
  0
ENDBLK
  5
1F1
100
AcDbEntity
  8
0
100
AcDbBlockEnd
  0
BLOCK
  5
1F4
100
AcDbEntity
  8
0
100
AcDbBlockBegin
  2
*B14
 70
     0
 10
0.0
 20
0.0
 30
0.0
  3
*B14
  1

  0
LINE
  5
1F5
100
AcDbEntity
  8
0
  6
Continuous
 62
     0
100
AcDbLine
 10
349.994659
 20
231.465036
 30
0.0
 11
394.49471
 21
231.465036
 31
0.0
  0
SOLID
  5
1F6
100
AcDbEntity
  8
0
  6
Continuous
 62
     0
100
AcDbTrace
 10
354.994766
 20
232.464716
 30
0.0
 11
349.994659
 21
231.465036
 31
0.0
 12
354.994766
 22
230.464929
 32
0.0
 13
354.994766
 23
230.464929
 33
0.0
  0
SOLID
  5
1F7
100
AcDbEntity
  8
0
  6
Continuous
 62
     0
100
AcDbTrace
 10
389.494604
 20
230.464929
 30
0.0
 11
394.49471
 21
231.465036
 31
0.0
 12
389.494604
 22
232.464716
 32
0.0
 13
389.494604
 23
232.464716
 33
0.0
  0
ENDBLK
  5
1F8
100
AcDbEntity
  8
0
100
AcDbBlockEnd
  0
BLOCK
  5
1FB
100
AcDbEntity
  8
0
100
AcDbBlockBegin
  2
*B15
 70
     0
 10
0.0
 20
0.0
 30
0.0
  3
*B15
  1

  0
LINE
  5
1FC
100
AcDbEntity
  8
0
  6
Continuous
 62
     0
100
AcDbLine
 10
394.49471
 20
231.465036
 30
0.0
 11
450.994334
 21
231.465036
 31
0.0
  0
SOLID
  5
1FD
100
AcDbEntity
  8
0
  6
Continuous
 62
     0
100
AcDbTrace
 10
399.49439
 20
232.464716
 30
0.0
 11
394.49471
 21
231.465036
 31
0.0
 12
399.49439
 22
230.464929
 32
0.0
 13
399.49439
 23
230.464929
 33
0.0
  0
SOLID
  5
1FE
100
AcDbEntity
  8
0
  6
Continuous
 62
     0
100
AcDbTrace
 10
445.994654
 20
230.464929
 30
0.0
 11
450.994334
 21
231.465036
 31
0.0
 12
445.994654
 22
232.464716
 32
0.0
 13
445.994654
 23
232.464716
 33
0.0
  0
ENDBLK
  5
1FF
100
AcDbEntity
  8
0
100
AcDbBlockEnd
  0
BLOCK
  5
202
100
AcDbEntity
  8
0
100
AcDbBlockBegin
  2
*B16
 70
     0
 10
0.0
 20
0.0
 30
0.0
  3
*B16
  1

  0
LINE
  5
203
100
AcDbEntity
  8
0
  6
Continuous
 62
     0
100
AcDbLine
 10
428.994548
 20
41.999359
 30
0.0
 11
460.994546
 21
41.999359
 31
0.0
  0
SOLID
  5
204
100
AcDbEntity
  8
0
  6
Continuous
 62
     0
100
AcDbTrace
 10
433.994654
 20
40.999678
 30
0.0
 11
438.994761
 21
41.999359
 31
0.0
 12
433.994654
 22
42.999465
 32
0.0
 13
433.994654
 23
42.999465
 33
0.0
  0
SOLID
  5
205
100
AcDbEntity
  8
0
  6
Continuous
 62
     0
100
AcDbTrace
 10
455.99444
 20
42.999465
 30
0.0
 11
450.994334
 21
41.999359
 31
0.0
 12
455.99444
 22
40.999678
 32
0.0
 13
455.99444
 23
40.999678
 33
0.0
  0
ENDBLK
  5
206
100
AcDbEntity
  8
0
100
AcDbBlockEnd
  0
BLOCK
  5
209
100
AcDbEntity
  8
0
100
AcDbBlockBegin
  2
*B17
 70
     0
 10
0.0
 20
0.0
 30
0.0
  3
*B17
  1

  0
LINE
  5
20A
100
AcDbEntity
  8
0
  6
Continuous
 62
     0
100
AcDbLine
 10
377.494605
 20
40.999678
 30
0.0
 11
415.348842
 21
40.999678
 31
0.0
  0
SOLID
  5
20B
100
AcDbEntity
  8
0
  6
Continuous
 62
     0
100
AcDbTrace
 10
382.494711
 20
39.999572
 30
0.0
 11
387.494391
 21
40.999678
 31
0.0
 12
382.494711
 22
41.999359
 32
0.0
 13
382.494711
 23
41.999359
 33
0.0
  0
SOLID
  5
20C
100
AcDbEntity
  8
0
  6
Continuous
 62
     0
100
AcDbTrace
 10
397.494603
 20
41.999359
 30
0.0
 11
392.494497
 21
40.999678
 31
0.0
 12
397.494603
 22
39.999572
 32
0.0
 13
397.494603
 23
39.999572
 33
0.0
  0
ENDBLK
  5
20D
100
AcDbEntity
  8
0
100
AcDbBlockEnd
  0
BLOCK
  5
210
100
AcDbEntity
  8
0
100
AcDbBlockBegin
  2
*B18
 70
     0
 10
0.0
 20
0.0
 30
0.0
  3
*B18
  1

  0
LINE
  5
211
100
AcDbEntity
  8
0
  6
Continuous
 62
     0
100
AcDbLine
 10
471.036465
 20
146.164902
 30
0.0
 11
471.036465
 21
82.166183
 31
0.0
  0
SOLID
  5
212
100
AcDbEntity
  8
0
  6
Continuous
 62
     0
100
AcDbTrace
 10
472.036146
 20
141.165222
 30
0.0
 11
471.036465
 21
146.164902
 31
0.0
 12
470.036359
 22
141.165222
 32
0.0
 13
470.036359
 23
141.165222
 33
0.0
  0
SOLID
  5
213
100
AcDbEntity
  8
0
  6
Continuous
 62
     0
100
AcDbTrace
 10
470.036359
 20
87.165864
 30
0.0
 11
471.036465
 21
82.166183
 31
0.0
 12
472.036146
 22
87.165864
 32
0.0
 13
472.036146
 23
87.165864
 33
0.0
  0
ENDBLK
  5
214
100
AcDbEntity
  8
0
100
AcDbBlockEnd
  0
BLOCK
  5
217
100
AcDbEntity
  8
0
100
AcDbBlockBegin
  2
*B19
 70
     0
 10
0.0
 20
0.0
 30
0.0
  3
*B19
  1

  0
LINE
  5
218
100
AcDbEntity
  8
0
  6
Continuous
 62
     0
100
AcDbLine
 10
228.494507
 20
200.022118
 30
0.0
 11
272.994558
 21
200.022118
 31
0.0
  0
SOLID
  5
219
100
AcDbEntity
  8
0
  6
Continuous
 62
     0
100
AcDbTrace
 10
233.494613
 20
201.022224
 30
0.0
 11
228.494507
 21
200.022118
 31
0.0
 12
233.494613
 22
199.022437
 32
0.0
 13
233.494613
 23
199.022437
 33
0.0
  0
SOLID
  5
21A
100
AcDbEntity
  8
0
  6
Continuous
 62
     0
100
AcDbTrace
 10
267.994452
 20
199.022437
 30
0.0
 11
272.994558
 21
200.022118
 31
0.0
 12
267.994452
 22
201.022224
 32
0.0
 13
267.994452
 23
201.022224
 33
0.0
  0
ENDBLK
  5
21B
100
AcDbEntity
  8
0
100
AcDbBlockEnd
  0
BLOCK
  5
21E
100
AcDbEntity
  8
0
100
AcDbBlockBegin
  2
*B20
 70
     0
 10
0.0
 20
0.0
 30
0.0
  3
*B20
  1

  0
LINE
  5
21F
100
AcDbEntity
  8
0
  6
Continuous
 62
     0
100
AcDbLine
 10
262.994771
 20
40.999678
 30
0.0
 11
294.994769
 21
40.999678
 31
0.0
  0
SOLID
  5
220
100
AcDbEntity
  8
0
  6
Continuous
 62
     0
100
AcDbTrace
 10
267.994452
 20
39.999572
 30
0.0
 11
272.994558
 21
40.999678
 31
0.0
 12
267.994452
 22
41.999359
 32
0.0
 13
267.994452
 23
41.999359
 33
0.0
  0
SOLID
  5
221
100
AcDbEntity
  8
0
  6
Continuous
 62
     0
100
AcDbTrace
 10
289.994663
 20
41.999359
 30
0.0
 11
284.994557
 21
40.999678
 31
0.0
 12
289.994663
 22
39.999572
 32
0.0
 13
289.994663
 23
39.999572
 33
0.0
  0
ENDBLK
  5
222
100
AcDbEntity
  8
0
100
AcDbBlockEnd
  0
BLOCK
  5
225
100
AcDbEntity
  8
0
100
AcDbBlockBegin
  2
*B21
 70
     0
 10
0.0
 20
0.0
 30
0.0
  3
*B21
  1

  0
LINE
  5
226
100
AcDbEntity
  8
0
  6
Continuous
 62
     0
100
AcDbLine
 10
205.994668
 20
40.999678
 30
0.0
 11
173.99467
 21
40.999678
 31
0.0
  0
SOLID
  5
227
100
AcDbEntity
  8
0
  6
Continuous
 62
     0
100
AcDbTrace
 10
200.994562
 20
41.999359
 30
0.0
 11
195.994456
 21
40.999678
 31
0.0
 12
200.994562
 22
39.999572
 32
0.0
 13
200.994562
 23
39.999572
 33
0.0
  0
SOLID
  5
228
100
AcDbEntity
  8
0
  6
Continuous
 62
     0
100
AcDbTrace
 10
178.994776
 20
39.999572
 30
0.0
 11
183.994882
 21
40.999678
 31
0.0
 12
178.994776
 22
41.999359
 32
0.0
 13
178.994776
 23
41.999359
 33
0.0
  0
ENDBLK
  5
229
100
AcDbEntity
  8
0
100
AcDbBlockEnd
  0
BLOCK
  5
22C
100
AcDbEntity
  8
0
100
AcDbBlockBegin
  2
*B22
 70
     0
 10
0.0
 20
0.0
 30
0.0
  3
*B22
  1

  0
LINE
  5
22D
100
AcDbEntity
  8
0
  6
Continuous
 62
     0
100
AcDbLine
 10
317.494608
 20
200.022118
 30
0.0
 11
361.994659
 21
200.022118
 31
0.0
  0
SOLID
  5
22E
100
AcDbEntity
  8
0
  6
Continuous
 62
     0
100
AcDbTrace
 10
322.494714
 20
201.022224
 30
0.0
 11
317.494608
 21
200.022118
 31
0.0
 12
322.494714
 22
199.022437
 32
0.0
 13
322.494714
 23
199.022437
 33
0.0
  0
SOLID
  5
22F
100
AcDbEntity
  8
0
  6
Continuous
 62
     0
100
AcDbTrace
 10
356.994553
 20
199.022437
 30
0.0
 11
361.994659
 21
200.022118
 31
0.0
 12
356.994553
 22
201.022224
 32
0.0
 13
356.994553
 23
201.022224
 33
0.0
  0
ENDBLK
  5
230
100
AcDbEntity
  8
0
100
AcDbBlockEnd
  0
BLOCK
  5
233
100
AcDbEntity
  8
0
100
AcDbBlockBegin
  2
*B23
 70
     0
 10
0.0
 20
0.0
 30
0.0
  3
*B23
  1

  0
LINE
  5
234
100
AcDbEntity
  8
0
  6
Continuous
 62
     0
100
AcDbLine
 10
361.994659
 20
200.022118
 30
0.0
 11
406.494709
 21
200.022118
 31
0.0
  0
SOLID
  5
235
100
AcDbEntity
  8
0
  6
Continuous
 62
     0
100
AcDbTrace
 10
366.994765
 20
201.022224
 30
0.0
 11
361.994659
 21
200.022118
 31
0.0
 12
366.994765
 22
199.022437
 32
0.0
 13
366.994765
 23
199.022437
 33
0.0
  0
SOLID
  5
236
100
AcDbEntity
  8
0
  6
Continuous
 62
     0
100
AcDbTrace
 10
401.494603
 20
199.022437
 30
0.0
 11
406.494709
 21
200.022118
 31
0.0
 12
401.494603
 22
201.022224
 32
0.0
 13
401.494603
 23
201.022224
 33
0.0
  0
ENDBLK
  5
237
100
AcDbEntity
  8
0
100
AcDbBlockEnd
  0
BLOCK
  5
23A
100
AcDbEntity
  8
0
100
AcDbBlockBegin
  2
*B24
 70
     0
 10
0.0
 20
0.0
 30
0.0
  3
*B24
  1

  0
LINE
  5
23B
100
AcDbEntity
  8
0
  6
Continuous
 62
     0
100
AcDbLine
 10
272.994558
 20
200.022118
 30
0.0
 11
317.494608
 21
200.022118
 31
0.0
  0
SOLID
  5
23C
100
AcDbEntity
  8
0
  6
Continuous
 62
     0
100
AcDbTrace
 10
277.994664
 20
201.022224
 30
0.0
 11
272.994558
 21
200.022118
 31
0.0
 12
277.994664
 22
199.022437
 32
0.0
 13
277.994664
 23
199.022437
 33
0.0
  0
SOLID
  5
23D
100
AcDbEntity
  8
0
  6
Continuous
 62
     0
100
AcDbTrace
 10
312.494502
 20
199.022437
 30
0.0
 11
317.494608
 21
200.022118
 31
0.0
 12
312.494502
 22
201.022224
 32
0.0
 13
312.494502
 23
201.022224
 33
0.0
  0
ENDBLK
  5
23E
100
AcDbEntity
  8
0
100
AcDbBlockEnd
  0
BLOCK
  5
241
100
AcDbEntity
  8
0
100
AcDbBlockBegin
  2
*B25
 70
     0
 10
0.0
 20
0.0
 30
0.0
  3
*B25
  1

  0
LINE
  5
242
100
AcDbEntity
  8
0
  6
Continuous
 62
     0
100
AcDbLine
 10
172.036164
 20
92.415783
 30
0.0
 11
172.036164
 21
158.89349
 31
0.0
  0
SOLID
  5
243
100
AcDbEntity
  8
0
  6
Continuous
 62
     0
100
AcDbTrace
 10
173.03627
 20
97.41589
 30
0.0
 11
172.036164
 21
102.41557
 31
0.0
 12
171.036483
 22
97.41589
 32
0.0
 13
171.036483
 23
97.41589
 33
0.0
  0
SOLID
  5
244
100
AcDbEntity
  8
0
  6
Continuous
 62
     0
100
AcDbTrace
 10
171.036483
 20
130.915196
 30
0.0
 11
172.036164
 21
125.915515
 31
0.0
 12
173.03627
 22
130.915196
 32
0.0
 13
173.03627
 23
130.915196
 33
0.0
  0
ENDBLK
  5
245
100
AcDbEntity
  8
0
100
AcDbBlockEnd
  0
BLOCK
  5
248
100
AcDbEntity
  8
0
100
AcDbBlockBegin
  2
*B26
 70
     0
 10
0.0
 20
0.0
 30
0.0
  3
*B26
  1

  0
LINE
  5
249
100
AcDbEntity
  8
0
  6
Continuous
 62
     0
100
AcDbLine
 10
228.494507
 20
200.022118
 30
0.0
 11
183.994882
 21
200.022118
 31
0.0
  0
SOLID
  5
24A
100
AcDbEntity
  8
0
  6
Continuous
 62
     0
100
AcDbTrace
 10
223.494827
 20
199.022437
 30
0.0
 11
228.494507
 21
200.022118
 31
0.0
 12
223.494827
 22
201.022224
 32
0.0
 13
223.494827
 23
201.022224
 33
0.0
  0
SOLID
  5
24B
100
AcDbEntity
  8
0
  6
Continuous
 62
     0
100
AcDbTrace
 10
188.994563
 20
201.022224
 30
0.0
 11
183.994882
 21
200.022118
 31
0.0
 12
188.994563
 22
199.022437
 32
0.0
 13
188.994563
 23
199.022437
 33
0.0
  0
ENDBLK
  5
24C
100
AcDbEntity
  8
0
100
AcDbBlockEnd
  0
BLOCK
  5
24F
100
AcDbEntity
  8
0
100
AcDbBlockBegin
  2
*B27
 70
     0
 10
0.0
 20
0.0
 30
0.0
  3
*B27
  1

  0
LINE
  5
250
100
AcDbEntity
  8
0
  6
Continuous
 62
     0
100
AcDbLine
 10
211.994455
 20
40.999678
 30
0.0
 11
244.994559
 21
40.999678
 31
0.0
  0
SOLID
  5
251
100
AcDbEntity
  8
0
  6
Continuous
 62
     0
100
AcDbTrace
 10
216.994561
 20
41.999359
 30
0.0
 11
211.994455
 21
40.999678
 31
0.0
 12
216.994561
 22
39.999572
 32
0.0
 13
216.994561
 23
39.999572
 33
0.0
  0
SOLID
  5
252
100
AcDbEntity
  8
0
  6
Continuous
 62
     0
100
AcDbTrace
 10
239.994453
 20
39.999572
 30
0.0
 11
244.994559
 21
40.999678
 31
0.0
 12
239.994453
 22
41.999359
 32
0.0
 13
239.994453
 23
41.999359
 33
0.0
  0
ENDBLK
  5
253
100
AcDbEntity
  8
0
100
AcDbBlockEnd
  0
BLOCK
  5
256
100
AcDbEntity
  8
0
100
AcDbBlockBegin
  2
*B28
 70
     0
 10
0.0
 20
0.0
 30
0.0
  3
*B28
  1

  0
LINE
  5
257
100
AcDbEntity
  8
0
  6
Continuous
 62
     0
100
AcDbLine
 10
406.494709
 20
200.022118
 30
0.0
 11
450.994334
 21
200.022118
 31
0.0
  0
SOLID
  5
258
100
AcDbEntity
  8
0
  6
Continuous
 62
     0
100
AcDbTrace
 10
411.49439
 20
201.022224
 30
0.0
 11
406.494709
 21
200.022118
 31
0.0
 12
411.49439
 22
199.022437
 32
0.0
 13
411.49439
 23
199.022437
 33
0.0
  0
SOLID
  5
259
100
AcDbEntity
  8
0
  6
Continuous
 62
     0
100
AcDbTrace
 10
445.994654
 20
199.022437
 30
0.0
 11
450.994334
 21
200.022118
 31
0.0
 12
445.994654
 22
201.022224
 32
0.0
 13
445.994654
 23
201.022224
 33
0.0
  0
ENDBLK
  5
25A
100
AcDbEntity
  8
0
100
AcDbBlockEnd
  0
BLOCK
  5
25D
100
AcDbEntity
  8
0
100
AcDbBlockBegin
  2
*B29
 70
     0
 10
0.0
 20
0.0
 30
0.0
  3
*B29
  1

  0
LINE
  5
25E
100
AcDbEntity
  8
0
  6
Continuous
 62
     0
100
AcDbLine
 10
296.971575
 20
140.165116
 30
0.0
 11
296.971575
 21
88.16597
 31
0.0
  0
SOLID
  5
25F
100
AcDbEntity
  8
0
  6
Continuous
 62
     0
100
AcDbTrace
 10
295.971469
 20
135.165009
 30
0.0
 11
296.971575
 21
130.165329
 31
0.0
 12
297.971681
 22
135.165009
 32
0.0
 13
297.971681
 23
135.165009
 33
0.0
  0
SOLID
  5
260
100
AcDbEntity
  8
0
  6
Continuous
 62
     0
100
AcDbTrace
 10
297.971681
 20
93.16565
 30
0.0
 11
296.971575
 21
98.165756
 31
0.0
 12
295.971469
 22
93.16565
 32
0.0
 13
295.971469
 23
93.16565
 33
0.0
  0
ENDBLK
  5
261
100
AcDbEntity
  8
0
100
AcDbBlockEnd
  0
BLOCK
  5
264
100
AcDbEntity
  8
0
100
AcDbBlockBegin
  2
*B30
 70
     0
 10
0.0
 20
0.0
 30
0.0
  3
*B30
  1

  0
LINE
  5
265
100
AcDbEntity
  8
0
  6
Continuous
 62
     0
100
AcDbLine
 10
493.036251
 20
160.164689
 30
0.0
 11
493.036251
 21
68.166397
 31
0.0
  0
SOLID
  5
266
100
AcDbEntity
  8
0
  6
Continuous
 62
     0
100
AcDbTrace
 10
494.036357
 20
155.165008
 30
0.0
 11
493.036251
 21
160.164689
 31
0.0
 12
492.036145
 22
155.165008
 32
0.0
 13
492.036145
 23
155.165008
 33
0.0
  0
SOLID
  5
267
100
AcDbEntity
  8
0
  6
Continuous
 62
     0
100
AcDbTrace
 10
492.036145
 20
73.166077
 30
0.0
 11
493.036251
 21
68.166397
 31
0.0
 12
494.036357
 22
73.166077
 32
0.0
 13
494.036357
 23
73.166077
 33
0.0
  0
ENDBLK
  5
268
100
AcDbEntity
  8
0
100
AcDbBlockEnd
  0
BLOCK
  5
26B
100
AcDbEntity
  8
0
100
AcDbBlockBegin
  2
*B31
 70
     0
 10
0.0
 20
0.0
 30
0.0
  3
*B31
  1

  0
LINE
  5
26C
100
AcDbEntity
  8
0
  6
Continuous
 62
     0
100
AcDbLine
 10
148.036165
 20
337.688245
 30
0.0
 11
148.036165
 21
381.687391
 31
0.0
  0
SOLID
  5
26D
100
AcDbEntity
  8
0
  6
Continuous
 62
     0
100
AcDbTrace
 10
147.036484
 20
342.687925
 30
0.0
 11
148.036165
 21
337.688245
 31
0.0
 12
149.036272
 22
342.687925
 32
0.0
 13
149.036272
 23
342.687925
 33
0.0
  0
SOLID
  5
26E
100
AcDbEntity
  8
0
  6
Continuous
 62
     0
100
AcDbTrace
 10
149.036272
 20
376.687285
 30
0.0
 11
148.036165
 21
381.687391
 31
0.0
 12
147.036484
 22
376.687285
 32
0.0
 13
147.036484
 23
376.687285
 33
0.0
  0
ENDBLK
  5
26F
100
AcDbEntity
  8
0
100
AcDbBlockEnd
  0
BLOCK
  5
272
100
AcDbEntity
  8
0
100
AcDbBlockBegin
  2
*B32
 70
     0
 10
0.0
 20
0.0
 30
0.0
  3
*B32
  1

  0
LINE
  5
273
100
AcDbEntity
  8
0
  6
Continuous
 62
     0
100
AcDbLine
 10
148.036165
 20
54.16661
 30
0.0
 11
148.036165
 21
174.164475
 31
0.0
  0
SOLID
  5
274
100
AcDbEntity
  8
0
  6
Continuous
 62
     0
100
AcDbTrace
 10
147.036484
 20
59.166291
 30
0.0
 11
148.036165
 21
54.16661
 31
0.0
 12
149.036272
 22
59.166291
 32
0.0
 13
149.036272
 23
59.166291
 33
0.0
  0
SOLID
  5
275
100
AcDbEntity
  8
0
  6
Continuous
 62
     0
100
AcDbTrace
 10
149.036272
 20
169.164795
 30
0.0
 11
148.036165
 21
174.164475
 31
0.0
 12
147.036484
 22
169.164795
 32
0.0
 13
147.036484
 23
169.164795
 33
0.0
  0
ENDBLK
  5
276
100
AcDbEntity
  8
0
100
AcDbBlockEnd
  0
BLOCK
  5
279
100
AcDbEntity
  8
0
100
AcDbBlockBegin
  2
*B33
 70
     0
 10
0.0
 20
0.0
 30
0.0
  3
*B33
  1

  0
LINE
  5
27A
100
AcDbEntity
  8
0
  6
Continuous
 62
     0
100
AcDbLine
 10
338.607066
 20
40.999678
 30
0.0
 11
376.994551
 21
40.999678
 31
0.0
  0
SOLID
  5
27B
100
AcDbEntity
  8
0
  6
Continuous
 62
     0
100
AcDbTrace
 10
351.994447
 20
39.999572
 30
0.0
 11
356.994553
 21
40.999678
 31
0.0
 12
351.994447
 22
41.999359
 32
0.0
 13
351.994447
 23
41.999359
 33
0.0
  0
SOLID
  5
27C
100
AcDbEntity
  8
0
  6
Continuous
 62
     0
100
AcDbTrace
 10
371.994445
 20
41.999359
 30
0.0
 11
366.994765
 21
40.999678
 31
0.0
 12
371.994445
 22
39.999572
 32
0.0
 13
371.994445
 23
39.999572
 33
0.0
  0
ENDBLK
  5
27D
100
AcDbEntity
  8
0
100
AcDbBlockEnd
  0
BLOCK
  5
280
100
AcDbEntity
  8
0
100
AcDbBlockBegin
  2
*B34
 70
     0
 10
0.0
 20
0.0
 30
0.0
  3
*B34
  1

  0
LINE
  5
281
100
AcDbEntity
  8
0
  6
Continuous
 62
     8
100
AcDbLine
 10
170.036377
 20
102.41557
 30
0.0
 11
181.994669
 21
102.41557
 31
0.0
  0
ENDBLK
  5
282
100
AcDbEntity
  8
0
100
AcDbBlockEnd
  0
BLOCK
  5
285
100
AcDbEntity
  8
0
100
AcDbBlockBegin
  2
*B35
 70
     0
 10
0.0
 20
0.0
 30
0.0
  3
*B35
  1

  0
LINE
  5
286
100
AcDbEntity
  8
0
  6
Continuous
 62
     8
100
AcDbLine
 10
272.244691
 20
321.688246
 30
0.0
 11
281.994663
 21
321.688246
 31
0.0
  0
LINE
  5
287
100
AcDbEntity
  8
0
  6
Continuous
 62
     8
100
AcDbLine
 10
287.99445
 20
321.688246
 30
0.0
 11
297.744423
 21
321.688246
 31
0.0
  0
ENDBLK
  5
288
100
AcDbEntity
  8
0
100
AcDbBlockEnd
  0
BLOCK
  5
28B
100
AcDbEntity
  8
0
100
AcDbBlockBegin
  2
*B36
 70
     0
 10
0.0
 20
0.0
 30
0.0
  3
*B36
  1

  0
LINE
  5
28C
100
AcDbEntity
  8
0
  6
Continuous
 62
     8
100
AcDbLine
 10
361.244366
 20
321.688246
 30
0.0
 11
370.994765
 21
321.688246
 31
0.0
  0
LINE
  5
28D
100
AcDbEntity
  8
0
  6
Continuous
 62
     8
100
AcDbLine
 10
376.994551
 20
321.688246
 30
0.0
 11
386.744524
 21
321.688246
 31
0.0
  0
ENDBLK
  5
28E
100
AcDbEntity
  8
0
100
AcDbBlockEnd
  0
BLOCK
  5
291
100
AcDbEntity
  8
0
100
AcDbBlockBegin
  2
*B37
 70
     0
 10
0.0
 20
0.0
 30
0.0
  3
*B37
  1

  0
LINE
  5
292
100
AcDbEntity
  8
0
  6
Continuous
 62
     8
100
AcDbLine
 10
316.744741
 20
321.688246
 30
0.0
 11
326.494714
 21
321.688246
 31
0.0
  0
LINE
  5
293
100
AcDbEntity
  8
0
  6
Continuous
 62
     8
100
AcDbLine
 10
332.494501
 20
321.688246
 30
0.0
 11
342.244474
 21
321.688246
 31
0.0
  0
ENDBLK
  5
294
100
AcDbEntity
  8
0
100
AcDbBlockEnd
  0
BLOCK
  5
297
100
AcDbEntity
  8
0
100
AcDbBlockBegin
  2
*B38
 70
     0
 10
0.0
 20
0.0
 30
0.0
  3
*B38
  1

  0
LINE
  5
298
100
AcDbEntity
  8
0
  6
Continuous
 62
     8
100
AcDbLine
 10
405.744417
 20
321.688246
 30
0.0
 11
415.49439
 21
321.688246
 31
0.0
  0
LINE
  5
299
100
AcDbEntity
  8
0
  6
Continuous
 62
     8
100
AcDbLine
 10
421.494602
 20
321.688246
 30
0.0
 11
431.244575
 21
321.688246
 31
0.0
  0
ENDBLK
  5
29A
100
AcDbEntity
  8
0
100
AcDbBlockEnd
  0
BLOCK
  5
29D
100
AcDbEntity
  8
0
100
AcDbBlockBegin
  2
*B39
 70
     0
 10
0.0
 20
0.0
 30
0.0
  3
*B39
  1

  0
LINE
  5
29E
100
AcDbEntity
  8
0
  6
Continuous
 62
     8
100
AcDbLine
 10
164.971583
 20
321.688246
 30
0.0
 11
168.971583
 21
321.688246
 31
0.0
  0
LINE
  5
29F
100
AcDbEntity
  8
0
  6
Continuous
 62
     8
100
AcDbLine
 10
168.971583
 20
321.688246
 30
0.0
 11
178.676019
 21
321.688246
 31
0.0
  0
LINE
  5
2A0
100
AcDbEntity
  8
0
  6
Continuous
 62
     8
100
AcDbLine
 10
180.676231
 20
321.688246
 30
0.0
 11
181.676338
 21
321.688246
 31
0.0
  0
LINE
  5
2A1
100
AcDbEntity
  8
0
  6
Continuous
 62
     8
100
AcDbLine
 10
183.676125
 20
321.688246
 30
0.0
 11
193.380986
 21
321.688246
 31
0.0
  0
LINE
  5
2A2
100
AcDbEntity
  8
0
  6
Continuous
 62
     8
100
AcDbLine
 10
195.380774
 20
321.688246
 30
0.0
 11
196.38088
 21
321.688246
 31
0.0
  0
LINE
  5
2A3
100
AcDbEntity
  8
0
  6
Continuous
 62
     8
100
AcDbLine
 10
198.380667
 20
321.688246
 30
0.0
 11
208.085529
 21
321.688246
 31
0.0
  0
LINE
  5
2A4
100
AcDbEntity
  8
0
  6
Continuous
 62
     8
100
AcDbLine
 10
210.085316
 20
321.688246
 30
0.0
 11
211.085422
 21
321.688246
 31
0.0
  0
LINE
  5
2A5
100
AcDbEntity
  8
0
  6
Continuous
 62
     8
100
AcDbLine
 10
213.085209
 20
321.688246
 30
0.0
 11
222.790071
 21
321.688246
 31
0.0
  0
LINE
  5
2A6
100
AcDbEntity
  8
0
  6
Continuous
 62
     8
100
AcDbLine
 10
224.789858
 20
321.688246
 30
0.0
 11
225.789964
 21
321.688246
 31
0.0
  0
LINE
  5
2A7
100
AcDbEntity
  8
0
  6
Continuous
 62
     8
100
AcDbLine
 10
227.790177
 20
321.688246
 30
0.0
 11
237.494613
 21
321.688246
 31
0.0
  0
LINE
  5
2A8
100
AcDbEntity
  8
0
  6
Continuous
 62
     8
100
AcDbLine
 10
243.494825
 20
321.688246
 30
0.0
 11
253.244798
 21
321.688246
 31
0.0
  0
ENDBLK
  5
2A9
100
AcDbEntity
  8
0
100
AcDbBlockEnd
  0
BLOCK
  5
2AC
100
AcDbEntity
  8
0
100
AcDbBlockBegin
  2
*B40
 70
     0
 10
0.0
 20
0.0
 30
0.0
  3
*B40
  1

  0
LINE
  5
2AD
100
AcDbEntity
  8
0
  6
Continuous
 62
     8
100
AcDbLine
 10
378.494711
 20
153.664849
 30
0.0
 11
378.494711
 21
157.164795
 31
0.0
  0
LINE
  5
2AE
100
AcDbEntity
  8
0
  6
Continuous
 62
     8
100
AcDbLine
 10
378.494711
 20
163.164582
 30
0.0
 11
378.494711
 21
166.664529
 31
0.0
  0
ENDBLK
  5
2AF
100
AcDbEntity
  8
0
100
AcDbBlockEnd
  0
BLOCK
  5
2B2
100
AcDbEntity
  8
0
100
AcDbBlockBegin
  2
*B41
 70
     0
 10
0.0
 20
0.0
 30
0.0
  3
*B41
  1

  0
LINE
  5
2B3
100
AcDbEntity
  8
0
  6
Continuous
 62
     8
100
AcDbLine
 10
438.994761
 20
273.6891
 30
0.0
 11
438.994761
 21
283.288844
 31
0.0
  0
LINE
  5
2B4
100
AcDbEntity
  8
0
  6
Continuous
 62
     8
100
AcDbLine
 10
438.994761
 20
285.289056
 30
0.0
 11
438.994761
 21
286.288737
 31
0.0
  0
LINE
  5
2B5
100
AcDbEntity
  8
0
  6
Continuous
 62
     8
100
AcDbLine
 10
438.994761
 20
288.28895
 30
0.0
 11
438.994761
 21
297.888694
 31
0.0
  0
LINE
  5
2B6
100
AcDbEntity
  8
0
  6
Continuous
 62
     8
100
AcDbLine
 10
438.994761
 20
299.888481
 30
0.0
 11
438.994761
 21
300.888587
 31
0.0
  0
LINE
  5
2B7
100
AcDbEntity
  8
0
  6
Continuous
 62
     8
100
AcDbLine
 10
438.994761
 20
302.8888
 30
0.0
 11
438.994761
 21
312.488544
 31
0.0
  0
LINE
  5
2B8
100
AcDbEntity
  8
0
  6
Continuous
 62
     8
100
AcDbLine
 10
438.994761
 20
314.488331
 30
0.0
 11
438.994761
 21
315.488437
 31
0.0
  0
LINE
  5
2B9
100
AcDbEntity
  8
0
  6
Continuous
 62
     8
100
AcDbLine
 10
438.994761
 20
317.488225
 30
0.0
 11
438.994761
 21
327.088394
 31
0.0
  0
LINE
  5
2BA
100
AcDbEntity
  8
0
  6
Continuous
 62
     8
100
AcDbLine
 10
438.994761
 20
329.088181
 30
0.0
 11
438.994761
 21
330.088288
 31
0.0
  0
LINE
  5
2BB
100
AcDbEntity
  8
0
  6
Continuous
 62
     8
100
AcDbLine
 10
438.994761
 20
332.088075
 30
0.0
 11
438.994761
 21
341.688244
 31
0.0
  0
ENDBLK
  5
2BC
100
AcDbEntity
  8
0
100
AcDbBlockEnd
  0
BLOCK
  5
2BF
100
AcDbEntity
  8
0
100
AcDbBlockBegin
  2
*B42
 70
     0
 10
0.0
 20
0.0
 30
0.0
  3
*B42
  1

  0
LINE
  5
2C0
100
AcDbEntity
  8
0
  6
Continuous
 62
     8
100
AcDbLine
 10
438.994761
 20
39.999572
 30
0.0
 11
438.994761
 21
43.999572
 31
0.0
  0
LINE
  5
2C1
100
AcDbEntity
  8
0
  6
Continuous
 62
     8
100
AcDbLine
 10
438.994761
 20
43.999572
 30
0.0
 11
438.994761
 21
53.432915
 31
0.0
  0
LINE
  5
2C2
100
AcDbEntity
  8
0
  6
Continuous
 62
     8
100
AcDbLine
 10
438.994761
 20
55.432702
 30
0.0
 11
438.994761
 21
56.432809
 31
0.0
  0
LINE
  5
2C3
100
AcDbEntity
  8
0
  6
Continuous
 62
     8
100
AcDbLine
 10
438.994761
 20
58.432596
 30
0.0
 11
438.994761
 21
67.865939
 31
0.0
  0
LINE
  5
2C4
100
AcDbEntity
  8
0
  6
Continuous
 62
     8
100
AcDbLine
 10
438.994761
 20
69.865726
 30
0.0
 11
438.994761
 21
70.865833
 31
0.0
  0
LINE
  5
2C5
100
AcDbEntity
  8
0
  6
Continuous
 62
     8
100
AcDbLine
 10
438.994761
 20
72.866045
 30
0.0
 11
438.994761
 21
82.298963
 31
0.0
  0
LINE
  5
2C6
100
AcDbEntity
  8
0
  6
Continuous
 62
     8
100
AcDbLine
 10
438.994761
 20
84.299176
 30
0.0
 11
438.994761
 21
85.299282
 31
0.0
  0
LINE
  5
2C7
100
AcDbEntity
  8
0
  6
Continuous
 62
     8
100
AcDbLine
 10
438.994761
 20
87.299069
 30
0.0
 11
438.994761
 21
96.732413
 31
0.0
  0
LINE
  5
2C8
100
AcDbEntity
  8
0
  6
Continuous
 62
     8
100
AcDbLine
 10
438.994761
 20
98.7322
 30
0.0
 11
438.994761
 21
99.732306
 31
0.0
  0
LINE
  5
2C9
100
AcDbEntity
  8
0
  6
Continuous
 62
     8
100
AcDbLine
 10
438.994761
 20
101.732093
 30
0.0
 11
438.994761
 21
111.165437
 31
0.0
  0
LINE
  5
2CA
100
AcDbEntity
  8
0
  6
Continuous
 62
     8
100
AcDbLine
 10
438.994761
 20
117.165649
 30
0.0
 11
438.994761
 21
122.665383
 31
0.0
  0
ENDBLK
  5
2CB
100
AcDbEntity
  8
0
100
AcDbBlockEnd
  0
BLOCK
  5
2CE
100
AcDbEntity
  8
0
100
AcDbBlockBegin
  2
*B43
 70
     0
 10
0.0
 20
0.0
 30
0.0
  3
*B43
  1

  0
LINE
  5
2CF
100
AcDbEntity
  8
0
  6
Continuous
 62
     8
100
AcDbLine
 10
216.494508
 20
121.165223
 30
0.0
 11
216.494508
 21
127.165436
 31
0.0
  0
LINE
  5
2D0
100
AcDbEntity
  8
0
  6
Continuous
 62
     8
100
AcDbLine
 10
216.494508
 20
133.165222
 30
0.0
 11
216.494508
 21
139.165009
 31
0.0
  0
ENDBLK
  5
2D1
100
AcDbEntity
  8
0
100
AcDbBlockEnd
  0
BLOCK
  5
2D4
100
AcDbEntity
  8
0
100
AcDbBlockBegin
  2
*B44
 70
     0
 10
0.0
 20
0.0
 30
0.0
  3
*B44
  1

  0
LINE
  5
2D5
100
AcDbEntity
  8
0
  6
Continuous
 62
     8
100
AcDbLine
 10
146.036378
 20
381.687391
 30
0.0
 11
205.494615
 21
381.687391
 31
0.0
  0
ENDBLK
  5
2D6
100
AcDbEntity
  8
0
100
AcDbBlockEnd
  0
BLOCK
  5
2D9
100
AcDbEntity
  8
0
100
AcDbBlockBegin
  2
*B45
 70
     0
 10
0.0
 20
0.0
 30
0.0
  3
*B45
  1

  0
LINE
  5
2DA
100
AcDbEntity
  8
0
  6
Continuous
 62
     8
100
AcDbLine
 10
216.494508
 20
229.464823
 30
0.0
 11
216.494508
 21
261.464396
 31
0.0
  0
LINE
  5
2DB
100
AcDbEntity
  8
0
  6
Continuous
 62
     8
100
AcDbLine
 10
216.494508
 20
261.464396
 30
0.0
 11
216.494508
 21
273.576747
 31
0.0
  0
LINE
  5
2DC
100
AcDbEntity
  8
0
  6
Continuous
 62
     8
100
AcDbLine
 10
216.494508
 20
275.576534
 30
0.0
 11
216.494508
 21
276.576641
 31
0.0
  0
LINE
  5
2DD
100
AcDbEntity
  8
0
  6
Continuous
 62
     8
100
AcDbLine
 10
216.494508
 20
278.576428
 30
0.0
 11
216.494508
 21
290.688779
 31
0.0
  0
LINE
  5
2DE
100
AcDbEntity
  8
0
  6
Continuous
 62
     8
100
AcDbLine
 10
216.494508
 20
296.688566
 30
0.0
 11
216.494508
 21
306.438539
 31
0.0
  0
ENDBLK
  5
2DF
100
AcDbEntity
  8
0
100
AcDbBlockEnd
  0
BLOCK
  5
2E2
100
AcDbEntity
  8
0
100
AcDbBlockBegin
  2
*B46
 70
     0
 10
0.0
 20
0.0
 30
0.0
  3
*B46
  1

  0
LINE
  5
2E3
100
AcDbEntity
  8
0
  6
Continuous
 62
     8
100
AcDbLine
 10
317.494608
 20
73.166077
 30
0.0
 11
317.494608
 21
79.165864
 31
0.0
  0
LINE
  5
2E4
100
AcDbEntity
  8
0
  6
Continuous
 62
     8
100
AcDbLine
 10
317.494608
 20
85.166076
 30
0.0
 11
317.494608
 21
91.165863
 31
0.0
  0
ENDBLK
  5
2E5
100
AcDbEntity
  8
0
100
AcDbBlockEnd
  0
BLOCK
  5
2E8
100
AcDbEntity
  8
0
100
AcDbBlockBegin
  2
*B47
 70
     0
 10
0.0
 20
0.0
 30
0.0
  3
*B47
  1

  0
LINE
  5
2E9
100
AcDbEntity
  8
0
  6
Continuous
 62
     8
100
AcDbLine
 10
183.994882
 20
38.999466
 30
0.0
 11
183.994882
 21
52.166398
 31
0.0
  0
LINE
  5
2EA
100
AcDbEntity
  8
0
  6
Continuous
 62
     8
100
AcDbLine
 10
183.994882
 20
176.164688
 30
0.0
 11
183.994882
 21
202.022331
 31
0.0
  0
ENDBLK
  5
2EB
100
AcDbEntity
  8
0
100
AcDbBlockEnd
  0
BLOCK
  5
2EE
100
AcDbEntity
  8
0
100
AcDbBlockBegin
  2
*B48
 70
     0
 10
0.0
 20
0.0
 30
0.0
  3
*B48
  1

  0
LINE
  5
2EF
100
AcDbEntity
  8
0
  6
Continuous
 62
     8
100
AcDbLine
 10
345.494606
 20
61.666131
 30
0.0
 11
345.494606
 21
65.166078
 31
0.0
  0
LINE
  5
2F0
100
AcDbEntity
  8
0
  6
Continuous
 62
     8
100
AcDbLine
 10
345.494606
 20
71.16629
 30
0.0
 11
345.494606
 21
74.666237
 31
0.0
  0
ENDBLK
  5
2F1
100
AcDbEntity
  8
0
100
AcDbBlockEnd
  0
BLOCK
  5
2F4
100
AcDbEntity
  8
0
100
AcDbBlockBegin
  2
*B49
 70
     0
 10
0.0
 20
0.0
 30
0.0
  3
*B49
  1

  0
LINE
  5
2F5
100
AcDbEntity
  8
0
  6
Continuous
 62
     8
100
AcDbLine
 10
146.036378
 20
174.164475
 30
0.0
 11
181.994669
 21
174.164475
 31
0.0
  0
ENDBLK
  5
2F6
100
AcDbEntity
  8
0
100
AcDbBlockEnd
  0
BLOCK
  5
2F9
100
AcDbEntity
  8
0
100
AcDbBlockBegin
  2
*B50
 70
     0
 10
0.0
 20
0.0
 30
0.0
  3
*B50
  1

  0
LINE
  5
2FA
100
AcDbEntity
  8
0
  6
Continuous
 62
     8
100
AcDbLine
 10
272.994558
 20
198.022331
 30
0.0
 11
272.994558
 21
202.022331
 31
0.0
  0
LINE
  5
2FB
100
AcDbEntity
  8
0
  6
Continuous
 62
     8
100
AcDbLine
 10
272.994558
 20
137.165222
 30
0.0
 11
272.994558
 21
143.165009
 31
0.0
  0
LINE
  5
2FC
100
AcDbEntity
  8
0
  6
Continuous
 62
     8
100
AcDbLine
 10
272.994558
 20
149.164796
 30
0.0
 11
272.994558
 21
157.629526
 31
0.0
  0
LINE
  5
2FD
100
AcDbEntity
  8
0
  6
Continuous
 62
     8
100
AcDbLine
 10
272.994558
 20
159.629313
 30
0.0
 11
272.994558
 21
160.629419
 31
0.0
  0
LINE
  5
2FE
100
AcDbEntity
  8
0
  6
Continuous
 62
     8
100
AcDbLine
 10
272.994558
 20
162.629206
 30
0.0
 11
272.994558
 21
171.09351
 31
0.0
  0
LINE
  5
2FF
100
AcDbEntity
  8
0
  6
Continuous
 62
     8
100
AcDbLine
 10
272.994558
 20
173.093723
 30
0.0
 11
272.994558
 21
174.093404
 31
0.0
  0
LINE
  5
300
100
AcDbEntity
  8
0
  6
Continuous
 62
     8
100
AcDbLine
 10
272.994558
 20
176.093616
 30
0.0
 11
272.994558
 21
184.557921
 31
0.0
  0
LINE
  5
301
100
AcDbEntity
  8
0
  6
Continuous
 62
     8
100
AcDbLine
 10
272.994558
 20
186.558133
 30
0.0
 11
272.994558
 21
187.557814
 31
0.0
  0
LINE
  5
302
100
AcDbEntity
  8
0
  6
Continuous
 62
     8
100
AcDbLine
 10
272.994558
 20
189.558027
 30
0.0
 11
272.994558
 21
198.022331
 31
0.0
  0
ENDBLK
  5
303
100
AcDbEntity
  8
0
100
AcDbBlockEnd
  0
BLOCK
  5
306
100
AcDbEntity
  8
0
100
AcDbBlockBegin
  2
*B51
 70
     0
 10
0.0
 20
0.0
 30
0.0
  3
*B51
  1

  0
LINE
  5
307
100
AcDbEntity
  8
0
  6
Continuous
 62
     8
100
AcDbLine
 10
373.994658
 20
308.938379
 30
0.0
 11
373.994658
 21
318.688352
 31
0.0
  0
LINE
  5
308
100
AcDbEntity
  8
0
  6
Continuous
 62
     8
100
AcDbLine
 10
373.994658
 20
324.688139
 30
0.0
 11
373.994658
 21
334.438112
 31
0.0
  0
ENDBLK
  5
309
100
AcDbEntity
  8
0
100
AcDbBlockEnd
  0
BLOCK
  5
30C
100
AcDbEntity
  8
0
100
AcDbBlockBegin
  2
*B52
 70
     0
 10
0.0
 20
0.0
 30
0.0
  3
*B52
  1

  0
LINE
  5
30D
100
AcDbEntity
  8
0
  6
Continuous
 62
     8
100
AcDbLine
 10
443.494388
 20
258.996048
 30
0.0
 11
443.494388
 21
275.688887
 31
0.0
  0
ENDBLK
  5
30E
100
AcDbEntity
  8
0
100
AcDbBlockEnd
  0
BLOCK
  5
311
100
AcDbEntity
  8
0
100
AcDbBlockBegin
  2
*B53
 70
     0
 10
0.0
 20
0.0
 30
0.0
  3
*B53
  1

  0
LINE
  5
312
100
AcDbEntity
  8
0
  6
Continuous
 62
     8
100
AcDbLine
 10
170.036377
 20
125.915515
 30
0.0
 11
181.994669
 21
125.915515
 31
0.0
  0
ENDBLK
  5
313
100
AcDbEntity
  8
0
100
AcDbBlockEnd
  0
BLOCK
  5
316
100
AcDbEntity
  8
0
100
AcDbBlockBegin
  2
*B54
 70
     0
 10
0.0
 20
0.0
 30
0.0
  3
*B54
  1

  0
LINE
  5
317
100
AcDbEntity
  8
0
  6
Continuous
 62
     8
100
AcDbLine
 10
317.494608
 20
198.022331
 30
0.0
 11
317.494608
 21
202.022331
 31
0.0
  0
LINE
  5
318
100
AcDbEntity
  8
0
  6
Continuous
 62
     8
100
AcDbLine
 10
317.494608
 20
137.165222
 30
0.0
 11
317.494608
 21
143.165009
 31
0.0
  0
LINE
  5
319
100
AcDbEntity
  8
0
  6
Continuous
 62
     8
100
AcDbLine
 10
317.494608
 20
149.164796
 30
0.0
 11
317.494608
 21
157.629526
 31
0.0
  0
LINE
  5
31A
100
AcDbEntity
  8
0
  6
Continuous
 62
     8
100
AcDbLine
 10
317.494608
 20
159.629313
 30
0.0
 11
317.494608
 21
160.629419
 31
0.0
  0
LINE
  5
31B
100
AcDbEntity
  8
0
  6
Continuous
 62
     8
100
AcDbLine
 10
317.494608
 20
162.629206
 30
0.0
 11
317.494608
 21
171.09351
 31
0.0
  0
LINE
  5
31C
100
AcDbEntity
  8
0
  6
Continuous
 62
     8
100
AcDbLine
 10
317.494608
 20
173.093723
 30
0.0
 11
317.494608
 21
174.093404
 31
0.0
  0
LINE
  5
31D
100
AcDbEntity
  8
0
  6
Continuous
 62
     8
100
AcDbLine
 10
317.494608
 20
176.093616
 30
0.0
 11
317.494608
 21
184.557921
 31
0.0
  0
LINE
  5
31E
100
AcDbEntity
  8
0
  6
Continuous
 62
     8
100
AcDbLine
 10
317.494608
 20
186.558133
 30
0.0
 11
317.494608
 21
187.557814
 31
0.0
  0
LINE
  5
31F
100
AcDbEntity
  8
0
  6
Continuous
 62
     8
100
AcDbLine
 10
317.494608
 20
189.558027
 30
0.0
 11
317.494608
 21
198.022331
 31
0.0
  0
ENDBLK
  5
320
100
AcDbEntity
  8
0
100
AcDbBlockEnd
  0
BLOCK
  5
323
100
AcDbEntity
  8
0
100
AcDbBlockBegin
  2
*B55
 70
     0
 10
0.0
 20
0.0
 30
0.0
  3
*B55
  1

  0
LINE
  5
324
100
AcDbEntity
  8
0
  6
Continuous
 62
     8
100
AcDbLine
 10
418.494709
 20
89.166076
 30
0.0
 11
418.494709
 21
95.165863
 31
0.0
  0
LINE
  5
325
100
AcDbEntity
  8
0
  6
Continuous
 62
     8
100
AcDbLine
 10
418.494709
 20
101.16565
 30
0.0
 11
418.494709
 21
107.165437
 31
0.0
  0
ENDBLK
  5
326
100
AcDbEntity
  8
0
100
AcDbBlockEnd
  0
BLOCK
  5
329
100
AcDbEntity
  8
0
100
AcDbBlockBegin
  2
*B56
 70
     0
 10
0.0
 20
0.0
 30
0.0
  3
*B56
  1

  0
LINE
  5
32A
100
AcDbEntity
  8
0
  6
Continuous
 62
     8
100
AcDbLine
 10
317.494608
 20
105.16565
 30
0.0
 11
317.494608
 21
111.165437
 31
0.0
  0
LINE
  5
32B
100
AcDbEntity
  8
0
  6
Continuous
 62
     8
100
AcDbLine
 10
317.494608
 20
117.165649
 30
0.0
 11
317.494608
 21
123.165436
 31
0.0
  0
ENDBLK
  5
32C
100
AcDbEntity
  8
0
100
AcDbBlockEnd
  0
BLOCK
  5
32F
100
AcDbEntity
  8
0
100
AcDbBlockBegin
  2
*B57
 70
     0
 10
0.0
 20
0.0
 30
0.0
  3
*B57
  1

  0
LINE
  5
330
100
AcDbEntity
  8
0
  6
Continuous
 62
     8
100
AcDbLine
 10
469.036252
 20
146.164902
 30
0.0
 11
473.036252
 21
146.164902
 31
0.0
  0
LINE
  5
331
100
AcDbEntity
  8
0
  6
Continuous
 62
     8
100
AcDbLine
 10
219.494827
 20
146.164902
 30
0.0
 11
225.494614
 21
146.164902
 31
0.0
  0
LINE
  5
332
100
AcDbEntity
  8
0
  6
Continuous
 62
     8
100
AcDbLine
 10
231.494826
 20
146.164902
 30
0.0
 11
240.99456
 21
146.164902
 31
0.0
  0
LINE
  5
333
100
AcDbEntity
  8
0
  6
Continuous
 62
     8
100
AcDbLine
 10
242.994772
 20
146.164902
 30
0.0
 11
243.994453
 21
146.164902
 31
0.0
  0
LINE
  5
334
100
AcDbEntity
  8
0
  6
Continuous
 62
     8
100
AcDbLine
 10
245.994666
 20
146.164902
 30
0.0
 11
255.494825
 21
146.164902
 31
0.0
  0
LINE
  5
335
100
AcDbEntity
  8
0
  6
Continuous
 62
     8
100
AcDbLine
 10
257.494612
 20
146.164902
 30
0.0
 11
258.494718
 21
146.164902
 31
0.0
  0
LINE
  5
336
100
AcDbEntity
  8
0
  6
Continuous
 62
     8
100
AcDbLine
 10
260.494505
 20
146.164902
 30
0.0
 11
269.994664
 21
146.164902
 31
0.0
  0
LINE
  5
337
100
AcDbEntity
  8
0
  6
Continuous
 62
     8
100
AcDbLine
 10
275.994451
 20
146.164902
 30
0.0
 11
285.49461
 21
146.164902
 31
0.0
  0
LINE
  5
338
100
AcDbEntity
  8
0
  6
Continuous
 62
     8
100
AcDbLine
 10
287.494823
 20
146.164902
 30
0.0
 11
288.494503
 21
146.164902
 31
0.0
  0
LINE
  5
339
100
AcDbEntity
  8
0
  6
Continuous
 62
     8
100
AcDbLine
 10
290.494716
 20
146.164902
 30
0.0
 11
299.99445
 21
146.164902
 31
0.0
  0
LINE
  5
33A
100
AcDbEntity
  8
0
  6
Continuous
 62
     8
100
AcDbLine
 10
301.994662
 20
146.164902
 30
0.0
 11
302.994769
 21
146.164902
 31
0.0
  0
LINE
  5
33B
100
AcDbEntity
  8
0
  6
Continuous
 62
     8
100
AcDbLine
 10
304.994556
 20
146.164902
 30
0.0
 11
314.494715
 21
146.164902
 31
0.0
  0
LINE
  5
33C
100
AcDbEntity
  8
0
  6
Continuous
 62
     8
100
AcDbLine
 10
320.494502
 20
146.164902
 30
0.0
 11
329.994661
 21
146.164902
 31
0.0
  0
LINE
  5
33D
100
AcDbEntity
  8
0
  6
Continuous
 62
     8
100
AcDbLine
 10
331.994448
 20
146.164902
 30
0.0
 11
332.994554
 21
146.164902
 31
0.0
  0
LINE
  5
33E
100
AcDbEntity
  8
0
  6
Continuous
 62
     8
100
AcDbLine
 10
334.994767
 20
146.164902
 30
0.0
 11
344.4945
 21
146.164902
 31
0.0
  0
LINE
  5
33F
100
AcDbEntity
  8
0
  6
Continuous
 62
     8
100
AcDbLine
 10
346.494713
 20
146.164902
 30
0.0
 11
347.494819
 21
146.164902
 31
0.0
  0
LINE
  5
340
100
AcDbEntity
  8
0
  6
Continuous
 62
     8
100
AcDbLine
 10
349.494606
 20
146.164902
 30
0.0
 11
358.994765
 21
146.164902
 31
0.0
  0
LINE
  5
341
100
AcDbEntity
  8
0
  6
Continuous
 62
     8
100
AcDbLine
 10
364.994552
 20
146.164902
 30
0.0
 11
374.494711
 21
146.164902
 31
0.0
  0
LINE
  5
342
100
AcDbEntity
  8
0
  6
Continuous
 62
     8
100
AcDbLine
 10
376.494498
 20
146.164902
 30
0.0
 11
377.494605
 21
146.164902
 31
0.0
  0
LINE
  5
343
100
AcDbEntity
  8
0
  6
Continuous
 62
     8
100
AcDbLine
 10
379.494392
 20
146.164902
 30
0.0
 11
388.994551
 21
146.164902
 31
0.0
  0
LINE
  5
344
100
AcDbEntity
  8
0
  6
Continuous
 62
     8
100
AcDbLine
 10
390.994763
 20
146.164902
 30
0.0
 11
391.994444
 21
146.164902
 31
0.0
  0
LINE
  5
345
100
AcDbEntity
  8
0
  6
Continuous
 62
     8
100
AcDbLine
 10
393.994657
 20
146.164902
 30
0.0
 11
403.49439
 21
146.164902
 31
0.0
  0
LINE
  5
346
100
AcDbEntity
  8
0
  6
Continuous
 62
     8
100
AcDbLine
 10
409.494603
 20
146.164902
 30
0.0
 11
417.403103
 21
146.164902
 31
0.0
  0
LINE
  5
347
100
AcDbEntity
  8
0
  6
Continuous
 62
     8
100
AcDbLine
 10
419.40289
 20
146.164902
 30
0.0
 11
420.402997
 21
146.164902
 31
0.0
  0
LINE
  5
348
100
AcDbEntity
  8
0
  6
Continuous
 62
     8
100
AcDbLine
 10
422.402784
 20
146.164902
 30
0.0
 11
430.311284
 21
146.164902
 31
0.0
  0
LINE
  5
349
100
AcDbEntity
  8
0
  6
Continuous
 62
     8
100
AcDbLine
 10
432.311071
 20
146.164902
 30
0.0
 11
433.311177
 21
146.164902
 31
0.0
  0
LINE
  5
34A
100
AcDbEntity
  8
0
  6
Continuous
 62
     8
100
AcDbLine
 10
435.31139
 20
146.164902
 30
0.0
 11
443.219465
 21
146.164902
 31
0.0
  0
LINE
  5
34B
100
AcDbEntity
  8
0
  6
Continuous
 62
     8
100
AcDbLine
 10
445.219678
 20
146.164902
 30
0.0
 11
446.219784
 21
146.164902
 31
0.0
  0
LINE
  5
34C
100
AcDbEntity
  8
0
  6
Continuous
 62
     8
100
AcDbLine
 10
448.219571
 20
146.164902
 30
0.0
 11
456.128072
 21
146.164902
 31
0.0
  0
LINE
  5
34D
100
AcDbEntity
  8
0
  6
Continuous
 62
     8
100
AcDbLine
 10
458.127859
 20
146.164902
 30
0.0
 11
459.127965
 21
146.164902
 31
0.0
  0
LINE
  5
34E
100
AcDbEntity
  8
0
  6
Continuous
 62
     8
100
AcDbLine
 10
461.127752
 20
146.164902
 30
0.0
 11
469.036252
 21
146.164902
 31
0.0
  0
ENDBLK
  5
34F
100
AcDbEntity
  8
0
100
AcDbBlockEnd
  0
BLOCK
  5
352
100
AcDbEntity
  8
0
100
AcDbBlockBegin
  2
*B58
 70
     0
 10
0.0
 20
0.0
 30
0.0
  3
*B58
  1

  0
LINE
  5
353
100
AcDbEntity
  8
0
  6
Continuous
 62
     8
100
AcDbLine
 10
146.036378
 20
54.16661
 30
0.0
 11
181.994669
 21
54.16661
 31
0.0
  0
ENDBLK
  5
354
100
AcDbEntity
  8
0
100
AcDbBlockEnd
  0
BLOCK
  5
357
100
AcDbEntity
  8
0
100
AcDbBlockBegin
  2
*B59
 70
     0
 10
0.0
 20
0.0
 30
0.0
  3
*B59
  1

  0
LINE
  5
358
100
AcDbEntity
  8
0
  6
Continuous
 62
     8
100
AcDbLine
 10
305.494609
 20
121.165223
 30
0.0
 11
305.494609
 21
127.165436
 31
0.0
  0
LINE
  5
359
100
AcDbEntity
  8
0
  6
Continuous
 62
     8
100
AcDbLine
 10
305.494609
 20
133.165222
 30
0.0
 11
305.494609
 21
139.165009
 31
0.0
  0
ENDBLK
  5
35A
100
AcDbEntity
  8
0
100
AcDbBlockEnd
  0
BLOCK
  5
35D
100
AcDbEntity
  8
0
100
AcDbBlockBegin
  2
*B60
 70
     0
 10
0.0
 20
0.0
 30
0.0
  3
*B60
  1

  0
LINE
  5
35E
100
AcDbEntity
  8
0
  6
Continuous
 62
     8
100
AcDbLine
 10
406.494709
 20
198.022331
 30
0.0
 11
406.494709
 21
202.022331
 31
0.0
  0
LINE
  5
35F
100
AcDbEntity
  8
0
  6
Continuous
 62
     8
100
AcDbLine
 10
406.494709
 20
137.165222
 30
0.0
 11
406.494709
 21
143.165009
 31
0.0
  0
LINE
  5
360
100
AcDbEntity
  8
0
  6
Continuous
 62
     8
100
AcDbLine
 10
406.494709
 20
149.164796
 30
0.0
 11
406.494709
 21
157.629526
 31
0.0
  0
LINE
  5
361
100
AcDbEntity
  8
0
  6
Continuous
 62
     8
100
AcDbLine
 10
406.494709
 20
159.629313
 30
0.0
 11
406.494709
 21
160.629419
 31
0.0
  0
LINE
  5
362
100
AcDbEntity
  8
0
  6
Continuous
 62
     8
100
AcDbLine
 10
406.494709
 20
162.629206
 30
0.0
 11
406.494709
 21
171.09351
 31
0.0
  0
LINE
  5
363
100
AcDbEntity
  8
0
  6
Continuous
 62
     8
100
AcDbLine
 10
406.494709
 20
173.093723
 30
0.0
 11
406.494709
 21
174.093404
 31
0.0
  0
LINE
  5
364
100
AcDbEntity
  8
0
  6
Continuous
 62
     8
100
AcDbLine
 10
406.494709
 20
176.093616
 30
0.0
 11
406.494709
 21
184.557921
 31
0.0
  0
LINE
  5
365
100
AcDbEntity
  8
0
  6
Continuous
 62
     8
100
AcDbLine
 10
406.494709
 20
186.558133
 30
0.0
 11
406.494709
 21
187.557814
 31
0.0
  0
LINE
  5
366
100
AcDbEntity
  8
0
  6
Continuous
 62
     8
100
AcDbLine
 10
406.494709
 20
189.558027
 30
0.0
 11
406.494709
 21
198.022331
 31
0.0
  0
ENDBLK
  5
367
100
AcDbEntity
  8
0
100
AcDbBlockEnd
  0
BLOCK
  5
36A
100
AcDbEntity
  8
0
100
AcDbBlockBegin
  2
*B61
 70
     0
 10
0.0
 20
0.0
 30
0.0
  3
*B61
  1

  0
LINE
  5
36B
100
AcDbEntity
  8
0
  6
Continuous
 62
     8
100
AcDbLine
 10
284.994557
 20
308.938379
 30
0.0
 11
284.994557
 21
318.688352
 31
0.0
  0
LINE
  5
36C
100
AcDbEntity
  8
0
  6
Continuous
 62
     8
100
AcDbLine
 10
284.994557
 20
324.688139
 30
0.0
 11
284.994557
 21
334.438112
 31
0.0
  0
ENDBLK
  5
36D
100
AcDbEntity
  8
0
100
AcDbBlockEnd
  0
BLOCK
  5
370
100
AcDbEntity
  8
0
100
AcDbBlockBegin
  2
*B62
 70
     0
 10
0.0
 20
0.0
 30
0.0
  3
*B62
  1

  0
LINE
  5
371
100
AcDbEntity
  8
0
  6
Continuous
 62
     8
100
AcDbLine
 10
434.494708
 20
258.996048
 30
0.0
 11
434.494708
 21
275.688887
 31
0.0
  0
ENDBLK
  5
372
100
AcDbEntity
  8
0
100
AcDbBlockEnd
  0
BLOCK
  5
375
100
AcDbEntity
  8
0
100
AcDbBlockBegin
  2
*B63
 70
     0
 10
0.0
 20
0.0
 30
0.0
  3
*B63
  1

  0
LINE
  5
376
100
AcDbEntity
  8
0
  6
Continuous
 62
     8
100
AcDbLine
 10
240.494506
 20
89.166076
 30
0.0
 11
240.494506
 21
95.165863
 31
0.0
  0
LINE
  5
377
100
AcDbEntity
  8
0
  6
Continuous
 62
     8
100
AcDbLine
 10
240.494506
 20
101.16565
 30
0.0
 11
240.494506
 21
107.165437
 31
0.0
  0
ENDBLK
  5
378
100
AcDbEntity
  8
0
100
AcDbBlockEnd
  0
BLOCK
  5
37B
100
AcDbEntity
  8
0
100
AcDbBlockBegin
  2
*B64
 70
     0
 10
0.0
 20
0.0
 30
0.0
  3
*B64
  1

  0
LINE
  5
37C
100
AcDbEntity
  8
0
  6
Continuous
 62
     8
100
AcDbLine
 10
207.494828
 20
130.165329
 30
0.0
 11
213.494614
 21
130.165329
 31
0.0
  0
LINE
  5
37D
100
AcDbEntity
  8
0
  6
Continuous
 62
     8
100
AcDbLine
 10
219.494827
 20
130.165329
 30
0.0
 11
228.99456
 21
130.165329
 31
0.0
  0
LINE
  5
37E
100
AcDbEntity
  8
0
  6
Continuous
 62
     8
100
AcDbLine
 10
230.994773
 20
130.165329
 30
0.0
 11
231.994454
 21
130.165329
 31
0.0
  0
LINE
  5
37F
100
AcDbEntity
  8
0
  6
Continuous
 62
     8
100
AcDbLine
 10
233.994666
 20
130.165329
 30
0.0
 11
243.494825
 21
130.165329
 31
0.0
  0
LINE
  5
380
100
AcDbEntity
  8
0
  6
Continuous
 62
     8
100
AcDbLine
 10
245.494612
 20
130.165329
 30
0.0
 11
246.494719
 21
130.165329
 31
0.0
  0
LINE
  5
381
100
AcDbEntity
  8
0
  6
Continuous
 62
     8
100
AcDbLine
 10
248.494506
 20
130.165329
 30
0.0
 11
257.994665
 21
130.165329
 31
0.0
  0
LINE
  5
382
100
AcDbEntity
  8
0
  6
Continuous
 62
     8
100
AcDbLine
 10
263.994452
 20
130.165329
 30
0.0
 11
273.494611
 21
130.165329
 31
0.0
  0
LINE
  5
383
100
AcDbEntity
  8
0
  6
Continuous
 62
     8
100
AcDbLine
 10
275.494823
 20
130.165329
 30
0.0
 11
276.494504
 21
130.165329
 31
0.0
  0
LINE
  5
384
100
AcDbEntity
  8
0
  6
Continuous
 62
     8
100
AcDbLine
 10
278.494717
 20
130.165329
 30
0.0
 11
287.99445
 21
130.165329
 31
0.0
  0
LINE
  5
385
100
AcDbEntity
  8
0
  6
Continuous
 62
     8
100
AcDbLine
 10
289.994663
 20
130.165329
 30
0.0
 11
290.994769
 21
130.165329
 31
0.0
  0
LINE
  5
386
100
AcDbEntity
  8
0
  6
Continuous
 62
     8
100
AcDbLine
 10
292.994556
 20
130.165329
 30
0.0
 11
302.494715
 21
130.165329
 31
0.0
  0
LINE
  5
387
100
AcDbEntity
  8
0
  6
Continuous
 62
     8
100
AcDbLine
 10
308.494502
 20
130.165329
 30
0.0
 11
317.994661
 21
130.165329
 31
0.0
  0
LINE
  5
388
100
AcDbEntity
  8
0
  6
Continuous
 62
     8
100
AcDbLine
 10
319.994448
 20
130.165329
 30
0.0
 11
320.994555
 21
130.165329
 31
0.0
  0
LINE
  5
389
100
AcDbEntity
  8
0
  6
Continuous
 62
     8
100
AcDbLine
 10
322.994767
 20
130.165329
 30
0.0
 11
332.494501
 21
130.165329
 31
0.0
  0
LINE
  5
38A
100
AcDbEntity
  8
0
  6
Continuous
 62
     8
100
AcDbLine
 10
334.494714
 20
130.165329
 30
0.0
 11
335.49482
 21
130.165329
 31
0.0
  0
LINE
  5
38B
100
AcDbEntity
  8
0
  6
Continuous
 62
     8
100
AcDbLine
 10
337.494607
 20
130.165329
 30
0.0
 11
346.994766
 21
130.165329
 31
0.0
  0
LINE
  5
38C
100
AcDbEntity
  8
0
  6
Continuous
 62
     8
100
AcDbLine
 10
352.994553
 20
130.165329
 30
0.0
 11
362.494712
 21
130.165329
 31
0.0
  0
LINE
  5
38D
100
AcDbEntity
  8
0
  6
Continuous
 62
     8
100
AcDbLine
 10
364.494499
 20
130.165329
 30
0.0
 11
365.494605
 21
130.165329
 31
0.0
  0
LINE
  5
38E
100
AcDbEntity
  8
0
  6
Continuous
 62
     8
100
AcDbLine
 10
367.494392
 20
130.165329
 30
0.0
 11
376.994551
 21
130.165329
 31
0.0
  0
LINE
  5
38F
100
AcDbEntity
  8
0
  6
Continuous
 62
     8
100
AcDbLine
 10
378.994764
 20
130.165329
 30
0.0
 11
379.994445
 21
130.165329
 31
0.0
  0
LINE
  5
390
100
AcDbEntity
  8
0
  6
Continuous
 62
     8
100
AcDbLine
 10
381.994658
 20
130.165329
 30
0.0
 11
391.494391
 21
130.165329
 31
0.0
  0
LINE
  5
391
100
AcDbEntity
  8
0
  6
Continuous
 62
     8
100
AcDbLine
 10
397.494603
 20
130.165329
 30
0.0
 11
403.49439
 21
130.165329
 31
0.0
  0
ENDBLK
  5
392
100
AcDbEntity
  8
0
100
AcDbBlockEnd
  0
BLOCK
  5
395
100
AcDbEntity
  8
0
100
AcDbBlockBegin
  2
*B65
 70
     0
 10
0.0
 20
0.0
 30
0.0
  3
*B65
  1

  0
LINE
  5
396
100
AcDbEntity
  8
0
  6
Continuous
 62
     8
100
AcDbLine
 10
361.494606
 20
333.463115
 30
0.0
 11
361.494606
 21
342.76921
 31
0.0
  0
LINE
  5
397
100
AcDbEntity
  8
0
  6
Continuous
 62
     8
100
AcDbLine
 10
361.494606
 20
344.769423
 30
0.0
 11
361.494606
 21
345.769104
 31
0.0
  0
LINE
  5
398
100
AcDbEntity
  8
0
  6
Continuous
 62
     8
100
AcDbLine
 10
361.494606
 20
347.769316
 30
0.0
 11
361.494606
 21
357.075412
 31
0.0
  0
LINE
  5
399
100
AcDbEntity
  8
0
  6
Continuous
 62
     8
100
AcDbLine
 10
361.494606
 20
359.075199
 30
0.0
 11
361.494606
 21
360.075306
 31
0.0
  0
LINE
  5
39A
100
AcDbEntity
  8
0
  6
Continuous
 62
     8
100
AcDbLine
 10
361.494606
 20
362.075093
 30
0.0
 11
361.494606
 21
371.381189
 31
0.0
  0
LINE
  5
39B
100
AcDbEntity
  8
0
  6
Continuous
 62
     8
100
AcDbLine
 10
361.494606
 20
373.381401
 30
0.0
 11
361.494606
 21
374.381082
 31
0.0
  0
LINE
  5
39C
100
AcDbEntity
  8
0
  6
Continuous
 62
     8
100
AcDbLine
 10
361.494606
 20
376.381295
 30
0.0
 11
361.494606
 21
385.687391
 31
0.0
  0
ENDBLK
  5
39D
100
AcDbEntity
  8
0
100
AcDbBlockEnd
  0
BLOCK
  5
3A0
100
AcDbEntity
  8
0
100
AcDbBlockBegin
  2
*B66
 70
     0
 10
0.0
 20
0.0
 30
0.0
  3
*B66
  1

  0
LINE
  5
3A1
100
AcDbEntity
  8
0
  6
Continuous
 62
     8
100
AcDbLine
 10
349.994659
 20
229.464823
 30
0.0
 11
349.994659
 21
233.464823
 31
0.0
  0
LINE
  5
3A2
100
AcDbEntity
  8
0
  6
Continuous
 62
     8
100
AcDbLine
 10
349.994659
 20
233.464823
 30
0.0
 11
349.994659
 21
244.020839
 31
0.0
  0
LINE
  5
3A3
100
AcDbEntity
  8
0
  6
Continuous
 62
     8
100
AcDbLine
 10
349.994659
 20
246.021051
 30
0.0
 11
349.994659
 21
247.020732
 31
0.0
  0
LINE
  5
3A4
100
AcDbEntity
  8
0
  6
Continuous
 62
     8
100
AcDbLine
 10
349.994659
 20
249.020945
 30
0.0
 11
349.994659
 21
259.576961
 31
0.0
  0
LINE
  5
3A5
100
AcDbEntity
  8
0
  6
Continuous
 62
     8
100
AcDbLine
 10
349.994659
 20
261.576748
 30
0.0
 11
349.994659
 21
262.576854
 31
0.0
  0
LINE
  5
3A6
100
AcDbEntity
  8
0
  6
Continuous
 62
     8
100
AcDbLine
 10
349.994659
 20
264.576641
 30
0.0
 11
349.994659
 21
275.132657
 31
0.0
  0
LINE
  5
3A7
100
AcDbEntity
  8
0
  6
Continuous
 62
     8
100
AcDbLine
 10
349.994659
 20
277.13287
 30
0.0
 11
349.994659
 21
278.132976
 31
0.0
  0
LINE
  5
3A8
100
AcDbEntity
  8
0
  6
Continuous
 62
     8
100
AcDbLine
 10
349.994659
 20
280.132763
 30
0.0
 11
349.994659
 21
290.688779
 31
0.0
  0
LINE
  5
3A9
100
AcDbEntity
  8
0
  6
Continuous
 62
     8
100
AcDbLine
 10
349.994659
 20
296.688566
 30
0.0
 11
349.994659
 21
306.438539
 31
0.0
  0
ENDBLK
  5
3AA
100
AcDbEntity
  8
0
100
AcDbBlockEnd
  0
BLOCK
  5
3AD
100
AcDbEntity
  8
0
100
AcDbBlockBegin
  2
*B67
 70
     0
 10
0.0
 20
0.0
 30
0.0
  3
*B67
  1

  0
LINE
  5
3AE
100
AcDbEntity
  8
0
  6
Continuous
 62
     8
100
AcDbLine
 10
450.994334
 20
229.464823
 30
0.0
 11
450.994334
 21
275.688887
 31
0.0
  0
ENDBLK
  5
3AF
100
AcDbEntity
  8
0
100
AcDbBlockEnd
  0
BLOCK
  5
3B2
100
AcDbEntity
  8
0
100
AcDbBlockBegin
  2
*B68
 70
     0
 10
0.0
 20
0.0
 30
0.0
  3
*B68
  1

  0
LINE
  5
3B3
100
AcDbEntity
  8
0
  6
Continuous
 62
     8
100
AcDbLine
 10
450.994334
 20
39.999572
 30
0.0
 11
450.994334
 21
52.166398
 31
0.0
  0
LINE
  5
3B4
100
AcDbEntity
  8
0
  6
Continuous
 62
     8
100
AcDbLine
 10
450.994334
 20
176.164688
 30
0.0
 11
450.994334
 21
202.022331
 31
0.0
  0
ENDBLK
  5
3B5
100
AcDbEntity
  8
0
100
AcDbBlockEnd
  0
BLOCK
  5
3B8
100
AcDbEntity
  8
0
100
AcDbBlockBegin
  2
*B69
 70
     0
 10
0.0
 20
0.0
 30
0.0
  3
*B69
  1

  0
LINE
  5
3B9
100
AcDbEntity
  8
0
  6
Continuous
 62
     8
100
AcDbLine
 10
228.494507
 20
198.022331
 30
0.0
 11
228.494507
 21
202.022331
 31
0.0
  0
LINE
  5
3BA
100
AcDbEntity
  8
0
  6
Continuous
 62
     8
100
AcDbLine
 10
228.494507
 20
137.165222
 30
0.0
 11
228.494507
 21
143.165009
 31
0.0
  0
LINE
  5
3BB
100
AcDbEntity
  8
0
  6
Continuous
 62
     8
100
AcDbLine
 10
228.494507
 20
149.164796
 30
0.0
 11
228.494507
 21
157.629526
 31
0.0
  0
LINE
  5
3BC
100
AcDbEntity
  8
0
  6
Continuous
 62
     8
100
AcDbLine
 10
228.494507
 20
159.629313
 30
0.0
 11
228.494507
 21
160.629419
 31
0.0
  0
LINE
  5
3BD
100
AcDbEntity
  8
0
  6
Continuous
 62
     8
100
AcDbLine
 10
228.494507
 20
162.629206
 30
0.0
 11
228.494507
 21
171.09351
 31
0.0
  0
LINE
  5
3BE
100
AcDbEntity
  8
0
  6
Continuous
 62
     8
100
AcDbLine
 10
228.494507
 20
173.093723
 30
0.0
 11
228.494507
 21
174.093404
 31
0.0
  0
LINE
  5
3BF
100
AcDbEntity
  8
0
  6
Continuous
 62
     8
100
AcDbLine
 10
228.494507
 20
176.093616
 30
0.0
 11
228.494507
 21
184.557921
 31
0.0
  0
LINE
  5
3C0
100
AcDbEntity
  8
0
  6
Continuous
 62
     8
100
AcDbLine
 10
228.494507
 20
186.558133
 30
0.0
 11
228.494507
 21
187.557814
 31
0.0
  0
LINE
  5
3C1
100
AcDbEntity
  8
0
  6
Continuous
 62
     8
100
AcDbLine
 10
228.494507
 20
189.558027
 30
0.0
 11
228.494507
 21
198.022331
 31
0.0
  0
ENDBLK
  5
3C2
100
AcDbEntity
  8
0
100
AcDbBlockEnd
  0
BLOCK
  5
3C5
100
AcDbEntity
  8
0
100
AcDbBlockBegin
  2
*B70
 70
     0
 10
0.0
 20
0.0
 30
0.0
  3
*B70
  1

  0
LINE
  5
3C6
100
AcDbEntity
  8
0
  6
Continuous
 62
     8
100
AcDbLine
 10
329.494607
 20
89.166076
 30
0.0
 11
329.494607
 21
95.165863
 31
0.0
  0
LINE
  5
3C7
100
AcDbEntity
  8
0
  6
Continuous
 62
     8
100
AcDbLine
 10
329.494607
 20
101.16565
 30
0.0
 11
329.494607
 21
107.165437
 31
0.0
  0
ENDBLK
  5
3C8
100
AcDbEntity
  8
0
100
AcDbBlockEnd
  0
BLOCK
  5
3CB
100
AcDbEntity
  8
0
100
AcDbBlockBegin
  2
*B71
 70
     0
 10
0.0
 20
0.0
 30
0.0
  3
*B71
  1

  0
LINE
  5
3CC
100
AcDbEntity
  8
0
  6
Continuous
 62
     8
100
AcDbLine
 10
356.994553
 20
38.999466
 30
0.0
 11
356.994553
 21
80.16597
 31
0.0
  0
ENDBLK
  5
3CD
100
AcDbEntity
  8
0
100
AcDbBlockEnd
  0
BLOCK
  5
3D0
100
AcDbEntity
  8
0
100
AcDbBlockBegin
  2
*B72
 70
     0
 10
0.0
 20
0.0
 30
0.0
  3
*B72
  1

  0
LINE
  5
3D1
100
AcDbEntity
  8
0
  6
Continuous
 62
     8
100
AcDbLine
 10
366.994765
 20
38.999466
 30
0.0
 11
366.994765
 21
80.16597
 31
0.0
  0
ENDBLK
  5
3D2
100
AcDbEntity
  8
0
100
AcDbBlockEnd
  0
BLOCK
  5
3D5
100
AcDbEntity
  8
0
100
AcDbBlockBegin
  2
*B73
 70
     0
 10
0.0
 20
0.0
 30
0.0
  3
*B73
  1

  0
LINE
  5
3D6
100
AcDbEntity
  8
0
  6
Continuous
 62
     8
100
AcDbLine
 10
183.994882
 20
229.464823
 30
0.0
 11
183.994882
 21
275.688887
 31
0.0
  0
ENDBLK
  5
3D7
100
AcDbEntity
  8
0
100
AcDbBlockEnd
  0
BLOCK
  5
3DA
100
AcDbEntity
  8
0
100
AcDbBlockBegin
  2
*B74
 70
     0
 10
0.0
 20
0.0
 30
0.0
  3
*B74
  1

  0
LINE
  5
3DB
100
AcDbEntity
  8
0
  6
Continuous
 62
     8
100
AcDbLine
 10
333.99466
 20
153.664849
 30
0.0
 11
333.99466
 21
157.164795
 31
0.0
  0
LINE
  5
3DC
100
AcDbEntity
  8
0
  6
Continuous
 62
     8
100
AcDbLine
 10
333.99466
 20
163.164582
 30
0.0
 11
333.99466
 21
166.664529
 31
0.0
  0
ENDBLK
  5
3DD
100
AcDbEntity
  8
0
100
AcDbBlockEnd
  0
BLOCK
  5
3E0
100
AcDbEntity
  8
0
100
AcDbBlockBegin
  2
*B75
 70
     0
 10
0.0
 20
0.0
 30
0.0
  3
*B75
  1

  0
LINE
  5
3E1
100
AcDbEntity
  8
0
  6
Continuous
 62
     8
100
AcDbLine
 10
361.994659
 20
73.166077
 30
0.0
 11
361.994659
 21
79.165864
 31
0.0
  0
LINE
  5
3E2
100
AcDbEntity
  8
0
  6
Continuous
 62
     8
100
AcDbLine
 10
361.994659
 20
85.166076
 30
0.0
 11
361.994659
 21
91.165863
 31
0.0
  0
ENDBLK
  5
3E3
100
AcDbEntity
  8
0
100
AcDbBlockEnd
  0
BLOCK
  5
3E6
100
AcDbEntity
  8
0
100
AcDbBlockBegin
  2
*B76
 70
     0
 10
0.0
 20
0.0
 30
0.0
  3
*B76
  1

  0
LINE
  5
3E7
100
AcDbEntity
  8
0
  6
Continuous
 62
     8
100
AcDbLine
 10
228.494507
 20
105.16565
 30
0.0
 11
228.494507
 21
111.165437
 31
0.0
  0
LINE
  5
3E8
100
AcDbEntity
  8
0
  6
Continuous
 62
     8
100
AcDbLine
 10
228.494507
 20
117.165649
 30
0.0
 11
228.494507
 21
123.165436
 31
0.0
  0
ENDBLK
  5
3E9
100
AcDbEntity
  8
0
100
AcDbBlockEnd
  0
BLOCK
  5
3EC
100
AcDbEntity
  8
0
100
AcDbBlockBegin
  2
*B77
 70
     0
 10
0.0
 20
0.0
 30
0.0
  3
*B77
  1

  0
LINE
  5
3ED
100
AcDbEntity
  8
0
  6
Continuous
 62
     8
100
AcDbLine
 10
387.494391
 20
38.999466
 30
0.0
 11
387.494391
 21
66.166184
 31
0.0
  0
ENDBLK
  5
3EE
100
AcDbEntity
  8
0
100
AcDbBlockEnd
  0
BLOCK
  5
3F1
100
AcDbEntity
  8
0
100
AcDbBlockBegin
  2
*B78
 70
     0
 10
0.0
 20
0.0
 30
0.0
  3
*B78
  1

  0
LINE
  5
3F2
100
AcDbEntity
  8
0
  6
Continuous
 62
     8
100
AcDbLine
 10
469.036252
 20
82.166183
 30
0.0
 11
473.036252
 21
82.166183
 31
0.0
  0
LINE
  5
3F3
100
AcDbEntity
  8
0
  6
Continuous
 62
     8
100
AcDbLine
 10
219.494827
 20
82.166183
 30
0.0
 11
225.494614
 21
82.166183
 31
0.0
  0
LINE
  5
3F4
100
AcDbEntity
  8
0
  6
Continuous
 62
     8
100
AcDbLine
 10
231.494826
 20
82.166183
 30
0.0
 11
240.99456
 21
82.166183
 31
0.0
  0
LINE
  5
3F5
100
AcDbEntity
  8
0
  6
Continuous
 62
     8
100
AcDbLine
 10
242.994772
 20
82.166183
 30
0.0
 11
243.994453
 21
82.166183
 31
0.0
  0
LINE
  5
3F6
100
AcDbEntity
  8
0
  6
Continuous
 62
     8
100
AcDbLine
 10
245.994666
 20
82.166183
 30
0.0
 11
255.494825
 21
82.166183
 31
0.0
  0
LINE
  5
3F7
100
AcDbEntity
  8
0
  6
Continuous
 62
     8
100
AcDbLine
 10
257.494612
 20
82.166183
 30
0.0
 11
258.494718
 21
82.166183
 31
0.0
  0
LINE
  5
3F8
100
AcDbEntity
  8
0
  6
Continuous
 62
     8
100
AcDbLine
 10
260.494505
 20
82.166183
 30
0.0
 11
269.994664
 21
82.166183
 31
0.0
  0
LINE
  5
3F9
100
AcDbEntity
  8
0
  6
Continuous
 62
     8
100
AcDbLine
 10
275.994451
 20
82.166183
 30
0.0
 11
285.49461
 21
82.166183
 31
0.0
  0
LINE
  5
3FA
100
AcDbEntity
  8
0
  6
Continuous
 62
     8
100
AcDbLine
 10
287.494823
 20
82.166183
 30
0.0
 11
288.494503
 21
82.166183
 31
0.0
  0
LINE
  5
3FB
100
AcDbEntity
  8
0
  6
Continuous
 62
     8
100
AcDbLine
 10
290.494716
 20
82.166183
 30
0.0
 11
299.99445
 21
82.166183
 31
0.0
  0
LINE
  5
3FC
100
AcDbEntity
  8
0
  6
Continuous
 62
     8
100
AcDbLine
 10
301.994662
 20
82.166183
 30
0.0
 11
302.994769
 21
82.166183
 31
0.0
  0
LINE
  5
3FD
100
AcDbEntity
  8
0
  6
Continuous
 62
     8
100
AcDbLine
 10
304.994556
 20
82.166183
 30
0.0
 11
314.494715
 21
82.166183
 31
0.0
  0
LINE
  5
3FE
100
AcDbEntity
  8
0
  6
Continuous
 62
     8
100
AcDbLine
 10
320.494502
 20
82.166183
 30
0.0
 11
329.994661
 21
82.166183
 31
0.0
  0
LINE
  5
3FF
100
AcDbEntity
  8
0
  6
Continuous
 62
     8
100
AcDbLine
 10
331.994448
 20
82.166183
 30
0.0
 11
332.994554
 21
82.166183
 31
0.0
  0
LINE
  5
400
100
AcDbEntity
  8
0
  6
Continuous
 62
     8
100
AcDbLine
 10
334.994767
 20
82.166183
 30
0.0
 11
344.4945
 21
82.166183
 31
0.0
  0
LINE
  5
401
100
AcDbEntity
  8
0
  6
Continuous
 62
     8
100
AcDbLine
 10
346.494713
 20
82.166183
 30
0.0
 11
347.494819
 21
82.166183
 31
0.0
  0
LINE
  5
402
100
AcDbEntity
  8
0
  6
Continuous
 62
     8
100
AcDbLine
 10
349.494606
 20
82.166183
 30
0.0
 11
358.994765
 21
82.166183
 31
0.0
  0
LINE
  5
403
100
AcDbEntity
  8
0
  6
Continuous
 62
     8
100
AcDbLine
 10
364.994552
 20
82.166183
 30
0.0
 11
374.494711
 21
82.166183
 31
0.0
  0
LINE
  5
404
100
AcDbEntity
  8
0
  6
Continuous
 62
     8
100
AcDbLine
 10
376.494498
 20
82.166183
 30
0.0
 11
377.494605
 21
82.166183
 31
0.0
  0
LINE
  5
405
100
AcDbEntity
  8
0
  6
Continuous
 62
     8
100
AcDbLine
 10
379.494392
 20
82.166183
 30
0.0
 11
388.994551
 21
82.166183
 31
0.0
  0
LINE
  5
406
100
AcDbEntity
  8
0
  6
Continuous
 62
     8
100
AcDbLine
 10
390.994763
 20
82.166183
 30
0.0
 11
391.994444
 21
82.166183
 31
0.0
  0
LINE
  5
407
100
AcDbEntity
  8
0
  6
Continuous
 62
     8
100
AcDbLine
 10
393.994657
 20
82.166183
 30
0.0
 11
403.49439
 21
82.166183
 31
0.0
  0
LINE
  5
408
100
AcDbEntity
  8
0
  6
Continuous
 62
     8
100
AcDbLine
 10
409.494603
 20
82.166183
 30
0.0
 11
417.403103
 21
82.166183
 31
0.0
  0
LINE
  5
409
100
AcDbEntity
  8
0
  6
Continuous
 62
     8
100
AcDbLine
 10
419.40289
 20
82.166183
 30
0.0
 11
420.402997
 21
82.166183
 31
0.0
  0
LINE
  5
40A
100
AcDbEntity
  8
0
  6
Continuous
 62
     8
100
AcDbLine
 10
422.402784
 20
82.166183
 30
0.0
 11
430.311284
 21
82.166183
 31
0.0
  0
LINE
  5
40B
100
AcDbEntity
  8
0
  6
Continuous
 62
     8
100
AcDbLine
 10
432.311071
 20
82.166183
 30
0.0
 11
433.311177
 21
82.166183
 31
0.0
  0
LINE
  5
40C
100
AcDbEntity
  8
0
  6
Continuous
 62
     8
100
AcDbLine
 10
435.31139
 20
82.166183
 30
0.0
 11
443.219465
 21
82.166183
 31
0.0
  0
LINE
  5
40D
100
AcDbEntity
  8
0
  6
Continuous
 62
     8
100
AcDbLine
 10
445.219678
 20
82.166183
 30
0.0
 11
446.219784
 21
82.166183
 31
0.0
  0
LINE
  5
40E
100
AcDbEntity
  8
0
  6
Continuous
 62
     8
100
AcDbLine
 10
448.219571
 20
82.166183
 30
0.0
 11
456.128072
 21
82.166183
 31
0.0
  0
LINE
  5
40F
100
AcDbEntity
  8
0
  6
Continuous
 62
     8
100
AcDbLine
 10
458.127859
 20
82.166183
 30
0.0
 11
459.127965
 21
82.166183
 31
0.0
  0
LINE
  5
410
100
AcDbEntity
  8
0
  6
Continuous
 62
     8
100
AcDbLine
 10
461.127752
 20
82.166183
 30
0.0
 11
469.036252
 21
82.166183
 31
0.0
  0
ENDBLK
  5
411
100
AcDbEntity
  8
0
100
AcDbBlockEnd
  0
BLOCK
  5
414
100
AcDbEntity
  8
0
100
AcDbBlockBegin
  2
*B79
 70
     0
 10
0.0
 20
0.0
 30
0.0
  3
*B79
  1

  0
LINE
  5
415
100
AcDbEntity
  8
0
  6
Continuous
 62
     8
100
AcDbLine
 10
272.994558
 20
38.999466
 30
0.0
 11
272.994558
 21
42.999465
 31
0.0
  0
LINE
  5
416
100
AcDbEntity
  8
0
  6
Continuous
 62
     8
100
AcDbLine
 10
272.994558
 20
42.999465
 30
0.0
 11
272.994558
 21
51.721669
 31
0.0
  0
LINE
  5
417
100
AcDbEntity
  8
0
  6
Continuous
 62
     8
100
AcDbLine
 10
272.994558
 20
53.721457
 30
0.0
 11
272.994558
 21
54.721563
 31
0.0
  0
LINE
  5
418
100
AcDbEntity
  8
0
  6
Continuous
 62
     8
100
AcDbLine
 10
272.994558
 20
56.721776
 30
0.0
 11
272.994558
 21
65.44398
 31
0.0
  0
LINE
  5
419
100
AcDbEntity
  8
0
  6
Continuous
 62
     8
100
AcDbLine
 10
272.994558
 20
67.443767
 30
0.0
 11
272.994558
 21
68.443873
 31
0.0
  0
LINE
  5
41A
100
AcDbEntity
  8
0
  6
Continuous
 62
     8
100
AcDbLine
 10
272.994558
 20
70.44366
 30
0.0
 11
272.994558
 21
79.165864
 31
0.0
  0
LINE
  5
41B
100
AcDbEntity
  8
0
  6
Continuous
 62
     8
100
AcDbLine
 10
272.994558
 20
85.166076
 30
0.0
 11
272.994558
 21
91.165863
 31
0.0
  0
ENDBLK
  5
41C
100
AcDbEntity
  8
0
100
AcDbBlockEnd
  0
BLOCK
  5
41F
100
AcDbEntity
  8
0
100
AcDbBlockBegin
  2
*B80
 70
     0
 10
0.0
 20
0.0
 30
0.0
  3
*B80
  1

  0
LINE
  5
420
100
AcDbEntity
  8
0
  6
Continuous
 62
     8
100
AcDbLine
 10
260.994558
 20
121.165223
 30
0.0
 11
260.994558
 21
127.165436
 31
0.0
  0
LINE
  5
421
100
AcDbEntity
  8
0
  6
Continuous
 62
     8
100
AcDbLine
 10
260.994558
 20
133.165222
 30
0.0
 11
260.994558
 21
139.165009
 31
0.0
  0
ENDBLK
  5
422
100
AcDbEntity
  8
0
100
AcDbBlockEnd
  0
BLOCK
  5
425
100
AcDbEntity
  8
0
100
AcDbBlockBegin
  2
*B81
 70
     0
 10
0.0
 20
0.0
 30
0.0
  3
*B81
  1

  0
LINE
  5
426
100
AcDbEntity
  8
0
  6
Continuous
 62
     8
100
AcDbLine
 10
240.494506
 20
257.464396
 30
0.0
 11
240.494506
 21
261.464396
 31
0.0
  0
LINE
  5
427
100
AcDbEntity
  8
0
  6
Continuous
 62
     8
100
AcDbLine
 10
240.494506
 20
261.464396
 30
0.0
 11
240.494506
 21
272.020411
 31
0.0
  0
LINE
  5
428
100
AcDbEntity
  8
0
  6
Continuous
 62
     8
100
AcDbLine
 10
240.494506
 20
274.020199
 30
0.0
 11
240.494506
 21
275.020305
 31
0.0
  0
LINE
  5
429
100
AcDbEntity
  8
0
  6
Continuous
 62
     8
100
AcDbLine
 10
240.494506
 20
277.020518
 30
0.0
 11
240.494506
 21
287.576534
 31
0.0
  0
LINE
  5
42A
100
AcDbEntity
  8
0
  6
Continuous
 62
     8
100
AcDbLine
 10
240.494506
 20
289.576321
 30
0.0
 11
240.494506
 21
290.576427
 31
0.0
  0
LINE
  5
42B
100
AcDbEntity
  8
0
  6
Continuous
 62
     8
100
AcDbLine
 10
240.494506
 20
292.576214
 30
0.0
 11
240.494506
 21
303.13223
 31
0.0
  0
LINE
  5
42C
100
AcDbEntity
  8
0
  6
Continuous
 62
     8
100
AcDbLine
 10
240.494506
 20
305.132443
 30
0.0
 11
240.494506
 21
306.132549
 31
0.0
  0
LINE
  5
42D
100
AcDbEntity
  8
0
  6
Continuous
 62
     8
100
AcDbLine
 10
240.494506
 20
308.132336
 30
0.0
 11
240.494506
 21
318.688352
 31
0.0
  0
LINE
  5
42E
100
AcDbEntity
  8
0
  6
Continuous
 62
     8
100
AcDbLine
 10
240.494506
 20
324.688139
 30
0.0
 11
240.494506
 21
334.438112
 31
0.0
  0
ENDBLK
  5
42F
100
AcDbEntity
  8
0
100
AcDbBlockEnd
  0
BLOCK
  5
432
100
AcDbEntity
  8
0
100
AcDbBlockBegin
  2
*B82
 70
     0
 10
0.0
 20
0.0
 30
0.0
  3
*B82
  1

  0
LINE
  5
433
100
AcDbEntity
  8
0
  6
Continuous
 62
     8
100
AcDbLine
 10
229.494613
 20
333.463115
 30
0.0
 11
229.494613
 21
342.76921
 31
0.0
  0
LINE
  5
434
100
AcDbEntity
  8
0
  6
Continuous
 62
     8
100
AcDbLine
 10
229.494613
 20
344.769423
 30
0.0
 11
229.494613
 21
345.769104
 31
0.0
  0
LINE
  5
435
100
AcDbEntity
  8
0
  6
Continuous
 62
     8
100
AcDbLine
 10
229.494613
 20
347.769316
 30
0.0
 11
229.494613
 21
357.075412
 31
0.0
  0
LINE
  5
436
100
AcDbEntity
  8
0
  6
Continuous
 62
     8
100
AcDbLine
 10
229.494613
 20
359.075199
 30
0.0
 11
229.494613
 21
360.075306
 31
0.0
  0
LINE
  5
437
100
AcDbEntity
  8
0
  6
Continuous
 62
     8
100
AcDbLine
 10
229.494613
 20
362.075093
 30
0.0
 11
229.494613
 21
371.381189
 31
0.0
  0
LINE
  5
438
100
AcDbEntity
  8
0
  6
Continuous
 62
     8
100
AcDbLine
 10
229.494613
 20
373.381401
 30
0.0
 11
229.494613
 21
374.381082
 31
0.0
  0
LINE
  5
439
100
AcDbEntity
  8
0
  6
Continuous
 62
     8
100
AcDbLine
 10
229.494613
 20
376.381295
 30
0.0
 11
229.494613
 21
385.687391
 31
0.0
  0
ENDBLK
  5
43A
100
AcDbEntity
  8
0
100
AcDbBlockEnd
  0
BLOCK
  5
43D
100
AcDbEntity
  8
0
100
AcDbBlockBegin
  2
*B83
 70
     0
 10
0.0
 20
0.0
 30
0.0
  3
*B83
  1

  0
LINE
  5
43E
100
AcDbEntity
  8
0
  6
Continuous
 62
     8
100
AcDbLine
 10
491.036038
 20
68.166397
 30
0.0
 11
495.036038
 21
68.166397
 31
0.0
  0
LINE
  5
43F
100
AcDbEntity
  8
0
  6
Continuous
 62
     8
100
AcDbLine
 10
187.494829
 20
68.166397
 30
0.0
 11
192.994562
 21
68.166397
 31
0.0
  0
LINE
  5
440
100
AcDbEntity
  8
0
  6
Continuous
 62
     8
100
AcDbLine
 10
198.994775
 20
68.166397
 30
0.0
 11
208.994561
 21
68.166397
 31
0.0
  0
LINE
  5
441
100
AcDbEntity
  8
0
  6
Continuous
 62
     8
100
AcDbLine
 10
214.994774
 20
68.166397
 30
0.0
 11
224.494507
 21
68.166397
 31
0.0
  0
LINE
  5
442
100
AcDbEntity
  8
0
  6
Continuous
 62
     8
100
AcDbLine
 10
226.49472
 20
68.166397
 30
0.0
 11
227.494826
 21
68.166397
 31
0.0
  0
LINE
  5
443
100
AcDbEntity
  8
0
  6
Continuous
 62
     8
100
AcDbLine
 10
229.494613
 20
68.166397
 30
0.0
 11
238.994772
 21
68.166397
 31
0.0
  0
LINE
  5
444
100
AcDbEntity
  8
0
  6
Continuous
 62
     8
100
AcDbLine
 10
240.99456
 20
68.166397
 30
0.0
 11
241.994666
 21
68.166397
 31
0.0
  0
LINE
  5
445
100
AcDbEntity
  8
0
  6
Continuous
 62
     8
100
AcDbLine
 10
243.994453
 20
68.166397
 30
0.0
 11
253.494612
 21
68.166397
 31
0.0
  0
LINE
  5
446
100
AcDbEntity
  8
0
  6
Continuous
 62
     8
100
AcDbLine
 10
259.494824
 20
68.166397
 30
0.0
 11
268.994558
 21
68.166397
 31
0.0
  0
LINE
  5
447
100
AcDbEntity
  8
0
  6
Continuous
 62
     8
100
AcDbLine
 10
270.994771
 20
68.166397
 30
0.0
 11
271.994451
 21
68.166397
 31
0.0
  0
LINE
  5
448
100
AcDbEntity
  8
0
  6
Continuous
 62
     8
100
AcDbLine
 10
273.994664
 20
68.166397
 30
0.0
 11
283.494823
 21
68.166397
 31
0.0
  0
LINE
  5
449
100
AcDbEntity
  8
0
  6
Continuous
 62
     8
100
AcDbLine
 10
285.49461
 20
68.166397
 30
0.0
 11
286.494716
 21
68.166397
 31
0.0
  0
LINE
  5
44A
100
AcDbEntity
  8
0
  6
Continuous
 62
     8
100
AcDbLine
 10
288.494503
 20
68.166397
 30
0.0
 11
297.994663
 21
68.166397
 31
0.0
  0
LINE
  5
44B
100
AcDbEntity
  8
0
  6
Continuous
 62
     8
100
AcDbLine
 10
303.994449
 20
68.166397
 30
0.0
 11
313.494608
 21
68.166397
 31
0.0
  0
LINE
  5
44C
100
AcDbEntity
  8
0
  6
Continuous
 62
     8
100
AcDbLine
 10
315.494395
 20
68.166397
 30
0.0
 11
316.494502
 21
68.166397
 31
0.0
  0
LINE
  5
44D
100
AcDbEntity
  8
0
  6
Continuous
 62
     8
100
AcDbLine
 10
318.494714
 20
68.166397
 30
0.0
 11
327.994448
 21
68.166397
 31
0.0
  0
LINE
  5
44E
100
AcDbEntity
  8
0
  6
Continuous
 62
     8
100
AcDbLine
 10
329.994661
 20
68.166397
 30
0.0
 11
330.994767
 21
68.166397
 31
0.0
  0
LINE
  5
44F
100
AcDbEntity
  8
0
  6
Continuous
 62
     8
100
AcDbLine
 10
332.994554
 20
68.166397
 30
0.0
 11
342.494713
 21
68.166397
 31
0.0
  0
LINE
  5
450
100
AcDbEntity
  8
0
  6
Continuous
 62
     8
100
AcDbLine
 10
348.4945
 20
68.166397
 30
0.0
 11
357.994659
 21
68.166397
 31
0.0
  0
LINE
  5
451
100
AcDbEntity
  8
0
  6
Continuous
 62
     8
100
AcDbLine
 10
359.994446
 20
68.166397
 30
0.0
 11
360.994552
 21
68.166397
 31
0.0
  0
LINE
  5
452
100
AcDbEntity
  8
0
  6
Continuous
 62
     8
100
AcDbLine
 10
362.994765
 20
68.166397
 30
0.0
 11
372.494498
 21
68.166397
 31
0.0
  0
LINE
  5
453
100
AcDbEntity
  8
0
  6
Continuous
 62
     8
100
AcDbLine
 10
374.494711
 20
68.166397
 30
0.0
 11
375.494392
 21
68.166397
 31
0.0
  0
LINE
  5
454
100
AcDbEntity
  8
0
  6
Continuous
 62
     8
100
AcDbLine
 10
377.494605
 20
68.166397
 30
0.0
 11
386.994764
 21
68.166397
 31
0.0
  0
LINE
  5
455
100
AcDbEntity
  8
0
  6
Continuous
 62
     8
100
AcDbLine
 10
392.99455
 20
68.166397
 30
0.0
 11
400.874963
 21
68.166397
 31
0.0
  0
LINE
  5
456
100
AcDbEntity
  8
0
  6
Continuous
 62
     8
100
AcDbLine
 10
402.87475
 20
68.166397
 30
0.0
 11
403.874856
 21
68.166397
 31
0.0
  0
LINE
  5
457
100
AcDbEntity
  8
0
  6
Continuous
 62
     8
100
AcDbLine
 10
405.874643
 20
68.166397
 30
0.0
 11
413.755056
 21
68.166397
 31
0.0
  0
LINE
  5
458
100
AcDbEntity
  8
0
  6
Continuous
 62
     8
100
AcDbLine
 10
415.754843
 20
68.166397
 30
0.0
 11
416.754949
 21
68.166397
 31
0.0
  0
LINE
  5
459
100
AcDbEntity
  8
0
  6
Continuous
 62
     8
100
AcDbLine
 10
418.755162
 20
68.166397
 30
0.0
 11
426.635149
 21
68.166397
 31
0.0
  0
LINE
  5
45A
100
AcDbEntity
  8
0
  6
Continuous
 62
     8
100
AcDbLine
 10
428.635361
 20
68.166397
 30
0.0
 11
429.635042
 21
68.166397
 31
0.0
  0
LINE
  5
45B
100
AcDbEntity
  8
0
  6
Continuous
 62
     8
100
AcDbLine
 10
431.635255
 20
68.166397
 30
0.0
 11
439.515241
 21
68.166397
 31
0.0
  0
LINE
  5
45C
100
AcDbEntity
  8
0
  6
Continuous
 62
     8
100
AcDbLine
 10
441.515454
 20
68.166397
 30
0.0
 11
442.51556
 21
68.166397
 31
0.0
  0
LINE
  5
45D
100
AcDbEntity
  8
0
  6
Continuous
 62
     8
100
AcDbLine
 10
444.515347
 20
68.166397
 30
0.0
 11
452.39576
 21
68.166397
 31
0.0
  0
LINE
  5
45E
100
AcDbEntity
  8
0
  6
Continuous
 62
     8
100
AcDbLine
 10
454.395547
 20
68.166397
 30
0.0
 11
455.395653
 21
68.166397
 31
0.0
  0
LINE
  5
45F
100
AcDbEntity
  8
0
  6
Continuous
 62
     8
100
AcDbLine
 10
457.39544
 20
68.166397
 30
0.0
 11
465.275853
 21
68.166397
 31
0.0
  0
LINE
  5
460
100
AcDbEntity
  8
0
  6
Continuous
 62
     8
100
AcDbLine
 10
467.276065
 20
68.166397
 30
0.0
 11
468.275746
 21
68.166397
 31
0.0
  0
LINE
  5
461
100
AcDbEntity
  8
0
  6
Continuous
 62
     8
100
AcDbLine
 10
470.275959
 20
68.166397
 30
0.0
 11
478.155946
 21
68.166397
 31
0.0
  0
LINE
  5
462
100
AcDbEntity
  8
0
  6
Continuous
 62
     8
100
AcDbLine
 10
480.156158
 20
68.166397
 30
0.0
 11
481.155839
 21
68.166397
 31
0.0
  0
LINE
  5
463
100
AcDbEntity
  8
0
  6
Continuous
 62
     8
100
AcDbLine
 10
483.156052
 20
68.166397
 30
0.0
 11
491.036038
 21
68.166397
 31
0.0
  0
ENDBLK
  5
464
100
AcDbEntity
  8
0
100
AcDbBlockEnd
  0
BLOCK
  5
467
100
AcDbEntity
  8
0
100
AcDbBlockBegin
  2
*B84
 70
     0
 10
0.0
 20
0.0
 30
0.0
  3
*B84
  1

  0
LINE
  5
468
100
AcDbEntity
  8
0
  6
Continuous
 62
     8
100
AcDbLine
 10
231.494826
 20
98.165756
 30
0.0
 11
237.494613
 21
98.165756
 31
0.0
  0
LINE
  5
469
100
AcDbEntity
  8
0
  6
Continuous
 62
     8
100
AcDbLine
 10
243.494825
 20
98.165756
 30
0.0
 11
252.994559
 21
98.165756
 31
0.0
  0
LINE
  5
46A
100
AcDbEntity
  8
0
  6
Continuous
 62
     8
100
AcDbLine
 10
254.994771
 20
98.165756
 30
0.0
 11
255.994452
 21
98.165756
 31
0.0
  0
LINE
  5
46B
100
AcDbEntity
  8
0
  6
Continuous
 62
     8
100
AcDbLine
 10
257.994665
 20
98.165756
 30
0.0
 11
267.494824
 21
98.165756
 31
0.0
  0
LINE
  5
46C
100
AcDbEntity
  8
0
  6
Continuous
 62
     8
100
AcDbLine
 10
269.494611
 20
98.165756
 30
0.0
 11
270.494717
 21
98.165756
 31
0.0
  0
LINE
  5
46D
100
AcDbEntity
  8
0
  6
Continuous
 62
     8
100
AcDbLine
 10
272.494504
 20
98.165756
 30
0.0
 11
281.994663
 21
98.165756
 31
0.0
  0
LINE
  5
46E
100
AcDbEntity
  8
0
  6
Continuous
 62
     8
100
AcDbLine
 10
287.99445
 20
98.165756
 30
0.0
 11
297.494609
 21
98.165756
 31
0.0
  0
LINE
  5
46F
100
AcDbEntity
  8
0
  6
Continuous
 62
     8
100
AcDbLine
 10
299.494396
 20
98.165756
 30
0.0
 11
300.494503
 21
98.165756
 31
0.0
  0
LINE
  5
470
100
AcDbEntity
  8
0
  6
Continuous
 62
     8
100
AcDbLine
 10
302.494715
 20
98.165756
 30
0.0
 11
311.994449
 21
98.165756
 31
0.0
  0
LINE
  5
471
100
AcDbEntity
  8
0
  6
Continuous
 62
     8
100
AcDbLine
 10
313.994662
 20
98.165756
 30
0.0
 11
314.994768
 21
98.165756
 31
0.0
  0
LINE
  5
472
100
AcDbEntity
  8
0
  6
Continuous
 62
     8
100
AcDbLine
 10
316.994555
 20
98.165756
 30
0.0
 11
326.494714
 21
98.165756
 31
0.0
  0
LINE
  5
473
100
AcDbEntity
  8
0
  6
Continuous
 62
     8
100
AcDbLine
 10
332.494501
 20
98.165756
 30
0.0
 11
341.99466
 21
98.165756
 31
0.0
  0
LINE
  5
474
100
AcDbEntity
  8
0
  6
Continuous
 62
     8
100
AcDbLine
 10
343.994447
 20
98.165756
 30
0.0
 11
344.994553
 21
98.165756
 31
0.0
  0
LINE
  5
475
100
AcDbEntity
  8
0
  6
Continuous
 62
     8
100
AcDbLine
 10
346.994766
 20
98.165756
 30
0.0
 11
356.494499
 21
98.165756
 31
0.0
  0
LINE
  5
476
100
AcDbEntity
  8
0
  6
Continuous
 62
     8
100
AcDbLine
 10
358.494712
 20
98.165756
 30
0.0
 11
359.494393
 21
98.165756
 31
0.0
  0
LINE
  5
477
100
AcDbEntity
  8
0
  6
Continuous
 62
     8
100
AcDbLine
 10
361.494606
 20
98.165756
 30
0.0
 11
370.994765
 21
98.165756
 31
0.0
  0
LINE
  5
478
100
AcDbEntity
  8
0
  6
Continuous
 62
     8
100
AcDbLine
 10
376.994551
 20
98.165756
 30
0.0
 11
386.49471
 21
98.165756
 31
0.0
  0
LINE
  5
479
100
AcDbEntity
  8
0
  6
Continuous
 62
     8
100
AcDbLine
 10
388.494498
 20
98.165756
 30
0.0
 11
389.494604
 21
98.165756
 31
0.0
  0
LINE
  5
47A
100
AcDbEntity
  8
0
  6
Continuous
 62
     8
100
AcDbLine
 10
391.494391
 20
98.165756
 30
0.0
 11
400.99455
 21
98.165756
 31
0.0
  0
LINE
  5
47B
100
AcDbEntity
  8
0
  6
Continuous
 62
     8
100
AcDbLine
 10
402.994763
 20
98.165756
 30
0.0
 11
403.994443
 21
98.165756
 31
0.0
  0
LINE
  5
47C
100
AcDbEntity
  8
0
  6
Continuous
 62
     8
100
AcDbLine
 10
405.994656
 20
98.165756
 30
0.0
 11
415.49439
 21
98.165756
 31
0.0
  0
LINE
  5
47D
100
AcDbEntity
  8
0
  6
Continuous
 62
     8
100
AcDbLine
 10
421.494602
 20
98.165756
 30
0.0
 11
427.494389
 21
98.165756
 31
0.0
  0
ENDBLK
  5
47E
100
AcDbEntity
  8
0
100
AcDbBlockEnd
  0
BLOCK
  5
481
100
AcDbEntity
  8
0
100
AcDbBlockBegin
  2
*B85
 70
     0
 10
0.0
 20
0.0
 30
0.0
  3
*B85
  1

  0
LINE
  5
482
100
AcDbEntity
  8
0
  6
Continuous
 62
     8
100
AcDbLine
 10
314.244475
 20
257.464396
 30
0.0
 11
314.244475
 21
291.688886
 31
0.0
  0
ENDBLK
  5
483
100
AcDbEntity
  8
0
100
AcDbBlockEnd
  0
BLOCK
  5
486
100
AcDbEntity
  8
0
100
AcDbBlockBegin
  2
*B86
 70
     0
 10
0.0
 20
0.0
 30
0.0
  3
*B86
  1

  0
LINE
  5
487
100
AcDbEntity
  8
0
  6
Continuous
 62
     8
100
AcDbLine
 10
195.994456
 20
273.6891
 30
0.0
 11
195.994456
 21
283.288844
 31
0.0
  0
LINE
  5
488
100
AcDbEntity
  8
0
  6
Continuous
 62
     8
100
AcDbLine
 10
195.994456
 20
285.289056
 30
0.0
 11
195.994456
 21
286.288737
 31
0.0
  0
LINE
  5
489
100
AcDbEntity
  8
0
  6
Continuous
 62
     8
100
AcDbLine
 10
195.994456
 20
288.28895
 30
0.0
 11
195.994456
 21
297.888694
 31
0.0
  0
LINE
  5
48A
100
AcDbEntity
  8
0
  6
Continuous
 62
     8
100
AcDbLine
 10
195.994456
 20
299.888481
 30
0.0
 11
195.994456
 21
300.888587
 31
0.0
  0
LINE
  5
48B
100
AcDbEntity
  8
0
  6
Continuous
 62
     8
100
AcDbLine
 10
195.994456
 20
302.8888
 30
0.0
 11
195.994456
 21
312.488544
 31
0.0
  0
LINE
  5
48C
100
AcDbEntity
  8
0
  6
Continuous
 62
     8
100
AcDbLine
 10
195.994456
 20
314.488331
 30
0.0
 11
195.994456
 21
315.488437
 31
0.0
  0
LINE
  5
48D
100
AcDbEntity
  8
0
  6
Continuous
 62
     8
100
AcDbLine
 10
195.994456
 20
317.488225
 30
0.0
 11
195.994456
 21
327.088394
 31
0.0
  0
LINE
  5
48E
100
AcDbEntity
  8
0
  6
Continuous
 62
     8
100
AcDbLine
 10
195.994456
 20
329.088181
 30
0.0
 11
195.994456
 21
330.088288
 31
0.0
  0
LINE
  5
48F
100
AcDbEntity
  8
0
  6
Continuous
 62
     8
100
AcDbLine
 10
195.994456
 20
332.088075
 30
0.0
 11
195.994456
 21
341.688244
 31
0.0
  0
ENDBLK
  5
490
100
AcDbEntity
  8
0
100
AcDbBlockEnd
  0
BLOCK
  5
493
100
AcDbEntity
  8
0
100
AcDbBlockBegin
  2
*B87
 70
     0
 10
0.0
 20
0.0
 30
0.0
  3
*B87
  1

  0
LINE
  5
494
100
AcDbEntity
  8
0
  6
Continuous
 62
     8
100
AcDbLine
 10
256.494505
 20
61.666131
 30
0.0
 11
256.494505
 21
65.166078
 31
0.0
  0
LINE
  5
495
100
AcDbEntity
  8
0
  6
Continuous
 62
     8
100
AcDbLine
 10
256.494505
 20
71.16629
 30
0.0
 11
256.494505
 21
74.666237
 31
0.0
  0
ENDBLK
  5
496
100
AcDbEntity
  8
0
100
AcDbBlockEnd
  0
BLOCK
  5
499
100
AcDbEntity
  8
0
100
AcDbBlockBegin
  2
*B88
 70
     0
 10
0.0
 20
0.0
 30
0.0
  3
*B88
  1

  0
LINE
  5
49A
100
AcDbEntity
  8
0
  6
Continuous
 62
     8
100
AcDbLine
 10
179.994457
 20
114.16533
 30
0.0
 11
191.828055
 21
114.16533
 31
0.0
  0
LINE
  5
49B
100
AcDbEntity
  8
0
  6
Continuous
 62
     8
100
AcDbLine
 10
193.827842
 20
114.16533
 30
0.0
 11
194.827949
 21
114.16533
 31
0.0
  0
LINE
  5
49C
100
AcDbEntity
  8
0
  6
Continuous
 62
     8
100
AcDbLine
 10
196.828161
 20
114.16533
 30
0.0
 11
208.661335
 21
114.16533
 31
0.0
  0
LINE
  5
49D
100
AcDbEntity
  8
0
  6
Continuous
 62
     8
100
AcDbLine
 10
210.661122
 20
114.16533
 30
0.0
 11
211.661228
 21
114.16533
 31
0.0
  0
LINE
  5
49E
100
AcDbEntity
  8
0
  6
Continuous
 62
     8
100
AcDbLine
 10
213.661441
 20
114.16533
 30
0.0
 11
225.494614
 21
114.16533
 31
0.0
  0
LINE
  5
49F
100
AcDbEntity
  8
0
  6
Continuous
 62
     8
100
AcDbLine
 10
231.494826
 20
114.16533
 30
0.0
 11
240.99456
 21
114.16533
 31
0.0
  0
LINE
  5
4A0
100
AcDbEntity
  8
0
  6
Continuous
 62
     8
100
AcDbLine
 10
242.994772
 20
114.16533
 30
0.0
 11
243.994453
 21
114.16533
 31
0.0
  0
LINE
  5
4A1
100
AcDbEntity
  8
0
  6
Continuous
 62
     8
100
AcDbLine
 10
245.994666
 20
114.16533
 30
0.0
 11
255.494825
 21
114.16533
 31
0.0
  0
LINE
  5
4A2
100
AcDbEntity
  8
0
  6
Continuous
 62
     8
100
AcDbLine
 10
257.494612
 20
114.16533
 30
0.0
 11
258.494718
 21
114.16533
 31
0.0
  0
LINE
  5
4A3
100
AcDbEntity
  8
0
  6
Continuous
 62
     8
100
AcDbLine
 10
260.494505
 20
114.16533
 30
0.0
 11
269.994664
 21
114.16533
 31
0.0
  0
LINE
  5
4A4
100
AcDbEntity
  8
0
  6
Continuous
 62
     8
100
AcDbLine
 10
275.994451
 20
114.16533
 30
0.0
 11
285.49461
 21
114.16533
 31
0.0
  0
LINE
  5
4A5
100
AcDbEntity
  8
0
  6
Continuous
 62
     8
100
AcDbLine
 10
287.494823
 20
114.16533
 30
0.0
 11
288.494503
 21
114.16533
 31
0.0
  0
LINE
  5
4A6
100
AcDbEntity
  8
0
  6
Continuous
 62
     8
100
AcDbLine
 10
290.494716
 20
114.16533
 30
0.0
 11
299.99445
 21
114.16533
 31
0.0
  0
LINE
  5
4A7
100
AcDbEntity
  8
0
  6
Continuous
 62
     8
100
AcDbLine
 10
301.994662
 20
114.16533
 30
0.0
 11
302.994769
 21
114.16533
 31
0.0
  0
LINE
  5
4A8
100
AcDbEntity
  8
0
  6
Continuous
 62
     8
100
AcDbLine
 10
304.994556
 20
114.16533
 30
0.0
 11
314.494715
 21
114.16533
 31
0.0
  0
LINE
  5
4A9
100
AcDbEntity
  8
0
  6
Continuous
 62
     8
100
AcDbLine
 10
320.494502
 20
114.16533
 30
0.0
 11
329.994661
 21
114.16533
 31
0.0
  0
LINE
  5
4AA
100
AcDbEntity
  8
0
  6
Continuous
 62
     8
100
AcDbLine
 10
331.994448
 20
114.16533
 30
0.0
 11
332.994554
 21
114.16533
 31
0.0
  0
LINE
  5
4AB
100
AcDbEntity
  8
0
  6
Continuous
 62
     8
100
AcDbLine
 10
334.994767
 20
114.16533
 30
0.0
 11
344.4945
 21
114.16533
 31
0.0
  0
LINE
  5
4AC
100
AcDbEntity
  8
0
  6
Continuous
 62
     8
100
AcDbLine
 10
346.494713
 20
114.16533
 30
0.0
 11
347.494819
 21
114.16533
 31
0.0
  0
LINE
  5
4AD
100
AcDbEntity
  8
0
  6
Continuous
 62
     8
100
AcDbLine
 10
349.494606
 20
114.16533
 30
0.0
 11
358.994765
 21
114.16533
 31
0.0
  0
LINE
  5
4AE
100
AcDbEntity
  8
0
  6
Continuous
 62
     8
100
AcDbLine
 10
364.994552
 20
114.16533
 30
0.0
 11
374.494711
 21
114.16533
 31
0.0
  0
LINE
  5
4AF
100
AcDbEntity
  8
0
  6
Continuous
 62
     8
100
AcDbLine
 10
376.494498
 20
114.16533
 30
0.0
 11
377.494605
 21
114.16533
 31
0.0
  0
LINE
  5
4B0
100
AcDbEntity
  8
0
  6
Continuous
 62
     8
100
AcDbLine
 10
379.494392
 20
114.16533
 30
0.0
 11
388.994551
 21
114.16533
 31
0.0
  0
LINE
  5
4B1
100
AcDbEntity
  8
0
  6
Continuous
 62
     8
100
AcDbLine
 10
390.994763
 20
114.16533
 30
0.0
 11
391.994444
 21
114.16533
 31
0.0
  0
LINE
  5
4B2
100
AcDbEntity
  8
0
  6
Continuous
 62
     8
100
AcDbLine
 10
393.994657
 20
114.16533
 30
0.0
 11
403.49439
 21
114.16533
 31
0.0
  0
LINE
  5
4B3
100
AcDbEntity
  8
0
  6
Continuous
 62
     8
100
AcDbLine
 10
409.494603
 20
114.16533
 30
0.0
 11
420.244682
 21
114.16533
 31
0.0
  0
LINE
  5
4B4
100
AcDbEntity
  8
0
  6
Continuous
 62
     8
100
AcDbLine
 10
422.244469
 20
114.16533
 30
0.0
 11
423.244575
 21
114.16533
 31
0.0
  0
LINE
  5
4B5
100
AcDbEntity
  8
0
  6
Continuous
 62
     8
100
AcDbLine
 10
425.244362
 20
114.16533
 30
0.0
 11
435.994442
 21
114.16533
 31
0.0
  0
LINE
  5
4B6
100
AcDbEntity
  8
0
  6
Continuous
 62
     8
100
AcDbLine
 10
441.994654
 20
114.16533
 30
0.0
 11
454.99476
 21
114.16533
 31
0.0
  0
ENDBLK
  5
4B7
100
AcDbEntity
  8
0
100
AcDbBlockEnd
  0
BLOCK
  5
4BA
100
AcDbEntity
  8
0
100
AcDbBlockBegin
  2
*B89
 70
     0
 10
0.0
 20
0.0
 30
0.0
  3
*B89
  1

  0
LINE
  5
4BB
100
AcDbEntity
  8
0
  6
Continuous
 62
     8
100
AcDbLine
 10
284.994557
 20
38.999466
 30
0.0
 11
284.994557
 21
42.999465
 31
0.0
  0
LINE
  5
4BC
100
AcDbEntity
  8
0
  6
Continuous
 62
     8
100
AcDbLine
 10
284.994557
 20
42.999465
 30
0.0
 11
284.994557
 21
52.291092
 31
0.0
  0
LINE
  5
4BD
100
AcDbEntity
  8
0
  6
Continuous
 62
     8
100
AcDbLine
 10
284.994557
 20
54.290879
 30
0.0
 11
284.994557
 21
55.290985
 31
0.0
  0
LINE
  5
4BE
100
AcDbEntity
  8
0
  6
Continuous
 62
     8
100
AcDbLine
 10
284.994557
 20
57.291198
 30
0.0
 11
284.994557
 21
66.582824
 31
0.0
  0
LINE
  5
4BF
100
AcDbEntity
  8
0
  6
Continuous
 62
     8
100
AcDbLine
 10
284.994557
 20
68.582611
 30
0.0
 11
284.994557
 21
69.582717
 31
0.0
  0
LINE
  5
4C0
100
AcDbEntity
  8
0
  6
Continuous
 62
     8
100
AcDbLine
 10
284.994557
 20
71.582505
 30
0.0
 11
284.994557
 21
80.874131
 31
0.0
  0
LINE
  5
4C1
100
AcDbEntity
  8
0
  6
Continuous
 62
     8
100
AcDbLine
 10
284.994557
 20
82.874343
 30
0.0
 11
284.994557
 21
83.874024
 31
0.0
  0
LINE
  5
4C2
100
AcDbEntity
  8
0
  6
Continuous
 62
     8
100
AcDbLine
 10
284.994557
 20
85.874237
 30
0.0
 11
284.994557
 21
95.165863
 31
0.0
  0
LINE
  5
4C3
100
AcDbEntity
  8
0
  6
Continuous
 62
     8
100
AcDbLine
 10
284.994557
 20
101.16565
 30
0.0
 11
284.994557
 21
107.165437
 31
0.0
  0
ENDBLK
  5
4C4
100
AcDbEntity
  8
0
100
AcDbBlockEnd
  0
BLOCK
  5
4C7
100
AcDbEntity
  8
0
100
AcDbBlockBegin
  2
*B90
 70
     0
 10
0.0
 20
0.0
 30
0.0
  3
*B90
  1

  0
LINE
  5
4C8
100
AcDbEntity
  8
0
  6
Continuous
 62
     8
100
AcDbLine
 10
394.49471
 20
229.464823
 30
0.0
 11
394.49471
 21
233.464823
 31
0.0
  0
LINE
  5
4C9
100
AcDbEntity
  8
0
  6
Continuous
 62
     8
100
AcDbLine
 10
394.49471
 20
233.464823
 30
0.0
 11
394.49471
 21
244.020839
 31
0.0
  0
LINE
  5
4CA
100
AcDbEntity
  8
0
  6
Continuous
 62
     8
100
AcDbLine
 10
394.49471
 20
246.021051
 30
0.0
 11
394.49471
 21
247.020732
 31
0.0
  0
LINE
  5
4CB
100
AcDbEntity
  8
0
  6
Continuous
 62
     8
100
AcDbLine
 10
394.49471
 20
249.020945
 30
0.0
 11
394.49471
 21
259.576961
 31
0.0
  0
LINE
  5
4CC
100
AcDbEntity
  8
0
  6
Continuous
 62
     8
100
AcDbLine
 10
394.49471
 20
261.576748
 30
0.0
 11
394.49471
 21
262.576854
 31
0.0
  0
LINE
  5
4CD
100
AcDbEntity
  8
0
  6
Continuous
 62
     8
100
AcDbLine
 10
394.49471
 20
264.576641
 30
0.0
 11
394.49471
 21
275.132657
 31
0.0
  0
LINE
  5
4CE
100
AcDbEntity
  8
0
  6
Continuous
 62
     8
100
AcDbLine
 10
394.49471
 20
277.13287
 30
0.0
 11
394.49471
 21
278.132976
 31
0.0
  0
LINE
  5
4CF
100
AcDbEntity
  8
0
  6
Continuous
 62
     8
100
AcDbLine
 10
394.49471
 20
280.132763
 30
0.0
 11
394.49471
 21
290.688779
 31
0.0
  0
LINE
  5
4D0
100
AcDbEntity
  8
0
  6
Continuous
 62
     8
100
AcDbLine
 10
394.49471
 20
296.688566
 30
0.0
 11
394.49471
 21
306.438539
 31
0.0
  0
ENDBLK
  5
4D1
100
AcDbEntity
  8
0
100
AcDbBlockEnd
  0
BLOCK
  5
4D4
100
AcDbEntity
  8
0
100
AcDbBlockBegin
  2
*B91
 70
     0
 10
0.0
 20
0.0
 30
0.0
  3
*B91
  1

  0
LINE
  5
4D5
100
AcDbEntity
  8
0
  6
Continuous
 62
     8
100
AcDbLine
 10
361.994659
 20
198.022331
 30
0.0
 11
361.994659
 21
202.022331
 31
0.0
  0
LINE
  5
4D6
100
AcDbEntity
  8
0
  6
Continuous
 62
     8
100
AcDbLine
 10
361.994659
 20
137.165222
 30
0.0
 11
361.994659
 21
143.165009
 31
0.0
  0
LINE
  5
4D7
100
AcDbEntity
  8
0
  6
Continuous
 62
     8
100
AcDbLine
 10
361.994659
 20
149.164796
 30
0.0
 11
361.994659
 21
157.629526
 31
0.0
  0
LINE
  5
4D8
100
AcDbEntity
  8
0
  6
Continuous
 62
     8
100
AcDbLine
 10
361.994659
 20
159.629313
 30
0.0
 11
361.994659
 21
160.629419
 31
0.0
  0
LINE
  5
4D9
100
AcDbEntity
  8
0
  6
Continuous
 62
     8
100
AcDbLine
 10
361.994659
 20
162.629206
 30
0.0
 11
361.994659
 21
171.09351
 31
0.0
  0
LINE
  5
4DA
100
AcDbEntity
  8
0
  6
Continuous
 62
     8
100
AcDbLine
 10
361.994659
 20
173.093723
 30
0.0
 11
361.994659
 21
174.093404
 31
0.0
  0
LINE
  5
4DB
100
AcDbEntity
  8
0
  6
Continuous
 62
     8
100
AcDbLine
 10
361.994659
 20
176.093616
 30
0.0
 11
361.994659
 21
184.557921
 31
0.0
  0
LINE
  5
4DC
100
AcDbEntity
  8
0
  6
Continuous
 62
     8
100
AcDbLine
 10
361.994659
 20
186.558133
 30
0.0
 11
361.994659
 21
187.557814
 31
0.0
  0
LINE
  5
4DD
100
AcDbEntity
  8
0
  6
Continuous
 62
     8
100
AcDbLine
 10
361.994659
 20
189.558027
 30
0.0
 11
361.994659
 21
198.022331
 31
0.0
  0
ENDBLK
  5
4DE
100
AcDbEntity
  8
0
100
AcDbBlockEnd
  0
BLOCK
  5
4E1
100
AcDbEntity
  8
0
100
AcDbBlockBegin
  2
*B92
 70
     0
 10
0.0
 20
0.0
 30
0.0
  3
*B92
  1

  0
LINE
  5
4E2
100
AcDbEntity
  8
0
  6
Continuous
 62
     8
100
AcDbLine
 10
361.994659
 20
105.16565
 30
0.0
 11
361.994659
 21
111.165437
 31
0.0
  0
LINE
  5
4E3
100
AcDbEntity
  8
0
  6
Continuous
 62
     8
100
AcDbLine
 10
361.994659
 20
117.165649
 30
0.0
 11
361.994659
 21
123.165436
 31
0.0
  0
ENDBLK
  5
4E4
100
AcDbEntity
  8
0
100
AcDbBlockEnd
  0
BLOCK
  5
4E7
100
AcDbEntity
  8
0
100
AcDbBlockBegin
  2
*B93
 70
     0
 10
0.0
 20
0.0
 30
0.0
  3
*B93
  1

  0
LINE
  5
4E8
100
AcDbEntity
  8
0
  6
Continuous
 62
     8
100
AcDbLine
 10
300.994556
 20
61.666131
 30
0.0
 11
300.994556
 21
65.166078
 31
0.0
  0
LINE
  5
4E9
100
AcDbEntity
  8
0
  6
Continuous
 62
     8
100
AcDbLine
 10
300.994556
 20
71.16629
 30
0.0
 11
300.994556
 21
74.666237
 31
0.0
  0
ENDBLK
  5
4EA
100
AcDbEntity
  8
0
100
AcDbBlockEnd
  0
BLOCK
  5
4ED
100
AcDbEntity
  8
0
100
AcDbBlockBegin
  2
*B94
 70
     0
 10
0.0
 20
0.0
 30
0.0
  3
*B94
  1

  0
LINE
  5
4EE
100
AcDbEntity
  8
0
  6
Continuous
 62
     8
100
AcDbLine
 10
349.994659
 20
121.165223
 30
0.0
 11
349.994659
 21
127.165436
 31
0.0
  0
LINE
  5
4EF
100
AcDbEntity
  8
0
  6
Continuous
 62
     8
100
AcDbLine
 10
349.994659
 20
133.165222
 30
0.0
 11
349.994659
 21
139.165009
 31
0.0
  0
ENDBLK
  5
4F0
100
AcDbEntity
  8
0
100
AcDbBlockEnd
  0
BLOCK
  5
4F3
100
AcDbEntity
  8
0
100
AcDbBlockBegin
  2
*B95
 70
     0
 10
0.0
 20
0.0
 30
0.0
  3
*B95
  1

  0
LINE
  5
4F4
100
AcDbEntity
  8
0
  6
Continuous
 62
     8
100
AcDbLine
 10
228.494507
 20
73.166077
 30
0.0
 11
228.494507
 21
79.165864
 31
0.0
  0
LINE
  5
4F5
100
AcDbEntity
  8
0
  6
Continuous
 62
     8
100
AcDbLine
 10
228.494507
 20
85.166076
 30
0.0
 11
228.494507
 21
91.165863
 31
0.0
  0
ENDBLK
  5
4F6
100
AcDbEntity
  8
0
100
AcDbBlockEnd
  0
BLOCK
  5
4F9
100
AcDbEntity
  8
0
100
AcDbBlockBegin
  2
*B96
 70
     0
 10
0.0
 20
0.0
 30
0.0
  3
*B96
  1

  0
LINE
  5
4FA
100
AcDbEntity
  8
0
  6
Continuous
 62
     8
100
AcDbLine
 10
329.494607
 20
308.938379
 30
0.0
 11
329.494607
 21
318.688352
 31
0.0
  0
LINE
  5
4FB
100
AcDbEntity
  8
0
  6
Continuous
 62
     8
100
AcDbLine
 10
329.494607
 20
324.688139
 30
0.0
 11
329.494607
 21
334.438112
 31
0.0
  0
ENDBLK
  5
4FC
100
AcDbEntity
  8
0
100
AcDbBlockEnd
  0
BLOCK
  5
4FF
100
AcDbEntity
  8
0
100
AcDbBlockBegin
  2
*B97
 70
     0
 10
0.0
 20
0.0
 30
0.0
  3
*B97
  1

  0
LINE
  5
500
100
AcDbEntity
  8
0
  6
Continuous
 62
     8
100
AcDbLine
 10
305.494609
 20
229.464823
 30
0.0
 11
305.494609
 21
233.464823
 31
0.0
  0
LINE
  5
501
100
AcDbEntity
  8
0
  6
Continuous
 62
     8
100
AcDbLine
 10
305.494609
 20
233.464823
 30
0.0
 11
305.494609
 21
244.020839
 31
0.0
  0
LINE
  5
502
100
AcDbEntity
  8
0
  6
Continuous
 62
     8
100
AcDbLine
 10
305.494609
 20
246.021051
 30
0.0
 11
305.494609
 21
247.020732
 31
0.0
  0
LINE
  5
503
100
AcDbEntity
  8
0
  6
Continuous
 62
     8
100
AcDbLine
 10
305.494609
 20
249.020945
 30
0.0
 11
305.494609
 21
259.576961
 31
0.0
  0
LINE
  5
504
100
AcDbEntity
  8
0
  6
Continuous
 62
     8
100
AcDbLine
 10
305.494609
 20
261.576748
 30
0.0
 11
305.494609
 21
262.576854
 31
0.0
  0
LINE
  5
505
100
AcDbEntity
  8
0
  6
Continuous
 62
     8
100
AcDbLine
 10
305.494609
 20
264.576641
 30
0.0
 11
305.494609
 21
275.132657
 31
0.0
  0
LINE
  5
506
100
AcDbEntity
  8
0
  6
Continuous
 62
     8
100
AcDbLine
 10
305.494609
 20
277.13287
 30
0.0
 11
305.494609
 21
278.132976
 31
0.0
  0
LINE
  5
507
100
AcDbEntity
  8
0
  6
Continuous
 62
     8
100
AcDbLine
 10
305.494609
 20
280.132763
 30
0.0
 11
305.494609
 21
290.688779
 31
0.0
  0
LINE
  5
508
100
AcDbEntity
  8
0
  6
Continuous
 62
     8
100
AcDbLine
 10
305.494609
 20
296.688566
 30
0.0
 11
305.494609
 21
306.438539
 31
0.0
  0
ENDBLK
  5
509
100
AcDbEntity
  8
0
100
AcDbBlockEnd
  0
BLOCK
  5
50C
100
AcDbEntity
  8
0
100
AcDbBlockBegin
  2
*B98
 70
     0
 10
0.0
 20
0.0
 30
0.0
  3
*B98
  1

  0
LINE
  5
50D
100
AcDbEntity
  8
0
  6
Continuous
 62
     8
100
AcDbLine
 10
211.994455
 20
38.999466
 30
0.0
 11
211.994455
 21
42.999465
 31
0.0
  0
LINE
  5
50E
100
AcDbEntity
  8
0
  6
Continuous
 62
     8
100
AcDbLine
 10
211.994455
 20
42.999465
 30
0.0
 11
211.994455
 21
51.582931
 31
0.0
  0
LINE
  5
50F
100
AcDbEntity
  8
0
  6
Continuous
 62
     8
100
AcDbLine
 10
211.994455
 20
53.582718
 30
0.0
 11
211.994455
 21
54.582825
 31
0.0
  0
LINE
  5
510
100
AcDbEntity
  8
0
  6
Continuous
 62
     8
100
AcDbLine
 10
211.994455
 20
56.583037
 30
0.0
 11
211.994455
 21
65.166078
 31
0.0
  0
LINE
  5
511
100
AcDbEntity
  8
0
  6
Continuous
 62
     8
100
AcDbLine
 10
211.994455
 20
71.16629
 30
0.0
 11
211.994455
 21
74.666237
 31
0.0
  0
ENDBLK
  5
512
100
AcDbEntity
  8
0
100
AcDbBlockEnd
  0
BLOCK
  5
515
100
AcDbEntity
  8
0
100
AcDbBlockBegin
  2
*B99
 70
     0
 10
0.0
 20
0.0
 30
0.0
  3
*B99
  1

  0
LINE
  5
516
100
AcDbEntity
  8
0
  6
Continuous
 62
     8
100
AcDbLine
 10
422.994761
 20
153.664849
 30
0.0
 11
422.994761
 21
157.164795
 31
0.0
  0
LINE
  5
517
100
AcDbEntity
  8
0
  6
Continuous
 62
     8
100
AcDbLine
 10
422.994761
 20
163.164582
 30
0.0
 11
422.994761
 21
166.664529
 31
0.0
  0
ENDBLK
  5
518
100
AcDbEntity
  8
0
100
AcDbBlockEnd
  0
BLOCK
  5
51B
100
AcDbEntity
  8
0
100
AcDbBlockBegin
  2
*B100
 70
     0
 10
0.0
 20
0.0
 30
0.0
  3
*B100
  1

  0
LINE
  5
51C
100
AcDbEntity
  8
0
  6
Continuous
 62
     8
100
AcDbLine
 10
289.49461
 20
153.664849
 30
0.0
 11
289.49461
 21
157.164795
 31
0.0
  0
LINE
  5
51D
100
AcDbEntity
  8
0
  6
Continuous
 62
     8
100
AcDbLine
 10
289.49461
 20
163.164582
 30
0.0
 11
289.49461
 21
166.664529
 31
0.0
  0
ENDBLK
  5
51E
100
AcDbEntity
  8
0
100
AcDbBlockEnd
  0
BLOCK
  5
521
100
AcDbEntity
  8
0
100
AcDbBlockBegin
  2
*B101
 70
     0
 10
0.0
 20
0.0
 30
0.0
  3
*B101
  1

  0
LINE
  5
522
100
AcDbEntity
  8
0
  6
Continuous
 62
     8
100
AcDbLine
 10
418.494709
 20
308.938379
 30
0.0
 11
418.494709
 21
318.688352
 31
0.0
  0
LINE
  5
523
100
AcDbEntity
  8
0
  6
Continuous
 62
     8
100
AcDbLine
 10
418.494709
 20
324.688139
 30
0.0
 11
418.494709
 21
334.438112
 31
0.0
  0
ENDBLK
  5
524
100
AcDbEntity
  8
0
100
AcDbBlockEnd
  0
BLOCK
  5
527
100
AcDbEntity
  8
0
100
AcDbBlockBegin
  2
*B102
 70
     0
 10
0.0
 20
0.0
 30
0.0
  3
*B102
  1

  0
LINE
  5
528
100
AcDbEntity
  8
0
  6
Continuous
 62
     8
100
AcDbLine
 10
373.994658
 20
89.166076
 30
0.0
 11
373.994658
 21
95.165863
 31
0.0
  0
LINE
  5
529
100
AcDbEntity
  8
0
  6
Continuous
 62
     8
100
AcDbLine
 10
373.994658
 20
101.16565
 30
0.0
 11
373.994658
 21
107.165437
 31
0.0
  0
ENDBLK
  5
52A
100
AcDbEntity
  8
0
100
AcDbBlockEnd
  0
BLOCK
  5
52D
100
AcDbEntity
  8
0
100
AcDbBlockBegin
  2
*B103
 70
     0
 10
0.0
 20
0.0
 30
0.0
  3
*B103
  1

  0
LINE
  5
52E
100
AcDbEntity
  8
0
  6
Continuous
 62
     8
100
AcDbLine
 10
260.994558
 20
229.464823
 30
0.0
 11
260.994558
 21
233.464823
 31
0.0
  0
LINE
  5
52F
100
AcDbEntity
  8
0
  6
Continuous
 62
     8
100
AcDbLine
 10
260.994558
 20
233.464823
 30
0.0
 11
260.994558
 21
244.020839
 31
0.0
  0
LINE
  5
530
100
AcDbEntity
  8
0
  6
Continuous
 62
     8
100
AcDbLine
 10
260.994558
 20
246.021051
 30
0.0
 11
260.994558
 21
247.020732
 31
0.0
  0
LINE
  5
531
100
AcDbEntity
  8
0
  6
Continuous
 62
     8
100
AcDbLine
 10
260.994558
 20
249.020945
 30
0.0
 11
260.994558
 21
259.576961
 31
0.0
  0
LINE
  5
532
100
AcDbEntity
  8
0
  6
Continuous
 62
     8
100
AcDbLine
 10
260.994558
 20
261.576748
 30
0.0
 11
260.994558
 21
262.576854
 31
0.0
  0
LINE
  5
533
100
AcDbEntity
  8
0
  6
Continuous
 62
     8
100
AcDbLine
 10
260.994558
 20
264.576641
 30
0.0
 11
260.994558
 21
275.132657
 31
0.0
  0
LINE
  5
534
100
AcDbEntity
  8
0
  6
Continuous
 62
     8
100
AcDbLine
 10
260.994558
 20
277.13287
 30
0.0
 11
260.994558
 21
278.132976
 31
0.0
  0
LINE
  5
535
100
AcDbEntity
  8
0
  6
Continuous
 62
     8
100
AcDbLine
 10
260.994558
 20
280.132763
 30
0.0
 11
260.994558
 21
290.688779
 31
0.0
  0
LINE
  5
536
100
AcDbEntity
  8
0
  6
Continuous
 62
     8
100
AcDbLine
 10
260.994558
 20
296.688566
 30
0.0
 11
260.994558
 21
306.438539
 31
0.0
  0
ENDBLK
  5
537
100
AcDbEntity
  8
0
100
AcDbBlockEnd
  0
BLOCK
  5
53A
100
AcDbEntity
  8
0
100
AcDbBlockBegin
  2
*B104
 70
     0
 10
0.0
 20
0.0
 30
0.0
  3
*B104
  1

  0
LINE
  5
53B
100
AcDbEntity
  8
0
  6
Continuous
 62
     8
100
AcDbLine
 10
164.971583
 20
293.688673
 30
0.0
 11
169.03627
 21
293.688673
 31
0.0
  0
LINE
  5
53C
100
AcDbEntity
  8
0
  6
Continuous
 62
     8
100
AcDbLine
 10
169.03627
 20
293.688673
 30
0.0
 11
180.522598
 21
293.688673
 31
0.0
  0
LINE
  5
53D
100
AcDbEntity
  8
0
  6
Continuous
 62
     8
100
AcDbLine
 10
182.522385
 20
293.688673
 30
0.0
 11
183.522491
 21
293.688673
 31
0.0
  0
LINE
  5
53E
100
AcDbEntity
  8
0
  6
Continuous
 62
     8
100
AcDbLine
 10
185.522279
 20
293.688673
 30
0.0
 11
197.008606
 21
293.688673
 31
0.0
  0
LINE
  5
53F
100
AcDbEntity
  8
0
  6
Continuous
 62
     8
100
AcDbLine
 10
199.008393
 20
293.688673
 30
0.0
 11
200.0085
 21
293.688673
 31
0.0
  0
LINE
  5
540
100
AcDbEntity
  8
0
  6
Continuous
 62
     8
100
AcDbLine
 10
202.008712
 20
293.688673
 30
0.0
 11
213.494614
 21
293.688673
 31
0.0
  0
LINE
  5
541
100
AcDbEntity
  8
0
  6
Continuous
 62
     8
100
AcDbLine
 10
219.494827
 20
293.688673
 30
0.0
 11
228.99456
 21
293.688673
 31
0.0
  0
LINE
  5
542
100
AcDbEntity
  8
0
  6
Continuous
 62
     8
100
AcDbLine
 10
230.994773
 20
293.688673
 30
0.0
 11
231.994454
 21
293.688673
 31
0.0
  0
LINE
  5
543
100
AcDbEntity
  8
0
  6
Continuous
 62
     8
100
AcDbLine
 10
233.994666
 20
293.688673
 30
0.0
 11
243.494825
 21
293.688673
 31
0.0
  0
LINE
  5
544
100
AcDbEntity
  8
0
  6
Continuous
 62
     8
100
AcDbLine
 10
245.494612
 20
293.688673
 30
0.0
 11
246.494719
 21
293.688673
 31
0.0
  0
LINE
  5
545
100
AcDbEntity
  8
0
  6
Continuous
 62
     8
100
AcDbLine
 10
248.494506
 20
293.688673
 30
0.0
 11
257.994665
 21
293.688673
 31
0.0
  0
LINE
  5
546
100
AcDbEntity
  8
0
  6
Continuous
 62
     8
100
AcDbLine
 10
263.994452
 20
293.688673
 30
0.0
 11
273.494611
 21
293.688673
 31
0.0
  0
LINE
  5
547
100
AcDbEntity
  8
0
  6
Continuous
 62
     8
100
AcDbLine
 10
275.494823
 20
293.688673
 30
0.0
 11
276.494504
 21
293.688673
 31
0.0
  0
LINE
  5
548
100
AcDbEntity
  8
0
  6
Continuous
 62
     8
100
AcDbLine
 10
278.494717
 20
293.688673
 30
0.0
 11
287.99445
 21
293.688673
 31
0.0
  0
LINE
  5
549
100
AcDbEntity
  8
0
  6
Continuous
 62
     8
100
AcDbLine
 10
289.994663
 20
293.688673
 30
0.0
 11
290.994769
 21
293.688673
 31
0.0
  0
LINE
  5
54A
100
AcDbEntity
  8
0
  6
Continuous
 62
     8
100
AcDbLine
 10
292.994556
 20
293.688673
 30
0.0
 11
302.494715
 21
293.688673
 31
0.0
  0
LINE
  5
54B
100
AcDbEntity
  8
0
  6
Continuous
 62
     8
100
AcDbLine
 10
308.494502
 20
293.688673
 30
0.0
 11
317.994661
 21
293.688673
 31
0.0
  0
LINE
  5
54C
100
AcDbEntity
  8
0
  6
Continuous
 62
     8
100
AcDbLine
 10
319.994448
 20
293.688673
 30
0.0
 11
320.994555
 21
293.688673
 31
0.0
  0
LINE
  5
54D
100
AcDbEntity
  8
0
  6
Continuous
 62
     8
100
AcDbLine
 10
322.994767
 20
293.688673
 30
0.0
 11
332.494501
 21
293.688673
 31
0.0
  0
LINE
  5
54E
100
AcDbEntity
  8
0
  6
Continuous
 62
     8
100
AcDbLine
 10
334.494714
 20
293.688673
 30
0.0
 11
335.49482
 21
293.688673
 31
0.0
  0
LINE
  5
54F
100
AcDbEntity
  8
0
  6
Continuous
 62
     8
100
AcDbLine
 10
337.494607
 20
293.688673
 30
0.0
 11
346.994766
 21
293.688673
 31
0.0
  0
LINE
  5
550
100
AcDbEntity
  8
0
  6
Continuous
 62
     8
100
AcDbLine
 10
352.994553
 20
293.688673
 30
0.0
 11
362.494712
 21
293.688673
 31
0.0
  0
LINE
  5
551
100
AcDbEntity
  8
0
  6
Continuous
 62
     8
100
AcDbLine
 10
364.494499
 20
293.688673
 30
0.0
 11
365.494605
 21
293.688673
 31
0.0
  0
LINE
  5
552
100
AcDbEntity
  8
0
  6
Continuous
 62
     8
100
AcDbLine
 10
367.494392
 20
293.688673
 30
0.0
 11
376.994551
 21
293.688673
 31
0.0
  0
LINE
  5
553
100
AcDbEntity
  8
0
  6
Continuous
 62
     8
100
AcDbLine
 10
378.994764
 20
293.688673
 30
0.0
 11
379.994445
 21
293.688673
 31
0.0
  0
LINE
  5
554
100
AcDbEntity
  8
0
  6
Continuous
 62
     8
100
AcDbLine
 10
381.994658
 20
293.688673
 30
0.0
 11
391.494391
 21
293.688673
 31
0.0
  0
LINE
  5
555
100
AcDbEntity
  8
0
  6
Continuous
 62
     8
100
AcDbLine
 10
397.494603
 20
293.688673
 30
0.0
 11
407.244576
 21
293.688673
 31
0.0
  0
ENDBLK
  5
556
100
AcDbEntity
  8
0
100
AcDbBlockEnd
  0
BLOCK
  5
559
100
AcDbEntity
  8
0
100
AcDbBlockBegin
  2
*B105
 70
     0
 10
0.0
 20
0.0
 30
0.0
  3
*B105
  1

  0
LINE
  5
55A
100
AcDbEntity
  8
0
  6
Continuous
 62
     8
100
AcDbLine
 10
317.494608
 20
333.463115
 30
0.0
 11
317.494608
 21
342.76921
 31
0.0
  0
LINE
  5
55B
100
AcDbEntity
  8
0
  6
Continuous
 62
     8
100
AcDbLine
 10
317.494608
 20
344.769423
 30
0.0
 11
317.494608
 21
345.769104
 31
0.0
  0
LINE
  5
55C
100
AcDbEntity
  8
0
  6
Continuous
 62
     8
100
AcDbLine
 10
317.494608
 20
347.769316
 30
0.0
 11
317.494608
 21
357.075412
 31
0.0
  0
LINE
  5
55D
100
AcDbEntity
  8
0
  6
Continuous
 62
     8
100
AcDbLine
 10
317.494608
 20
359.075199
 30
0.0
 11
317.494608
 21
360.075306
 31
0.0
  0
LINE
  5
55E
100
AcDbEntity
  8
0
  6
Continuous
 62
     8
100
AcDbLine
 10
317.494608
 20
362.075093
 30
0.0
 11
317.494608
 21
371.381189
 31
0.0
  0
LINE
  5
55F
100
AcDbEntity
  8
0
  6
Continuous
 62
     8
100
AcDbLine
 10
317.494608
 20
373.381401
 30
0.0
 11
317.494608
 21
374.381082
 31
0.0
  0
LINE
  5
560
100
AcDbEntity
  8
0
  6
Continuous
 62
     8
100
AcDbLine
 10
317.494608
 20
376.381295
 30
0.0
 11
317.494608
 21
385.687391
 31
0.0
  0
ENDBLK
  5
561
100
AcDbEntity
  8
0
100
AcDbBlockEnd
  0
BLOCK
  5
564
100
AcDbEntity
  8
0
100
AcDbBlockBegin
  2
*B106
 70
     0
 10
0.0
 20
0.0
 30
0.0
  3
*B106
  1

  0
LINE
  5
565
100
AcDbEntity
  8
0
  6
Continuous
 62
     8
100
AcDbLine
 10
195.994456
 20
38.999466
 30
0.0
 11
195.994456
 21
42.999465
 31
0.0
  0
LINE
  5
566
100
AcDbEntity
  8
0
  6
Continuous
 62
     8
100
AcDbLine
 10
195.994456
 20
42.999465
 30
0.0
 11
195.994456
 21
51.582931
 31
0.0
  0
LINE
  5
567
100
AcDbEntity
  8
0
  6
Continuous
 62
     8
100
AcDbLine
 10
195.994456
 20
53.582718
 30
0.0
 11
195.994456
 21
54.582825
 31
0.0
  0
LINE
  5
568
100
AcDbEntity
  8
0
  6
Continuous
 62
     8
100
AcDbLine
 10
195.994456
 20
56.583037
 30
0.0
 11
195.994456
 21
65.166078
 31
0.0
  0
LINE
  5
569
100
AcDbEntity
  8
0
  6
Continuous
 62
     8
100
AcDbLine
 10
195.994456
 20
71.16629
 30
0.0
 11
195.994456
 21
76.666024
 31
0.0
  0
ENDBLK
  5
56A
100
AcDbEntity
  8
0
100
AcDbBlockEnd
  0
BLOCK
  5
56D
100
AcDbEntity
  8
0
100
AcDbBlockBegin
  2
*B107
 70
     0
 10
0.0
 20
0.0
 30
0.0
  3
*B107
  1

  0
LINE
  5
56E
100
AcDbEntity
  8
0
  6
Continuous
 62
     8
100
AcDbLine
 10
195.994456
 20
151.665062
 30
0.0
 11
195.994456
 21
157.164795
 31
0.0
  0
LINE
  5
56F
100
AcDbEntity
  8
0
  6
Continuous
 62
     8
100
AcDbLine
 10
195.994456
 20
163.164582
 30
0.0
 11
195.994456
 21
168.664742
 31
0.0
  0
ENDBLK
  5
570
100
AcDbEntity
  8
0
100
AcDbBlockEnd
  0
BLOCK
  5
573
100
AcDbEntity
  8
0
100
AcDbBlockBegin
  2
*B108
 70
     0
 10
0.0
 20
0.0
 30
0.0
  3
*B108
  1

  0
LINE
  5
574
100
AcDbEntity
  8
0
  6
Continuous
 62
     8
100
AcDbLine
 10
244.994559
 20
38.999466
 30
0.0
 11
244.994559
 21
42.999465
 31
0.0
  0
LINE
  5
575
100
AcDbEntity
  8
0
  6
Continuous
 62
     8
100
AcDbLine
 10
244.994559
 20
42.999465
 30
0.0
 11
244.994559
 21
51.239916
 31
0.0
  0
LINE
  5
576
100
AcDbEntity
  8
0
  6
Continuous
 62
     8
100
AcDbLine
 10
244.994559
 20
53.240129
 30
0.0
 11
244.994559
 21
54.240235
 31
0.0
  0
LINE
  5
577
100
AcDbEntity
  8
0
  6
Continuous
 62
     8
100
AcDbLine
 10
244.994559
 20
56.240022
 30
0.0
 11
244.994559
 21
64.480898
 31
0.0
  0
LINE
  5
578
100
AcDbEntity
  8
0
  6
Continuous
 62
     8
100
AcDbLine
 10
244.994559
 20
66.480685
 30
0.0
 11
244.994559
 21
67.480792
 31
0.0
  0
LINE
  5
579
100
AcDbEntity
  8
0
  6
Continuous
 62
     8
100
AcDbLine
 10
244.994559
 20
69.480579
 30
0.0
 11
244.994559
 21
77.721455
 31
0.0
  0
LINE
  5
57A
100
AcDbEntity
  8
0
  6
Continuous
 62
     8
100
AcDbLine
 10
244.994559
 20
79.721242
 30
0.0
 11
244.994559
 21
80.721349
 31
0.0
  0
LINE
  5
57B
100
AcDbEntity
  8
0
  6
Continuous
 62
     8
100
AcDbLine
 10
244.994559
 20
82.721136
 30
0.0
 11
244.994559
 21
90.962012
 31
0.0
  0
LINE
  5
57C
100
AcDbEntity
  8
0
  6
Continuous
 62
     8
100
AcDbLine
 10
244.994559
 20
92.961799
 30
0.0
 11
244.994559
 21
93.961905
 31
0.0
  0
LINE
  5
57D
100
AcDbEntity
  8
0
  6
Continuous
 62
     8
100
AcDbLine
 10
244.994559
 20
95.961692
 30
0.0
 11
244.994559
 21
104.202569
 31
0.0
  0
LINE
  5
57E
100
AcDbEntity
  8
0
  6
Continuous
 62
     8
100
AcDbLine
 10
244.994559
 20
106.202356
 30
0.0
 11
244.994559
 21
107.202462
 31
0.0
  0
LINE
  5
57F
100
AcDbEntity
  8
0
  6
Continuous
 62
     8
100
AcDbLine
 10
244.994559
 20
109.202249
 30
0.0
 11
244.994559
 21
117.443125
 31
0.0
  0
LINE
  5
580
100
AcDbEntity
  8
0
  6
Continuous
 62
     8
100
AcDbLine
 10
244.994559
 20
119.442912
 30
0.0
 11
244.994559
 21
120.443019
 31
0.0
  0
LINE
  5
581
100
AcDbEntity
  8
0
  6
Continuous
 62
     8
100
AcDbLine
 10
244.994559
 20
122.442806
 30
0.0
 11
244.994559
 21
130.683682
 31
0.0
  0
LINE
  5
582
100
AcDbEntity
  8
0
  6
Continuous
 62
     8
100
AcDbLine
 10
244.994559
 20
132.683469
 30
0.0
 11
244.994559
 21
133.683575
 31
0.0
  0
LINE
  5
583
100
AcDbEntity
  8
0
  6
Continuous
 62
     8
100
AcDbLine
 10
244.994559
 20
135.683362
 30
0.0
 11
244.994559
 21
143.924239
 31
0.0
  0
LINE
  5
584
100
AcDbEntity
  8
0
  6
Continuous
 62
     8
100
AcDbLine
 10
244.994559
 20
145.924026
 30
0.0
 11
244.994559
 21
146.924132
 31
0.0
  0
LINE
  5
585
100
AcDbEntity
  8
0
  6
Continuous
 62
     8
100
AcDbLine
 10
244.994559
 20
148.924345
 30
0.0
 11
244.994559
 21
157.164795
 31
0.0
  0
LINE
  5
586
100
AcDbEntity
  8
0
  6
Continuous
 62
     8
100
AcDbLine
 10
244.994559
 20
163.164582
 30
0.0
 11
244.994559
 21
166.664529
 31
0.0
  0
ENDBLK
  5
587
100
AcDbEntity
  8
0
100
AcDbBlockEnd
  0
BLOCK
  5
58A
100
AcDbEntity
  8
0
100
AcDbBlockBegin
  2
*B109
 70
     0
 10
0.0
 20
0.0
 30
0.0
  3
*B109
  1

  0
LINE
  5
58B
100
AcDbEntity
  8
0
  6
Continuous
 62
     8
100
AcDbLine
 10
406.494709
 20
73.166077
 30
0.0
 11
406.494709
 21
79.165864
 31
0.0
  0
LINE
  5
58C
100
AcDbEntity
  8
0
  6
Continuous
 62
     8
100
AcDbLine
 10
406.494709
 20
85.166076
 30
0.0
 11
406.494709
 21
91.165863
 31
0.0
  0
ENDBLK
  5
58D
100
AcDbEntity
  8
0
100
AcDbBlockEnd
  0
BLOCK
  5
590
100
AcDbEntity
  8
0
100
AcDbBlockBegin
  2
*B110
 70
     0
 10
0.0
 20
0.0
 30
0.0
  3
*B110
  1

  0
LINE
  5
591
100
AcDbEntity
  8
0
  6
Continuous
 62
     8
100
AcDbLine
 10
406.494709
 20
105.16565
 30
0.0
 11
406.494709
 21
111.165437
 31
0.0
  0
LINE
  5
592
100
AcDbEntity
  8
0
  6
Continuous
 62
     8
100
AcDbLine
 10
406.494709
 20
117.165649
 30
0.0
 11
406.494709
 21
123.165436
 31
0.0
  0
ENDBLK
  5
593
100
AcDbEntity
  8
0
100
AcDbBlockEnd
  0
BLOCK
  5
596
100
AcDbEntity
  8
0
100
AcDbBlockBegin
  2
*B111
 70
     0
 10
0.0
 20
0.0
 30
0.0
  3
*B111
  1

  0
LINE
  5
597
100
AcDbEntity
  8
0
  6
Continuous
 62
     8
100
AcDbLine
 10
405.494603
 20
333.463115
 30
0.0
 11
405.494603
 21
342.76921
 31
0.0
  0
LINE
  5
598
100
AcDbEntity
  8
0
  6
Continuous
 62
     8
100
AcDbLine
 10
405.494603
 20
344.769423
 30
0.0
 11
405.494603
 21
345.769104
 31
0.0
  0
LINE
  5
599
100
AcDbEntity
  8
0
  6
Continuous
 62
     8
100
AcDbLine
 10
405.494603
 20
347.769316
 30
0.0
 11
405.494603
 21
357.075412
 31
0.0
  0
LINE
  5
59A
100
AcDbEntity
  8
0
  6
Continuous
 62
     8
100
AcDbLine
 10
405.494603
 20
359.075199
 30
0.0
 11
405.494603
 21
360.075306
 31
0.0
  0
LINE
  5
59B
100
AcDbEntity
  8
0
  6
Continuous
 62
     8
100
AcDbLine
 10
405.494603
 20
362.075093
 30
0.0
 11
405.494603
 21
371.381189
 31
0.0
  0
LINE
  5
59C
100
AcDbEntity
  8
0
  6
Continuous
 62
     8
100
AcDbLine
 10
405.494603
 20
373.381401
 30
0.0
 11
405.494603
 21
374.381082
 31
0.0
  0
LINE
  5
59D
100
AcDbEntity
  8
0
  6
Continuous
 62
     8
100
AcDbLine
 10
405.494603
 20
376.381295
 30
0.0
 11
405.494603
 21
385.687391
 31
0.0
  0
ENDBLK
  5
59E
100
AcDbEntity
  8
0
100
AcDbBlockEnd
  0
BLOCK
  5
5A1
100
AcDbEntity
  8
0
100
AcDbBlockBegin
  2
*B112
 70
     0
 10
0.0
 20
0.0
 30
0.0
  3
*B112
  1

  0
LINE
  5
5A2
100
AcDbEntity
  8
0
  6
Continuous
 62
     8
100
AcDbLine
 10
146.036378
 20
277.689099
 30
0.0
 11
181.994669
 21
277.689099
 31
0.0
  0
ENDBLK
  5
5A3
100
AcDbEntity
  8
0
100
AcDbBlockEnd
  0
BLOCK
  5
5A6
100
AcDbEntity
  8
0
100
AcDbBlockBegin
  2
*B113
 70
     0
 10
0.0
 20
0.0
 30
0.0
  3
*B113
  1

  0
LINE
  5
5A7
100
AcDbEntity
  8
0
  6
Continuous
 62
     8
100
AcDbLine
 10
146.036378
 20
337.688245
 30
0.0
 11
181.994669
 21
337.688245
 31
0.0
  0
ENDBLK
  5
5A8
100
AcDbEntity
  8
0
100
AcDbBlockEnd
  0
BLOCK
  5
5AB
100
AcDbEntity
  8
0
100
AcDbBlockBegin
  2
*B114
 70
     0
 10
0.0
 20
0.0
 30
0.0
  3
*B114
  1

  0
LINE
  5
5AC
100
AcDbEntity
  8
0
  6
Continuous
 62
     8
100
AcDbLine
 10
273.494611
 20
333.463115
 30
0.0
 11
273.494611
 21
342.76921
 31
0.0
  0
LINE
  5
5AD
100
AcDbEntity
  8
0
  6
Continuous
 62
     8
100
AcDbLine
 10
273.494611
 20
344.769423
 30
0.0
 11
273.494611
 21
345.769104
 31
0.0
  0
LINE
  5
5AE
100
AcDbEntity
  8
0
  6
Continuous
 62
     8
100
AcDbLine
 10
273.494611
 20
347.769316
 30
0.0
 11
273.494611
 21
357.075412
 31
0.0
  0
LINE
  5
5AF
100
AcDbEntity
  8
0
  6
Continuous
 62
     8
100
AcDbLine
 10
273.494611
 20
359.075199
 30
0.0
 11
273.494611
 21
360.075306
 31
0.0
  0
LINE
  5
5B0
100
AcDbEntity
  8
0
  6
Continuous
 62
     8
100
AcDbLine
 10
273.494611
 20
362.075093
 30
0.0
 11
273.494611
 21
371.381189
 31
0.0
  0
LINE
  5
5B1
100
AcDbEntity
  8
0
  6
Continuous
 62
     8
100
AcDbLine
 10
273.494611
 20
373.381401
 30
0.0
 11
273.494611
 21
374.381082
 31
0.0
  0
LINE
  5
5B2
100
AcDbEntity
  8
0
  6
Continuous
 62
     8
100
AcDbLine
 10
273.494611
 20
376.381295
 30
0.0
 11
273.494611
 21
385.687391
 31
0.0
  0
ENDBLK
  5
5B3
100
AcDbEntity
  8
0
100
AcDbBlockEnd
  0
BLOCK
  5
5B6
100
AcDbEntity
  8
0
100
AcDbBlockBegin
  2
*B115
 70
     0
 10
0.0
 20
0.0
 30
0.0
  3
*B115
  1

  0
LINE
  5
5B7
100
AcDbEntity
  8
0
  6
Continuous
 62
     8
100
AcDbLine
 10
394.49471
 20
121.165223
 30
0.0
 11
394.49471
 21
127.165436
 31
0.0
  0
LINE
  5
5B8
100
AcDbEntity
  8
0
  6
Continuous
 62
     8
100
AcDbLine
 10
394.49471
 20
133.165222
 30
0.0
 11
394.49471
 21
139.165009
 31
0.0
  0
ENDBLK
  5
5B9
100
AcDbEntity
  8
0
100
AcDbBlockEnd
  0
BLOCK
  5
5BC
100
AcDbEntity
  8
0
100
AcDbBlockBegin
  2
*B116
 70
     0
 10
0.0
 20
0.0
 30
0.0
  3
*B116
  1

  0
LINE
  5
5BD
100
AcDbEntity
  8
0
  6
Continuous
 62
     8
100
AcDbLine
 10
272.994558
 20
105.16565
 30
0.0
 11
272.994558
 21
111.165437
 31
0.0
  0
LINE
  5
5BE
100
AcDbEntity
  8
0
  6
Continuous
 62
     8
100
AcDbLine
 10
272.994558
 20
117.165649
 30
0.0
 11
272.994558
 21
123.165436
 31
0.0
  0
ENDBLK
  5
5BF
100
AcDbEntity
  8
0
100
AcDbBlockEnd
  0
BLOCK
  5
5C2
100
AcDbEntity
  8
0
100
AcDbBlockBegin
  2
*B117
 70
     0
 10
0.0
 20
0.0
 30
0.0
  3
*B117
  1

  0
LINE
  5
5C3
100
AcDbEntity
  8
0
  6
Continuous
 62
     8
100
AcDbLine
 10
296.744742
 20
257.464396
 30
0.0
 11
296.744742
 21
291.688886
 31
0.0
  0
ENDBLK
  5
5C4
100
AcDbEntity
  8
0
100
AcDbBlockEnd
  0
BLOCK
  5
5C7
100
AcDbEntity
  8
0
100
AcDbBlockBegin
  2
*B118
 70
     0
 10
0.0
 20
0.0
 30
0.0
  3
*B118
  1

  0
LINE
  5
5C8
100
AcDbEntity
  8
0
  6
Continuous
 62
     8
100
AcDbLine
 10
392.494497
 20
38.999466
 30
0.0
 11
392.494497
 21
66.166184
 31
0.0
  0
ENDBLK
  5
5C9
100
AcDbEntity
  8
0
100
AcDbBlockEnd
  0
BLOCK
  5
5CC
100
AcDbEntity
  8
0
100
AcDbBlockBegin
  2
*B119
 70
     0
 10
0.0
 20
0.0
 30
0.0
  3
*B119
  1

  0
LINE
  5
5CD
100
AcDbEntity
  8
0
  6
Continuous
 62
     8
100
AcDbLine
 10
491.036038
 20
160.164689
 30
0.0
 11
495.036038
 21
160.164689
 31
0.0
  0
LINE
  5
5CE
100
AcDbEntity
  8
0
  6
Continuous
 62
     8
100
AcDbLine
 10
187.494829
 20
160.164689
 30
0.0
 11
192.994562
 21
160.164689
 31
0.0
  0
LINE
  5
5CF
100
AcDbEntity
  8
0
  6
Continuous
 62
     8
100
AcDbLine
 10
198.994775
 20
160.164689
 30
0.0
 11
209.994668
 21
160.164689
 31
0.0
  0
LINE
  5
5D0
100
AcDbEntity
  8
0
  6
Continuous
 62
     8
100
AcDbLine
 10
211.994455
 20
160.164689
 30
0.0
 11
212.994561
 21
160.164689
 31
0.0
  0
LINE
  5
5D1
100
AcDbEntity
  8
0
  6
Continuous
 62
     8
100
AcDbLine
 10
214.994774
 20
160.164689
 30
0.0
 11
225.994667
 21
160.164689
 31
0.0
  0
LINE
  5
5D2
100
AcDbEntity
  8
0
  6
Continuous
 62
     8
100
AcDbLine
 10
227.994454
 20
160.164689
 30
0.0
 11
228.99456
 21
160.164689
 31
0.0
  0
LINE
  5
5D3
100
AcDbEntity
  8
0
  6
Continuous
 62
     8
100
AcDbLine
 10
230.994773
 20
160.164689
 30
0.0
 11
241.994666
 21
160.164689
 31
0.0
  0
LINE
  5
5D4
100
AcDbEntity
  8
0
  6
Continuous
 62
     8
100
AcDbLine
 10
247.994453
 20
160.164689
 30
0.0
 11
257.494612
 21
160.164689
 31
0.0
  0
LINE
  5
5D5
100
AcDbEntity
  8
0
  6
Continuous
 62
     8
100
AcDbLine
 10
259.494824
 20
160.164689
 30
0.0
 11
260.494505
 21
160.164689
 31
0.0
  0
LINE
  5
5D6
100
AcDbEntity
  8
0
  6
Continuous
 62
     8
100
AcDbLine
 10
262.494718
 20
160.164689
 30
0.0
 11
271.994451
 21
160.164689
 31
0.0
  0
LINE
  5
5D7
100
AcDbEntity
  8
0
  6
Continuous
 62
     8
100
AcDbLine
 10
273.994664
 20
160.164689
 30
0.0
 11
274.99477
 21
160.164689
 31
0.0
  0
LINE
  5
5D8
100
AcDbEntity
  8
0
  6
Continuous
 62
     8
100
AcDbLine
 10
276.994557
 20
160.164689
 30
0.0
 11
286.494716
 21
160.164689
 31
0.0
  0
LINE
  5
5D9
100
AcDbEntity
  8
0
  6
Continuous
 62
     8
100
AcDbLine
 10
292.494503
 20
160.164689
 30
0.0
 11
301.994662
 21
160.164689
 31
0.0
  0
LINE
  5
5DA
100
AcDbEntity
  8
0
  6
Continuous
 62
     8
100
AcDbLine
 10
303.994449
 20
160.164689
 30
0.0
 11
304.994556
 21
160.164689
 31
0.0
  0
LINE
  5
5DB
100
AcDbEntity
  8
0
  6
Continuous
 62
     8
100
AcDbLine
 10
306.994768
 20
160.164689
 30
0.0
 11
316.494502
 21
160.164689
 31
0.0
  0
LINE
  5
5DC
100
AcDbEntity
  8
0
  6
Continuous
 62
     8
100
AcDbLine
 10
318.494714
 20
160.164689
 30
0.0
 11
319.494821
 21
160.164689
 31
0.0
  0
LINE
  5
5DD
100
AcDbEntity
  8
0
  6
Continuous
 62
     8
100
AcDbLine
 10
321.494608
 20
160.164689
 30
0.0
 11
330.994767
 21
160.164689
 31
0.0
  0
LINE
  5
5DE
100
AcDbEntity
  8
0
  6
Continuous
 62
     8
100
AcDbLine
 10
336.994554
 20
160.164689
 30
0.0
 11
346.494713
 21
160.164689
 31
0.0
  0
LINE
  5
5DF
100
AcDbEntity
  8
0
  6
Continuous
 62
     8
100
AcDbLine
 10
348.4945
 20
160.164689
 30
0.0
 11
349.494606
 21
160.164689
 31
0.0
  0
LINE
  5
5E0
100
AcDbEntity
  8
0
  6
Continuous
 62
     8
100
AcDbLine
 10
351.494393
 20
160.164689
 30
0.0
 11
360.994552
 21
160.164689
 31
0.0
  0
LINE
  5
5E1
100
AcDbEntity
  8
0
  6
Continuous
 62
     8
100
AcDbLine
 10
362.994765
 20
160.164689
 30
0.0
 11
363.994446
 21
160.164689
 31
0.0
  0
LINE
  5
5E2
100
AcDbEntity
  8
0
  6
Continuous
 62
     8
100
AcDbLine
 10
365.994658
 20
160.164689
 30
0.0
 11
375.494392
 21
160.164689
 31
0.0
  0
LINE
  5
5E3
100
AcDbEntity
  8
0
  6
Continuous
 62
     8
100
AcDbLine
 10
381.494604
 20
160.164689
 30
0.0
 11
390.994763
 21
160.164689
 31
0.0
  0
LINE
  5
5E4
100
AcDbEntity
  8
0
  6
Continuous
 62
     8
100
AcDbLine
 10
392.99455
 20
160.164689
 30
0.0
 11
393.994657
 21
160.164689
 31
0.0
  0
LINE
  5
5E5
100
AcDbEntity
  8
0
  6
Continuous
 62
     8
100
AcDbLine
 10
395.994444
 20
160.164689
 30
0.0
 11
405.494603
 21
160.164689
 31
0.0
  0
LINE
  5
5E6
100
AcDbEntity
  8
0
  6
Continuous
 62
     8
100
AcDbLine
 10
407.49439
 20
160.164689
 30
0.0
 11
408.494496
 21
160.164689
 31
0.0
  0
LINE
  5
5E7
100
AcDbEntity
  8
0
  6
Continuous
 62
     8
100
AcDbLine
 10
410.494709
 20
160.164689
 30
0.0
 11
419.994442
 21
160.164689
 31
0.0
  0
LINE
  5
5E8
100
AcDbEntity
  8
0
  6
Continuous
 62
     8
100
AcDbLine
 10
425.994655
 20
160.164689
 30
0.0
 11
435.002847
 21
160.164689
 31
0.0
  0
LINE
  5
5E9
100
AcDbEntity
  8
0
  6
Continuous
 62
     8
100
AcDbLine
 10
437.003059
 20
160.164689
 30
0.0
 11
438.00274
 21
160.164689
 31
0.0
  0
LINE
  5
5EA
100
AcDbEntity
  8
0
  6
Continuous
 62
     8
100
AcDbLine
 10
440.002953
 20
160.164689
 30
0.0
 11
449.011145
 21
160.164689
 31
0.0
  0
LINE
  5
5EB
100
AcDbEntity
  8
0
  6
Continuous
 62
     8
100
AcDbLine
 10
451.011357
 20
160.164689
 30
0.0
 11
452.011464
 21
160.164689
 31
0.0
  0
LINE
  5
5EC
100
AcDbEntity
  8
0
  6
Continuous
 62
     8
100
AcDbLine
 10
454.011251
 20
160.164689
 30
0.0
 11
463.019443
 21
160.164689
 31
0.0
  0
LINE
  5
5ED
100
AcDbEntity
  8
0
  6
Continuous
 62
     8
100
AcDbLine
 10
465.019655
 20
160.164689
 30
0.0
 11
466.019762
 21
160.164689
 31
0.0
  0
LINE
  5
5EE
100
AcDbEntity
  8
0
  6
Continuous
 62
     8
100
AcDbLine
 10
468.019549
 20
160.164689
 30
0.0
 11
477.02774
 21
160.164689
 31
0.0
  0
LINE
  5
5EF
100
AcDbEntity
  8
0
  6
Continuous
 62
     8
100
AcDbLine
 10
479.027953
 20
160.164689
 30
0.0
 11
480.028059
 21
160.164689
 31
0.0
  0
LINE
  5
5F0
100
AcDbEntity
  8
0
  6
Continuous
 62
     8
100
AcDbLine
 10
482.027847
 20
160.164689
 30
0.0
 11
491.036038
 21
160.164689
 31
0.0
  0
ENDBLK
  5
5F1
100
AcDbEntity
  8
0
100
AcDbBlockEnd
  0
BLOCK
  5
5F4
100
AcDbEntity
  8
0
100
AcDbBlockBegin
  2
*B120
 70
     0
 10
0.0
 20
0.0
 30
0.0
  3
*B120
  1

  0
LINE
  5
5F5
100
AcDbEntity
  8
0
  6
Continuous
 62
     8
100
AcDbLine
 10
389.994657
 20
61.666131
 30
0.0
 11
389.994657
 21
65.166078
 31
0.0
  0
LINE
  5
5F6
100
AcDbEntity
  8
0
  6
Continuous
 62
     8
100
AcDbLine
 10
389.994657
 20
71.16629
 30
0.0
 11
389.994657
 21
74.666237
 31
0.0
  0
ENDBLK
  5
5F7
100
AcDbEntity
  8
0
100
AcDbBlockEnd
  0
BLOCK
  5
5FA
100
AcDbEntity
  8
0
100
AcDbBlockBegin
  2
*B121
 70
     0
 10
0.0
 20
0.0
 30
0.0
  3
*B121
  1

  0
LINE
  5
5FB
100
AcDbEntity
  8
0
  6
Continuous
 62
     6
100
AcDbLine
 10
394.49471
 20
292.688992
 30
0.0
 11
394.49471
 21
294.688779
 31
0.0
  0
LINE
  5
5FC
100
AcDbEntity
  8
0
  6
Continuous
 62
     6
100
AcDbLine
 10
393.494604
 20
293.688673
 30
0.0
 11
395.494391
 21
293.688673
 31
0.0
  0
ENDBLK
  5
5FD
100
AcDbEntity
  8
0
100
AcDbBlockEnd
  0
BLOCK
  5
600
100
AcDbEntity
  8
0
100
AcDbBlockBegin
  2
*B122
 70
     0
 10
0.0
 20
0.0
 30
0.0
  3
*B122
  1

  0
LINE
  5
601
100
AcDbEntity
  8
0
  6
Continuous
 62
     6
100
AcDbLine
 10
328.494501
 20
321.688246
 30
0.0
 11
330.494714
 21
321.688246
 31
0.0
  0
LINE
  5
602
100
AcDbEntity
  8
0
  6
Continuous
 62
     6
100
AcDbLine
 10
329.494607
 20
320.688565
 30
0.0
 11
329.494607
 21
322.688352
 31
0.0
  0
ENDBLK
  5
603
100
AcDbEntity
  8
0
100
AcDbBlockEnd
  0
BLOCK
  5
606
100
AcDbEntity
  8
0
100
AcDbBlockBegin
  2
*B123
 70
     0
 10
0.0
 20
0.0
 30
0.0
  3
*B123
  1

  0
LINE
  5
607
100
AcDbEntity
  8
0
  6
Continuous
 62
     6
100
AcDbLine
 10
361.994659
 20
113.165649
 30
0.0
 11
361.994659
 21
115.165436
 31
0.0
  0
LINE
  5
608
100
AcDbEntity
  8
0
  6
Continuous
 62
     6
100
AcDbLine
 10
360.994552
 20
114.16533
 30
0.0
 11
362.994765
 21
114.16533
 31
0.0
  0
ENDBLK
  5
609
100
AcDbEntity
  8
0
100
AcDbBlockEnd
  0
BLOCK
  5
60C
100
AcDbEntity
  8
0
100
AcDbBlockBegin
  2
*B124
 70
     0
 10
0.0
 20
0.0
 30
0.0
  3
*B124
  1

  0
LINE
  5
60D
100
AcDbEntity
  8
0
  6
Continuous
 62
     6
100
AcDbLine
 10
272.994558
 20
145.165222
 30
0.0
 11
272.994558
 21
147.165009
 31
0.0
  0
LINE
  5
60E
100
AcDbEntity
  8
0
  6
Continuous
 62
     6
100
AcDbLine
 10
271.994451
 20
146.164902
 30
0.0
 11
273.994664
 21
146.164902
 31
0.0
  0
ENDBLK
  5
60F
100
AcDbEntity
  8
0
100
AcDbBlockEnd
  0
BLOCK
  5
612
100
AcDbEntity
  8
0
100
AcDbBlockBegin
  2
*B125
 70
     0
 10
0.0
 20
0.0
 30
0.0
  3
*B125
  1

  0
LINE
  5
613
100
AcDbEntity
  8
0
  6
Continuous
 62
     6
100
AcDbLine
 10
348.994553
 20
293.688673
 30
0.0
 11
350.994766
 21
293.688673
 31
0.0
  0
LINE
  5
614
100
AcDbEntity
  8
0
  6
Continuous
 62
     6
100
AcDbLine
 10
349.994659
 20
292.688992
 30
0.0
 11
349.994659
 21
294.688779
 31
0.0
  0
ENDBLK
  5
615
100
AcDbEntity
  8
0
100
AcDbBlockEnd
  0
BLOCK
  5
618
100
AcDbEntity
  8
0
100
AcDbBlockBegin
  2
*B126
 70
     0
 10
0.0
 20
0.0
 30
0.0
  3
*B126
  1

  0
LINE
  5
619
100
AcDbEntity
  8
0
  6
Continuous
 62
     6
100
AcDbLine
 10
244.994559
 20
159.164582
 30
0.0
 11
244.994559
 21
161.164795
 31
0.0
  0
LINE
  5
61A
100
AcDbEntity
  8
0
  6
Continuous
 62
     6
100
AcDbLine
 10
243.994453
 20
160.164689
 30
0.0
 11
245.994666
 21
160.164689
 31
0.0
  0
ENDBLK
  5
61B
100
AcDbEntity
  8
0
100
AcDbBlockEnd
  0
BLOCK
  5
61E
100
AcDbEntity
  8
0
100
AcDbBlockBegin
  2
*B127
 70
     0
 10
0.0
 20
0.0
 30
0.0
  3
*B127
  1

  0
LINE
  5
61F
100
AcDbEntity
  8
0
  6
Continuous
 62
     6
100
AcDbLine
 10
317.494608
 20
81.166077
 30
0.0
 11
317.494608
 21
83.165864
 31
0.0
  0
LINE
  5
620
100
AcDbEntity
  8
0
  6
Continuous
 62
     6
100
AcDbLine
 10
316.494502
 20
82.166183
 30
0.0
 11
318.494714
 21
82.166183
 31
0.0
  0
ENDBLK
  5
621
100
AcDbEntity
  8
0
100
AcDbBlockEnd
  0
BLOCK
  5
624
100
AcDbEntity
  8
0
100
AcDbBlockBegin
  2
*B128
 70
     0
 10
0.0
 20
0.0
 30
0.0
  3
*B128
  1

  0
LINE
  5
625
100
AcDbEntity
  8
0
  6
Continuous
 62
     6
100
AcDbLine
 10
406.494709
 20
81.166077
 30
0.0
 11
406.494709
 21
83.165864
 31
0.0
  0
LINE
  5
626
100
AcDbEntity
  8
0
  6
Continuous
 62
     6
100
AcDbLine
 10
405.494603
 20
82.166183
 30
0.0
 11
407.49439
 21
82.166183
 31
0.0
  0
ENDBLK
  5
627
100
AcDbEntity
  8
0
100
AcDbBlockEnd
  0
BLOCK
  5
62A
100
AcDbEntity
  8
0
100
AcDbBlockBegin
  2
*B129
 70
     0
 10
0.0
 20
0.0
 30
0.0
  3
*B129
  1

  0
LINE
  5
62B
100
AcDbEntity
  8
0
  6
Continuous
 62
     6
100
AcDbLine
 10
360.994552
 20
82.166183
 30
0.0
 11
362.994765
 21
82.166183
 31
0.0
  0
LINE
  5
62C
100
AcDbEntity
  8
0
  6
Continuous
 62
     6
100
AcDbLine
 10
361.994659
 20
81.166077
 30
0.0
 11
361.994659
 21
83.165864
 31
0.0
  0
ENDBLK
  5
62D
100
AcDbEntity
  8
0
100
AcDbBlockEnd
  0
BLOCK
  5
630
100
AcDbEntity
  8
0
100
AcDbBlockBegin
  2
*B130
 70
     0
 10
0.0
 20
0.0
 30
0.0
  3
*B130
  1

  0
LINE
  5
631
100
AcDbEntity
  8
0
  6
Continuous
 62
     6
100
AcDbLine
 10
317.494608
 20
145.165222
 30
0.0
 11
317.494608
 21
147.165009
 31
0.0
  0
LINE
  5
632
100
AcDbEntity
  8
0
  6
Continuous
 62
     6
100
AcDbLine
 10
316.494502
 20
146.164902
 30
0.0
 11
318.494714
 21
146.164902
 31
0.0
  0
ENDBLK
  5
633
100
AcDbEntity
  8
0
100
AcDbBlockEnd
  0
BLOCK
  5
636
100
AcDbEntity
  8
0
100
AcDbBlockBegin
  2
*B131
 70
     0
 10
0.0
 20
0.0
 30
0.0
  3
*B131
  1

  0
LINE
  5
637
100
AcDbEntity
  8
0
  6
Continuous
 62
     6
100
AcDbLine
 10
305.494609
 20
292.688992
 30
0.0
 11
305.494609
 21
294.688779
 31
0.0
  0
LINE
  5
638
100
AcDbEntity
  8
0
  6
Continuous
 62
     6
100
AcDbLine
 10
304.494503
 20
293.688673
 30
0.0
 11
306.494715
 21
293.688673
 31
0.0
  0
ENDBLK
  5
639
100
AcDbEntity
  8
0
100
AcDbBlockEnd
  0
BLOCK
  5
63C
100
AcDbEntity
  8
0
100
AcDbBlockBegin
  2
*B132
 70
     0
 10
0.0
 20
0.0
 30
0.0
  3
*B132
  1

  0
LINE
  5
63D
100
AcDbEntity
  8
0
  6
Continuous
 62
     6
100
AcDbLine
 10
195.994456
 20
159.164582
 30
0.0
 11
195.994456
 21
161.164795
 31
0.0
  0
LINE
  5
63E
100
AcDbEntity
  8
0
  6
Continuous
 62
     6
100
AcDbLine
 10
194.994775
 20
160.164689
 30
0.0
 11
196.994562
 21
160.164689
 31
0.0
  0
ENDBLK
  5
63F
100
AcDbEntity
  8
0
100
AcDbBlockEnd
  0
BLOCK
  5
642
100
AcDbEntity
  8
0
100
AcDbBlockBegin
  2
*B133
 70
     0
 10
0.0
 20
0.0
 30
0.0
  3
*B133
  1

  0
LINE
  5
643
100
AcDbEntity
  8
0
  6
Continuous
 62
     6
100
AcDbLine
 10
361.994659
 20
145.165222
 30
0.0
 11
361.994659
 21
147.165009
 31
0.0
  0
LINE
  5
644
100
AcDbEntity
  8
0
  6
Continuous
 62
     6
100
AcDbLine
 10
360.994552
 20
146.164902
 30
0.0
 11
362.994765
 21
146.164902
 31
0.0
  0
ENDBLK
  5
645
100
AcDbEntity
  8
0
100
AcDbBlockEnd
  0
BLOCK
  5
648
100
AcDbEntity
  8
0
100
AcDbBlockBegin
  2
*B134
 70
     0
 10
0.0
 20
0.0
 30
0.0
  3
*B134
  1

  0
LINE
  5
649
100
AcDbEntity
  8
0
  6
Continuous
 62
     6
100
AcDbLine
 10
260.994558
 20
292.688992
 30
0.0
 11
260.994558
 21
294.688779
 31
0.0
  0
LINE
  5
64A
100
AcDbEntity
  8
0
  6
Continuous
 62
     6
100
AcDbLine
 10
259.994452
 20
293.688673
 30
0.0
 11
261.994665
 21
293.688673
 31
0.0
  0
ENDBLK
  5
64B
100
AcDbEntity
  8
0
100
AcDbBlockEnd
  0
BLOCK
  5
64E
100
AcDbEntity
  8
0
100
AcDbBlockBegin
  2
*B135
 70
     0
 10
0.0
 20
0.0
 30
0.0
  3
*B135
  1

  0
LINE
  5
64F
100
AcDbEntity
  8
0
  6
Continuous
 62
     6
100
AcDbLine
 10
373.994658
 20
97.16565
 30
0.0
 11
373.994658
 21
99.165863
 31
0.0
  0
LINE
  5
650
100
AcDbEntity
  8
0
  6
Continuous
 62
     6
100
AcDbLine
 10
372.994552
 20
98.165756
 30
0.0
 11
374.994764
 21
98.165756
 31
0.0
  0
ENDBLK
  5
651
100
AcDbEntity
  8
0
100
AcDbBlockEnd
  0
BLOCK
  5
654
100
AcDbEntity
  8
0
100
AcDbBlockBegin
  2
*B136
 70
     0
 10
0.0
 20
0.0
 30
0.0
  3
*B136
  1

  0
LINE
  5
655
100
AcDbEntity
  8
0
  6
Continuous
 62
     6
100
AcDbLine
 10
227.494826
 20
146.164902
 30
0.0
 11
229.494613
 21
146.164902
 31
0.0
  0
LINE
  5
656
100
AcDbEntity
  8
0
  6
Continuous
 62
     6
100
AcDbLine
 10
228.494507
 20
145.165222
 30
0.0
 11
228.494507
 21
147.165009
 31
0.0
  0
ENDBLK
  5
657
100
AcDbEntity
  8
0
100
AcDbBlockEnd
  0
BLOCK
  5
65A
100
AcDbEntity
  8
0
100
AcDbBlockBegin
  2
*B137
 70
     0
 10
0.0
 20
0.0
 30
0.0
  3
*B137
  1

  0
LINE
  5
65B
100
AcDbEntity
  8
0
  6
Continuous
 62
     6
100
AcDbLine
 10
272.994558
 20
81.166077
 30
0.0
 11
272.994558
 21
83.165864
 31
0.0
  0
LINE
  5
65C
100
AcDbEntity
  8
0
  6
Continuous
 62
     6
100
AcDbLine
 10
271.994451
 20
82.166183
 30
0.0
 11
273.994664
 21
82.166183
 31
0.0
  0
ENDBLK
  5
65D
100
AcDbEntity
  8
0
100
AcDbBlockEnd
  0
BLOCK
  5
660
100
AcDbEntity
  8
0
100
AcDbBlockBegin
  2
*B138
 70
     0
 10
0.0
 20
0.0
 30
0.0
  3
*B138
  1

  0
LINE
  5
661
100
AcDbEntity
  8
0
  6
Continuous
 62
     6
100
AcDbLine
 10
406.494709
 20
113.165649
 30
0.0
 11
406.494709
 21
115.165436
 31
0.0
  0
LINE
  5
662
100
AcDbEntity
  8
0
  6
Continuous
 62
     6
100
AcDbLine
 10
405.494603
 20
114.16533
 30
0.0
 11
407.49439
 21
114.16533
 31
0.0
  0
ENDBLK
  5
663
100
AcDbEntity
  8
0
100
AcDbBlockEnd
  0
BLOCK
  5
666
100
AcDbEntity
  8
0
100
AcDbBlockBegin
  2
*B139
 70
     0
 10
0.0
 20
0.0
 30
0.0
  3
*B139
  1

  0
LINE
  5
667
100
AcDbEntity
  8
0
  6
Continuous
 62
     6
100
AcDbLine
 10
378.494711
 20
159.164582
 30
0.0
 11
378.494711
 21
161.164795
 31
0.0
  0
LINE
  5
668
100
AcDbEntity
  8
0
  6
Continuous
 62
     6
100
AcDbLine
 10
377.494605
 20
160.164689
 30
0.0
 11
379.494392
 21
160.164689
 31
0.0
  0
ENDBLK
  5
669
100
AcDbEntity
  8
0
100
AcDbBlockEnd
  0
BLOCK
  5
66C
100
AcDbEntity
  8
0
100
AcDbBlockBegin
  2
*B140
 70
     0
 10
0.0
 20
0.0
 30
0.0
  3
*B140
  1

  0
LINE
  5
66D
100
AcDbEntity
  8
0
  6
Continuous
 62
     6
100
AcDbLine
 10
372.994552
 20
321.688246
 30
0.0
 11
374.994764
 21
321.688246
 31
0.0
  0
LINE
  5
66E
100
AcDbEntity
  8
0
  6
Continuous
 62
     6
100
AcDbLine
 10
373.994658
 20
320.688565
 30
0.0
 11
373.994658
 21
322.688352
 31
0.0
  0
ENDBLK
  5
66F
100
AcDbEntity
  8
0
100
AcDbBlockEnd
  0
BLOCK
  5
672
100
AcDbEntity
  8
0
100
AcDbBlockBegin
  2
*B141
 70
     0
 10
0.0
 20
0.0
 30
0.0
  3
*B141
  1

  0
LINE
  5
673
100
AcDbEntity
  8
0
  6
Continuous
 62
     6
100
AcDbLine
 10
272.994558
 20
113.165649
 30
0.0
 11
272.994558
 21
115.165436
 31
0.0
  0
LINE
  5
674
100
AcDbEntity
  8
0
  6
Continuous
 62
     6
100
AcDbLine
 10
271.994451
 20
114.16533
 30
0.0
 11
273.994664
 21
114.16533
 31
0.0
  0
ENDBLK
  5
675
100
AcDbEntity
  8
0
100
AcDbBlockEnd
  0
BLOCK
  5
678
100
AcDbEntity
  8
0
100
AcDbBlockBegin
  2
*B142
 70
     0
 10
0.0
 20
0.0
 30
0.0
  3
*B142
  1

  0
LINE
  5
679
100
AcDbEntity
  8
0
  6
Continuous
 62
     6
100
AcDbLine
 10
345.494606
 20
67.16629
 30
0.0
 11
345.494606
 21
69.166077
 31
0.0
  0
LINE
  5
67A
100
AcDbEntity
  8
0
  6
Continuous
 62
     6
100
AcDbLine
 10
344.4945
 20
68.166397
 30
0.0
 11
346.494713
 21
68.166397
 31
0.0
  0
ENDBLK
  5
67B
100
AcDbEntity
  8
0
100
AcDbBlockEnd
  0
BLOCK
  5
67E
100
AcDbEntity
  8
0
100
AcDbBlockBegin
  2
*B143
 70
     0
 10
0.0
 20
0.0
 30
0.0
  3
*B143
  1

  0
LINE
  5
67F
100
AcDbEntity
  8
0
  6
Continuous
 62
     6
100
AcDbLine
 10
288.494503
 20
160.164689
 30
0.0
 11
290.494716
 21
160.164689
 31
0.0
  0
LINE
  5
680
100
AcDbEntity
  8
0
  6
Continuous
 62
     6
100
AcDbLine
 10
289.49461
 20
159.164582
 30
0.0
 11
289.49461
 21
161.164795
 31
0.0
  0
ENDBLK
  5
681
100
AcDbEntity
  8
0
100
AcDbBlockEnd
  0
BLOCK
  5
684
100
AcDbEntity
  8
0
100
AcDbBlockBegin
  2
*B144
 70
     0
 10
0.0
 20
0.0
 30
0.0
  3
*B144
  1

  0
LINE
  5
685
100
AcDbEntity
  8
0
  6
Continuous
 62
     6
100
AcDbLine
 10
216.494508
 20
292.688992
 30
0.0
 11
216.494508
 21
294.688779
 31
0.0
  0
LINE
  5
686
100
AcDbEntity
  8
0
  6
Continuous
 62
     6
100
AcDbLine
 10
215.494827
 20
293.688673
 30
0.0
 11
217.494614
 21
293.688673
 31
0.0
  0
ENDBLK
  5
687
100
AcDbEntity
  8
0
100
AcDbBlockEnd
  0
BLOCK
  5
68A
100
AcDbEntity
  8
0
100
AcDbBlockBegin
  2
*B145
 70
     0
 10
0.0
 20
0.0
 30
0.0
  3
*B145
  1

  0
LINE
  5
68B
100
AcDbEntity
  8
0
  6
Continuous
 62
     6
100
AcDbLine
 10
228.494507
 20
81.166077
 30
0.0
 11
228.494507
 21
83.165864
 31
0.0
  0
LINE
  5
68C
100
AcDbEntity
  8
0
  6
Continuous
 62
     6
100
AcDbLine
 10
227.494826
 20
82.166183
 30
0.0
 11
229.494613
 21
82.166183
 31
0.0
  0
ENDBLK
  5
68D
100
AcDbEntity
  8
0
100
AcDbBlockEnd
  0
BLOCK
  5
690
100
AcDbEntity
  8
0
100
AcDbBlockBegin
  2
*B146
 70
     0
 10
0.0
 20
0.0
 30
0.0
  3
*B146
  1

  0
LINE
  5
691
100
AcDbEntity
  8
0
  6
Continuous
 62
     6
100
AcDbLine
 10
283.994451
 20
321.688246
 30
0.0
 11
285.994663
 21
321.688246
 31
0.0
  0
LINE
  5
692
100
AcDbEntity
  8
0
  6
Continuous
 62
     6
100
AcDbLine
 10
284.994557
 20
320.688565
 30
0.0
 11
284.994557
 21
322.688352
 31
0.0
  0
ENDBLK
  5
693
100
AcDbEntity
  8
0
100
AcDbBlockEnd
  0
BLOCK
  5
696
100
AcDbEntity
  8
0
100
AcDbBlockBegin
  2
*B147
 70
     0
 10
0.0
 20
0.0
 30
0.0
  3
*B147
  1

  0
LINE
  5
697
100
AcDbEntity
  8
0
  6
Continuous
 62
     6
100
AcDbLine
 10
216.494508
 20
129.165223
 30
0.0
 11
216.494508
 21
131.165435
 31
0.0
  0
LINE
  5
698
100
AcDbEntity
  8
0
  6
Continuous
 62
     6
100
AcDbLine
 10
215.494827
 20
130.165329
 30
0.0
 11
217.494614
 21
130.165329
 31
0.0
  0
ENDBLK
  5
699
100
AcDbEntity
  8
0
100
AcDbBlockEnd
  0
BLOCK
  5
69C
100
AcDbEntity
  8
0
100
AcDbBlockBegin
  2
*B148
 70
     0
 10
0.0
 20
0.0
 30
0.0
  3
*B148
  1

  0
LINE
  5
69D
100
AcDbEntity
  8
0
  6
Continuous
 62
     6
100
AcDbLine
 10
406.494709
 20
145.165222
 30
0.0
 11
406.494709
 21
147.165009
 31
0.0
  0
LINE
  5
69E
100
AcDbEntity
  8
0
  6
Continuous
 62
     6
100
AcDbLine
 10
405.494603
 20
146.164902
 30
0.0
 11
407.49439
 21
146.164902
 31
0.0
  0
ENDBLK
  5
69F
100
AcDbEntity
  8
0
100
AcDbBlockEnd
  0
BLOCK
  5
6A2
100
AcDbEntity
  8
0
100
AcDbBlockBegin
  2
*B149
 70
     0
 10
0.0
 20
0.0
 30
0.0
  3
*B149
  1

  0
LINE
  5
6A3
100
AcDbEntity
  8
0
  6
Continuous
 62
     6
100
AcDbLine
 10
211.994455
 20
67.16629
 30
0.0
 11
211.994455
 21
69.166077
 31
0.0
  0
LINE
  5
6A4
100
AcDbEntity
  8
0
  6
Continuous
 62
     6
100
AcDbLine
 10
210.994774
 20
68.166397
 30
0.0
 11
212.994561
 21
68.166397
 31
0.0
  0
ENDBLK
  5
6A5
100
AcDbEntity
  8
0
100
AcDbBlockEnd
  0
BLOCK
  5
6A8
100
AcDbEntity
  8
0
100
AcDbBlockBegin
  2
*B150
 70
     0
 10
0.0
 20
0.0
 30
0.0
  3
*B150
  1

  0
LINE
  5
6A9
100
AcDbEntity
  8
0
  6
Continuous
 62
     6
100
AcDbLine
 10
329.494607
 20
97.16565
 30
0.0
 11
329.494607
 21
99.165863
 31
0.0
  0
LINE
  5
6AA
100
AcDbEntity
  8
0
  6
Continuous
 62
     6
100
AcDbLine
 10
328.494501
 20
98.165756
 30
0.0
 11
330.494714
 21
98.165756
 31
0.0
  0
ENDBLK
  5
6AB
100
AcDbEntity
  8
0
100
AcDbBlockEnd
  0
BLOCK
  5
6AE
100
AcDbEntity
  8
0
100
AcDbBlockBegin
  2
*B151
 70
     0
 10
0.0
 20
0.0
 30
0.0
  3
*B151
  1

  0
LINE
  5
6AF
100
AcDbEntity
  8
0
  6
Continuous
 62
     6
100
AcDbLine
 10
317.494608
 20
113.165649
 30
0.0
 11
317.494608
 21
115.165436
 31
0.0
  0
LINE
  5
6B0
100
AcDbEntity
  8
0
  6
Continuous
 62
     6
100
AcDbLine
 10
316.494502
 20
114.16533
 30
0.0
 11
318.494714
 21
114.16533
 31
0.0
  0
ENDBLK
  5
6B1
100
AcDbEntity
  8
0
100
AcDbBlockEnd
  0
BLOCK
  5
6B4
100
AcDbEntity
  8
0
100
AcDbBlockBegin
  2
*B152
 70
     0
 10
0.0
 20
0.0
 30
0.0
  3
*B152
  1

  0
LINE
  5
6B5
100
AcDbEntity
  8
0
  6
Continuous
 62
     6
100
AcDbLine
 10
394.49471
 20
129.165223
 30
0.0
 11
394.49471
 21
131.165435
 31
0.0
  0
LINE
  5
6B6
100
AcDbEntity
  8
0
  6
Continuous
 62
     6
100
AcDbLine
 10
393.494604
 20
130.165329
 30
0.0
 11
395.494391
 21
130.165329
 31
0.0
  0
ENDBLK
  5
6B7
100
AcDbEntity
  8
0
100
AcDbBlockEnd
  0
BLOCK
  5
6BA
100
AcDbEntity
  8
0
100
AcDbBlockBegin
  2
*B153
 70
     0
 10
0.0
 20
0.0
 30
0.0
  3
*B153
  1

  0
LINE
  5
6BB
100
AcDbEntity
  8
0
  6
Continuous
 62
     6
100
AcDbLine
 10
239.494826
 20
321.688246
 30
0.0
 11
241.494613
 21
321.688246
 31
0.0
  0
LINE
  5
6BC
100
AcDbEntity
  8
0
  6
Continuous
 62
     6
100
AcDbLine
 10
240.494506
 20
320.688565
 30
0.0
 11
240.494506
 21
322.688352
 31
0.0
  0
ENDBLK
  5
6BD
100
AcDbEntity
  8
0
100
AcDbBlockEnd
  0
BLOCK
  5
6C0
100
AcDbEntity
  8
0
100
AcDbBlockBegin
  2
*B154
 70
     0
 10
0.0
 20
0.0
 30
0.0
  3
*B154
  1

  0
LINE
  5
6C1
100
AcDbEntity
  8
0
  6
Continuous
 62
     6
100
AcDbLine
 10
389.994657
 20
67.16629
 30
0.0
 11
389.994657
 21
69.166077
 31
0.0
  0
LINE
  5
6C2
100
AcDbEntity
  8
0
  6
Continuous
 62
     6
100
AcDbLine
 10
388.994551
 20
68.166397
 30
0.0
 11
390.994763
 21
68.166397
 31
0.0
  0
ENDBLK
  5
6C3
100
AcDbEntity
  8
0
100
AcDbBlockEnd
  0
BLOCK
  5
6C6
100
AcDbEntity
  8
0
100
AcDbBlockBegin
  2
*B155
 70
     0
 10
0.0
 20
0.0
 30
0.0
  3
*B155
  1

  0
LINE
  5
6C7
100
AcDbEntity
  8
0
  6
Continuous
 62
     6
100
AcDbLine
 10
333.99466
 20
159.164582
 30
0.0
 11
333.99466
 21
161.164795
 31
0.0
  0
LINE
  5
6C8
100
AcDbEntity
  8
0
  6
Continuous
 62
     6
100
AcDbLine
 10
332.994554
 20
160.164689
 30
0.0
 11
334.994767
 21
160.164689
 31
0.0
  0
ENDBLK
  5
6C9
100
AcDbEntity
  8
0
100
AcDbBlockEnd
  0
BLOCK
  5
6CC
100
AcDbEntity
  8
0
100
AcDbBlockBegin
  2
*B156
 70
     0
 10
0.0
 20
0.0
 30
0.0
  3
*B156
  1

  0
LINE
  5
6CD
100
AcDbEntity
  8
0
  6
Continuous
 62
     6
100
AcDbLine
 10
418.494709
 20
97.16565
 30
0.0
 11
418.494709
 21
99.165863
 31
0.0
  0
LINE
  5
6CE
100
AcDbEntity
  8
0
  6
Continuous
 62
     6
100
AcDbLine
 10
417.494602
 20
98.165756
 30
0.0
 11
419.494389
 21
98.165756
 31
0.0
  0
ENDBLK
  5
6CF
100
AcDbEntity
  8
0
100
AcDbBlockEnd
  0
BLOCK
  5
6D2
100
AcDbEntity
  8
0
100
AcDbBlockBegin
  2
*B157
 70
     0
 10
0.0
 20
0.0
 30
0.0
  3
*B157
  1

  0
LINE
  5
6D3
100
AcDbEntity
  8
0
  6
Continuous
 62
     6
100
AcDbLine
 10
228.494507
 20
113.165649
 30
0.0
 11
228.494507
 21
115.165436
 31
0.0
  0
LINE
  5
6D4
100
AcDbEntity
  8
0
  6
Continuous
 62
     6
100
AcDbLine
 10
227.494826
 20
114.16533
 30
0.0
 11
229.494613
 21
114.16533
 31
0.0
  0
ENDBLK
  5
6D5
100
AcDbEntity
  8
0
100
AcDbBlockEnd
  0
BLOCK
  5
6D8
100
AcDbEntity
  8
0
100
AcDbBlockBegin
  2
*B158
 70
     0
 10
0.0
 20
0.0
 30
0.0
  3
*B158
  1

  0
LINE
  5
6D9
100
AcDbEntity
  8
0
  6
Continuous
 62
     6
100
AcDbLine
 10
260.994558
 20
129.165223
 30
0.0
 11
260.994558
 21
131.165435
 31
0.0
  0
LINE
  5
6DA
100
AcDbEntity
  8
0
  6
Continuous
 62
     6
100
AcDbLine
 10
259.994452
 20
130.165329
 30
0.0
 11
261.994665
 21
130.165329
 31
0.0
  0
ENDBLK
  5
6DB
100
AcDbEntity
  8
0
100
AcDbBlockEnd
  0
BLOCK
  5
6DE
100
AcDbEntity
  8
0
100
AcDbBlockBegin
  2
*B159
 70
     0
 10
0.0
 20
0.0
 30
0.0
  3
*B159
  1

  0
LINE
  5
6DF
100
AcDbEntity
  8
0
  6
Continuous
 62
     6
100
AcDbLine
 10
300.994556
 20
67.16629
 30
0.0
 11
300.994556
 21
69.166077
 31
0.0
  0
LINE
  5
6E0
100
AcDbEntity
  8
0
  6
Continuous
 62
     6
100
AcDbLine
 10
299.99445
 20
68.166397
 30
0.0
 11
301.994662
 21
68.166397
 31
0.0
  0
ENDBLK
  5
6E1
100
AcDbEntity
  8
0
100
AcDbBlockEnd
  0
BLOCK
  5
6E4
100
AcDbEntity
  8
0
100
AcDbBlockBegin
  2
*B160
 70
     0
 10
0.0
 20
0.0
 30
0.0
  3
*B160
  1

  0
LINE
  5
6E5
100
AcDbEntity
  8
0
  6
Continuous
 62
     6
100
AcDbLine
 10
284.994557
 20
97.16565
 30
0.0
 11
284.994557
 21
99.165863
 31
0.0
  0
LINE
  5
6E6
100
AcDbEntity
  8
0
  6
Continuous
 62
     6
100
AcDbLine
 10
283.994451
 20
98.165756
 30
0.0
 11
285.994663
 21
98.165756
 31
0.0
  0
ENDBLK
  5
6E7
100
AcDbEntity
  8
0
100
AcDbBlockEnd
  0
BLOCK
  5
6EA
100
AcDbEntity
  8
0
100
AcDbBlockBegin
  2
*B161
 70
     0
 10
0.0
 20
0.0
 30
0.0
  3
*B161
  1

  0
LINE
  5
6EB
100
AcDbEntity
  8
0
  6
Continuous
 62
     6
100
AcDbLine
 10
349.994659
 20
129.165223
 30
0.0
 11
349.994659
 21
131.165435
 31
0.0
  0
LINE
  5
6EC
100
AcDbEntity
  8
0
  6
Continuous
 62
     6
100
AcDbLine
 10
348.994553
 20
130.165329
 30
0.0
 11
350.994766
 21
130.165329
 31
0.0
  0
ENDBLK
  5
6ED
100
AcDbEntity
  8
0
100
AcDbBlockEnd
  0
BLOCK
  5
6F0
100
AcDbEntity
  8
0
100
AcDbBlockBegin
  2
*B162
 70
     0
 10
0.0
 20
0.0
 30
0.0
  3
*B162
  1

  0
LINE
  5
6F1
100
AcDbEntity
  8
0
  6
Continuous
 62
     6
100
AcDbLine
 10
422.994761
 20
159.164582
 30
0.0
 11
422.994761
 21
161.164795
 31
0.0
  0
LINE
  5
6F2
100
AcDbEntity
  8
0
  6
Continuous
 62
     6
100
AcDbLine
 10
421.994655
 20
160.164689
 30
0.0
 11
423.994442
 21
160.164689
 31
0.0
  0
ENDBLK
  5
6F3
100
AcDbEntity
  8
0
100
AcDbBlockEnd
  0
BLOCK
  5
6F6
100
AcDbEntity
  8
0
100
AcDbBlockBegin
  2
*B163
 70
     0
 10
0.0
 20
0.0
 30
0.0
  3
*B163
  1

  0
LINE
  5
6F7
100
AcDbEntity
  8
0
  6
Continuous
 62
     6
100
AcDbLine
 10
240.494506
 20
97.16565
 30
0.0
 11
240.494506
 21
99.165863
 31
0.0
  0
LINE
  5
6F8
100
AcDbEntity
  8
0
  6
Continuous
 62
     6
100
AcDbLine
 10
239.494826
 20
98.165756
 30
0.0
 11
241.494613
 21
98.165756
 31
0.0
  0
ENDBLK
  5
6F9
100
AcDbEntity
  8
0
100
AcDbBlockEnd
  0
BLOCK
  5
6FC
100
AcDbEntity
  8
0
100
AcDbBlockBegin
  2
*B164
 70
     0
 10
0.0
 20
0.0
 30
0.0
  3
*B164
  1

  0
LINE
  5
6FD
100
AcDbEntity
  8
0
  6
Continuous
 62
     6
100
AcDbLine
 10
195.994456
 20
67.16629
 30
0.0
 11
195.994456
 21
69.166077
 31
0.0
  0
LINE
  5
6FE
100
AcDbEntity
  8
0
  6
Continuous
 62
     6
100
AcDbLine
 10
194.994775
 20
68.166397
 30
0.0
 11
196.994562
 21
68.166397
 31
0.0
  0
ENDBLK
  5
6FF
100
AcDbEntity
  8
0
100
AcDbBlockEnd
  0
BLOCK
  5
702
100
AcDbEntity
  8
0
100
AcDbBlockBegin
  2
*B165
 70
     0
 10
0.0
 20
0.0
 30
0.0
  3
*B165
  1

  0
LINE
  5
703
100
AcDbEntity
  8
0
  6
Continuous
 62
     6
100
AcDbLine
 10
438.994761
 20
113.165649
 30
0.0
 11
438.994761
 21
115.165436
 31
0.0
  0
LINE
  5
704
100
AcDbEntity
  8
0
  6
Continuous
 62
     6
100
AcDbLine
 10
437.994654
 20
114.16533
 30
0.0
 11
439.994441
 21
114.16533
 31
0.0
  0
ENDBLK
  5
705
100
AcDbEntity
  8
0
100
AcDbBlockEnd
  0
BLOCK
  5
708
100
AcDbEntity
  8
0
100
AcDbBlockBegin
  2
*B166
 70
     0
 10
0.0
 20
0.0
 30
0.0
  3
*B166
  1

  0
LINE
  5
709
100
AcDbEntity
  8
0
  6
Continuous
 62
     6
100
AcDbLine
 10
256.494505
 20
67.16629
 30
0.0
 11
256.494505
 21
69.166077
 31
0.0
  0
LINE
  5
70A
100
AcDbEntity
  8
0
  6
Continuous
 62
     6
100
AcDbLine
 10
255.494825
 20
68.166397
 30
0.0
 11
257.494612
 21
68.166397
 31
0.0
  0
ENDBLK
  5
70B
100
AcDbEntity
  8
0
100
AcDbBlockEnd
  0
BLOCK
  5
70E
100
AcDbEntity
  8
0
100
AcDbBlockBegin
  2
*B167
 70
     0
 10
0.0
 20
0.0
 30
0.0
  3
*B167
  1

  0
LINE
  5
70F
100
AcDbEntity
  8
0
  6
Continuous
 62
     6
100
AcDbLine
 10
305.494609
 20
129.165223
 30
0.0
 11
305.494609
 21
131.165435
 31
0.0
  0
LINE
  5
710
100
AcDbEntity
  8
0
  6
Continuous
 62
     6
100
AcDbLine
 10
304.494503
 20
130.165329
 30
0.0
 11
306.494715
 21
130.165329
 31
0.0
  0
ENDBLK
  5
711
100
AcDbEntity
  8
0
100
AcDbBlockEnd
  0
BLOCK
  5
714
100
AcDbEntity
  8
0
100
AcDbBlockBegin
  2
*B168
 70
     0
 10
0.0
 20
0.0
 30
0.0
  3
*B168
  1

  0
LINE
  5
715
100
AcDbEntity
  8
0
  6
Continuous
 62
     6
100
AcDbLine
 10
417.494602
 20
321.688246
 30
0.0
 11
419.494389
 21
321.688246
 31
0.0
  0
LINE
  5
716
100
AcDbEntity
  8
0
  6
Continuous
 62
     6
100
AcDbLine
 10
418.494709
 20
320.688565
 30
0.0
 11
418.494709
 21
322.688352
 31
0.0
  0
ENDBLK
  5
717
100
AcDbEntity
  8
0
100
AcDbBlockEnd
  0
BLOCK
  5
71A
100
AcDbEntity
  8
0
100
AcDbBlockBegin
  2
*B169
 70
     0
 10
0.0
 20
0.0
 30
0.0
  3
*B169
  1

  0
TEXT
  5
71B
100
AcDbEntity
  8
TEXT
  6
Continuous
 62
     0
100
AcDbText
 10
237.53005
 20
299.5
 30
0.0
 40
7.0
  1
2
100
AcDbText
  0
ENDBLK
  5
71C
100
AcDbEntity
  8
0
100
AcDbBlockEnd
  0
BLOCK
  5
71F
100
AcDbEntity
  8
0
100
AcDbBlockBegin
  2
*B170
 70
     0
 10
0.0
 20
0.0
 30
0.0
  3
*B170
  1

  0
TEXT
  5
720
100
AcDbEntity
  8
TEXT
  6
Continuous
 62
     0
100
AcDbText
 10
214.53005
 20
307.5
 30
0.0
 40
7.0
  1
4
100
AcDbText
  0
ENDBLK
  5
721
100
AcDbEntity
  8
0
100
AcDbBlockEnd
  0
BLOCK
  5
724
100
AcDbEntity
  8
0
100
AcDbBlockBegin
  2
*B171
 70
     0
 10
0.0
 20
0.0
 30
0.0
  3
*B171
  1

  0
TEXT
  5
725
100
AcDbEntity
  8
TEXT
  6
Continuous
 62
     0
100
AcDbText
 10
302.53005
 20
307.5
 30
0.0
 40
7.0
  1
4
100
AcDbText
  0
ENDBLK
  5
726
100
AcDbEntity
  8
0
100
AcDbBlockEnd
  0
BLOCK
  5
729
100
AcDbEntity
  8
0
100
AcDbBlockBegin
  2
*B172
 70
     0
 10
0.0
 20
0.0
 30
0.0
  3
*B172
  1

  0
TEXT
  5
72A
100
AcDbEntity
  8
TEXT
  6
Continuous
 62
     0
100
AcDbText
 10
347.53005
 20
308.5
 30
0.0
 40
7.0
  1
4
100
AcDbText
  0
ENDBLK
  5
72B
100
AcDbEntity
  8
0
100
AcDbBlockEnd
  0
BLOCK
  5
72E
100
AcDbEntity
  8
0
100
AcDbBlockBegin
  2
*B173
 70
     0
 10
0.0
 20
0.0
 30
0.0
  3
*B173
  1

  0
TEXT
  5
72F
100
AcDbEntity
  8
TEXT
  6
Continuous
 62
     0
100
AcDbText
 10
391.53005
 20
309.5
 30
0.0
 40
7.0
  1
4
100
AcDbText
  0
ENDBLK
  5
730
100
AcDbEntity
  8
0
100
AcDbBlockEnd
  0
BLOCK
  5
733
100
AcDbEntity
  8
0
100
AcDbBlockBegin
  2
*B174
 70
     0
 10
0.0
 20
0.0
 30
0.0
  3
*B174
  1

  0
TEXT
  5
734
100
AcDbEntity
  8
TEXT
  6
Continuous
 62
     0
100
AcDbText
 10
416.53005
 20
298.5
 30
0.0
 40
7.0
  1
2
100
AcDbText
  0
ENDBLK
  5
735
100
AcDbEntity
  8
0
100
AcDbBlockEnd
  0
BLOCK
  5
738
100
AcDbEntity
  8
0
100
AcDbBlockBegin
  2
*B175
 70
     0
 10
0.0
 20
0.0
 30
0.0
  3
*B175
  1

  0
TEXT
  5
739
100
AcDbEntity
  8
TEXT
  6
Continuous
 62
     0
100
AcDbText
 10
371.53005
 20
298.5
 30
0.0
 40
7.0
  1
2
100
AcDbText
  0
ENDBLK
  5
73A
100
AcDbEntity
  8
0
100
AcDbBlockEnd
  0
BLOCK
  5
73D
100
AcDbEntity
  8
0
100
AcDbBlockBegin
  2
*B176
 70
     0
 10
0.0
 20
0.0
 30
0.0
  3
*B176
  1

  0
TEXT
  5
73E
100
AcDbEntity
  8
TEXT
  6
Continuous
 62
     0
100
AcDbText
 10
326.53005
 20
299.5
 30
0.0
 40
7.0
  1
2
100
AcDbText
  0
ENDBLK
  5
73F
100
AcDbEntity
  8
0
100
AcDbBlockEnd
  0
BLOCK
  5
742
100
AcDbEntity
  8
0
100
AcDbBlockBegin
  2
*B177
 70
     0
 10
0.0
 20
0.0
 30
0.0
  3
*B177
  1

  0
TEXT
  5
743
100
AcDbEntity
  8
TEXT
  6
Continuous
 62
     0
100
AcDbText
 10
282.53005
 20
298.5
 30
0.0
 40
7.0
  1
2
100
AcDbText
  0
ENDBLK
  5
744
100
AcDbEntity
  8
0
100
AcDbBlockEnd
  0
BLOCK
  5
747
100
AcDbEntity
  8
0
100
AcDbBlockBegin
  2
*B178
 70
     0
 10
0.0
 20
0.0
 30
0.0
  3
*B178
  1

  0
TEXT
  5
748
100
AcDbEntity
  8
TEXT
  6
Continuous
 62
     0
100
AcDbText
 10
258.53005
 20
307.5
 30
0.0
 40
7.0
  1
4
100
AcDbText
  0
ENDBLK
  5
749
100
AcDbEntity
  8
0
100
AcDbBlockEnd
  0
BLOCK
  5
74C
100
AcDbEntity
  8
0
100
AcDbBlockBegin
  2
*B179
 70
     0
 10
0.0
 20
0.0
 30
0.0
  3
*B179
  1

  0
TEXT
  5
74D
100
AcDbEntity
  8
TEXT
  6
Continuous
 62
     0
100
AcDbText
 10
437.53005
 20
144.5
 30
0.0
 40
7.0
  1
5
100
AcDbText
  0
ENDBLK
  5
74E
100
AcDbEntity
  8
0
100
AcDbBlockEnd
  0
BLOCK
  5
751
100
AcDbEntity
  8
0
100
AcDbBlockBegin
  2
*B180
 70
     0
 10
0.0
 20
0.0
 30
0.0
  3
*B180
  1

  0
TEXT
  5
752
100
AcDbEntity
  8
TEXT
  6
Continuous
 62
     0
100
AcDbText
 10
191.53005
 20
110.5
 30
0.0
 40
7.0
  1
1
100
AcDbText
  0
ENDBLK
  5
753
100
AcDbEntity
  8
0
100
AcDbBlockEnd
  0
BLOCK
  5
756
100
AcDbEntity
  8
0
100
AcDbBlockBegin
  2
*B181
 70
     0
 10
0.0
 20
0.0
 30
0.0
  3
*B181
  1

  0
TEXT
  5
757
100
AcDbEntity
  8
TEXT
  6
Continuous
 62
     0
100
AcDbText
 10
439.53005
 20
78.5
 30
0.0
 40
7.0
  1
3
100
AcDbText
  0
ENDBLK
  5
758
100
AcDbEntity
  8
0
100
AcDbBlockEnd
  0
BLOCK
  5
75B
100
AcDbEntity
  8
0
100
AcDbBlockBegin
  2
*B182
 70
     0
 10
0.0
 20
0.0
 30
0.0
  3
*B182
  1

  0
TEXT
  5
75C
100
AcDbEntity
  8
TEXT
  6
Continuous
 62
     0
100
AcDbText
 10
410.383333
 20
262.75
 30
0.0
 40
3.5
  1
%%c4,5
100
AcDbText
  0
ENDBLK
  5
75D
100
AcDbEntity
  8
0
100
AcDbBlockEnd
  0
BLOCK
  5
760
100
AcDbEntity
  8
0
100
AcDbBlockBegin
  2
*B183
 70
     0
 10
0.0
 20
0.0
 30
0.0
  3
*B183
  1

  0
TEXT
  5
761
100
AcDbEntity
  8
TEXT
  6
Continuous
 62
     0
100
AcDbText
 10
165.185196
 20
304.359996
 30
0.0
 40
3.5
  1
14
 50
90.0
100
AcDbText
  0
ENDBLK
  5
762
100
AcDbEntity
  8
0
100
AcDbBlockEnd
  0
BLOCK
  5
765
100
AcDbEntity
  8
0
100
AcDbBlockBegin
  2
*B184
 70
     0
 10
0.0
 20
0.0
 30
0.0
  3
*B184
  1

  0
TEXT
  5
766
100
AcDbEntity
  8
TEXT
  6
Continuous
 62
     0
100
AcDbText
 10
146.25
 20
304.359996
 30
0.0
 40
3.5
  1
30
 50
90.0
100
AcDbText
  0
ENDBLK
  5
767
100
AcDbEntity
  8
0
100
AcDbBlockEnd
  0
BLOCK
  5
76A
100
AcDbEntity
  8
0
100
AcDbBlockBegin
  2
*B185
 70
     0
 10
0.0
 20
0.0
 30
0.0
  3
*B185
  1

  0
TEXT
  5
76B
100
AcDbEntity
  8
TEXT
  6
Continuous
 62
     0
100
AcDbText
 10
165.25
 20
284.026663
 30
0.0
 40
3.5
  1
8
 50
90.0
100
AcDbText
  0
ENDBLK
  5
76C
100
AcDbEntity
  8
0
100
AcDbBlockEnd
  0
BLOCK
  5
76F
100
AcDbEntity
  8
0
100
AcDbBlockBegin
  2
*B186
 70
     0
 10
0.0
 20
0.0
 30
0.0
  3
*B186
  1

  0
TEXT
  5
770
100
AcDbEntity
  8
TEXT
  6
Continuous
 62
     0
100
AcDbText
 10
225.124969
 20
261.218414
 30
0.0
 40
3.5
  1
12
100
AcDbText
  0
ENDBLK
  5
771
100
AcDbEntity
  8
0
100
AcDbBlockEnd
  0
BLOCK
  5
774
100
AcDbEntity
  8
0
100
AcDbBlockBegin
  2
*B187
 70
     0
 10
0.0
 20
0.0
 30
0.0
  3
*B187
  1

  0
TEXT
  5
775
100
AcDbEntity
  8
TEXT
  6
Continuous
 62
     0
100
AcDbText
 10
322.416667
 20
261.218414
 30
0.0
 40
3.5
  1
G 1/8"
100
AcDbText
  0
ENDBLK
  5
776
100
AcDbEntity
  8
0
100
AcDbBlockEnd
  0
BLOCK
  5
779
100
AcDbEntity
  8
0
100
AcDbBlockBegin
  2
*B188
 70
     0
 10
0.0
 20
0.0
 30
0.0
  3
*B188
  1

  0
TEXT
  5
77A
100
AcDbEntity
  8
TEXT
  6
Continuous
 62
     0
100
AcDbText
 10
192.5
 20
233.218414
 30
0.0
 40
3.5
  1
16,25
100
AcDbText
  0
ENDBLK
  5
77B
100
AcDbEntity
  8
0
100
AcDbBlockEnd
  0
BLOCK
  5
77E
100
AcDbEntity
  8
0
100
AcDbBlockBegin
  2
*B189
 70
     0
 10
0.0
 20
0.0
 30
0.0
  3
*B189
  1

  0
TEXT
  5
77F
100
AcDbEntity
  8
TEXT
  6
Continuous
 62
     0
100
AcDbText
 10
231.208302
 20
233.218414
 30
0.0
 40
3.5
  1
22,25
100
AcDbText
  0
ENDBLK
  5
780
100
AcDbEntity
  8
0
100
AcDbBlockEnd
  0
BLOCK
  5
783
100
AcDbEntity
  8
0
100
AcDbBlockBegin
  2
*B190
 70
     0
 10
0.0
 20
0.0
 30
0.0
  3
*B190
  1

  0
TEXT
  5
784
100
AcDbEntity
  8
TEXT
  6
Continuous
 62
     0
100
AcDbText
 10
275.708302
 20
233.218414
 30
0.0
 40
3.5
  1
22,25
100
AcDbText
  0
ENDBLK
  5
785
100
AcDbEntity
  8
0
100
AcDbBlockEnd
  0
BLOCK
  5
788
100
AcDbEntity
  8
0
100
AcDbBlockBegin
  2
*B191
 70
     0
 10
0.0
 20
0.0
 30
0.0
  3
*B191
  1

  0
TEXT
  5
789
100
AcDbEntity
  8
TEXT
  6
Continuous
 62
     0
100
AcDbText
 10
320.208302
 20
233.218414
 30
0.0
 40
3.5
  1
22,25
100
AcDbText
  0
ENDBLK
  5
78A
100
AcDbEntity
  8
0
100
AcDbBlockEnd
  0
BLOCK
  5
78D
100
AcDbEntity
  8
0
100
AcDbBlockBegin
  2
*B192
 70
     0
 10
0.0
 20
0.0
 30
0.0
  3
*B192
  1

  0
TEXT
  5
78E
100
AcDbEntity
  8
TEXT
  6
Continuous
 62
     0
100
AcDbText
 10
364.708302
 20
233.218414
 30
0.0
 40
3.5
  1
22,25
100
AcDbText
  0
ENDBLK
  5
78F
100
AcDbEntity
  8
0
100
AcDbBlockEnd
  0
BLOCK
  5
792
100
AcDbEntity
  8
0
100
AcDbBlockBegin
  2
*B193
 70
     0
 10
0.0
 20
0.0
 30
0.0
  3
*B193
  1

  0
TEXT
  5
793
100
AcDbEntity
  8
TEXT
  6
Continuous
 62
     0
100
AcDbText
 10
415.208302
 20
233.218414
 30
0.0
 40
3.5
  1
28,25
100
AcDbText
  0
ENDBLK
  5
794
100
AcDbEntity
  8
0
100
AcDbBlockEnd
  0
BLOCK
  5
797
100
AcDbEntity
  8
0
100
AcDbBlockBegin
  2
*B194
 70
     0
 10
0.0
 20
0.0
 30
0.0
  3
*B194
  1

  0
TEXT
  5
798
100
AcDbEntity
  8
TEXT
  6
Continuous
 62
     0
100
AcDbText
 10
443.291635
 20
43.75
 30
0.0
 40
3.5
  1
6
100
AcDbText
  0
ENDBLK
  5
799
100
AcDbEntity
  8
0
100
AcDbBlockEnd
  0
BLOCK
  5
79C
100
AcDbEntity
  8
0
100
AcDbBlockBegin
  2
*B195
 70
     0
 10
0.0
 20
0.0
 30
0.0
  3
*B195
  1

  0
TEXT
  5
79D
100
AcDbEntity
  8
TEXT
  6
Continuous
 62
     0
100
AcDbText
 10
404.0
 20
42.75
 30
0.0
 40
3.5
  1
M 3
100
AcDbText
  0
ENDBLK
  5
79E
100
AcDbEntity
  8
0
100
AcDbBlockEnd
  0
BLOCK
  5
7A1
100
AcDbEntity
  8
0
100
AcDbBlockBegin
  2
*B196
 70
     0
 10
0.0
 20
0.0
 30
0.0
  3
*B196
  1

  0
TEXT
  5
7A2
100
AcDbEntity
  8
TEXT
  6
Continuous
 62
     0
100
AcDbText
 10
469.25
 20
110.833847
 30
0.0
 40
3.5
  1
32
 50
90.0
100
AcDbText
  0
ENDBLK
  5
7A3
100
AcDbEntity
  8
0
100
AcDbBlockEnd
  0
BLOCK
  5
7A6
100
AcDbEntity
  8
0
100
AcDbBlockBegin
  2
*B197
 70
     0
 10
0.0
 20
0.0
 30
0.0
  3
*B197
  1

  0
TEXT
  5
7A7
100
AcDbEntity
  8
TEXT
  6
Continuous
 62
     0
100
AcDbText
 10
243.208302
 20
201.775318
 30
0.0
 40
3.5
  1
22,25
100
AcDbText
  0
ENDBLK
  5
7A8
100
AcDbEntity
  8
0
100
AcDbBlockEnd
  0
BLOCK
  5
7AB
100
AcDbEntity
  8
0
100
AcDbBlockBegin
  2
*B198
 70
     0
 10
0.0
 20
0.0
 30
0.0
  3
*B198
  1

  0
TEXT
  5
7AC
100
AcDbEntity
  8
TEXT
  6
Continuous
 62
     0
100
AcDbText
 10
277.333333
 20
42.75
 30
0.0
 40
3.5
  1
6
100
AcDbText
  0
ENDBLK
  5
7AD
100
AcDbEntity
  8
0
100
AcDbBlockEnd
  0
BLOCK
  5
7B0
100
AcDbEntity
  8
0
100
AcDbBlockBegin
  2
*B199
 70
     0
 10
0.0
 20
0.0
 30
0.0
  3
*B199
  1

  0
TEXT
  5
7B1
100
AcDbEntity
  8
TEXT
  6
Continuous
 62
     0
100
AcDbText
 10
188.291635
 20
42.75
 30
0.0
 40
3.5
  1
6
100
AcDbText
  0
ENDBLK
  5
7B2
100
AcDbEntity
  8
0
100
AcDbBlockEnd
  0
BLOCK
  5
7B5
100
AcDbEntity
  8
0
100
AcDbBlockBegin
  2
*B200
 70
     0
 10
0.0
 20
0.0
 30
0.0
  3
*B200
  1

  0
TEXT
  5
7B6
100
AcDbEntity
  8
TEXT
  6
Continuous
 62
     0
100
AcDbText
 10
332.208302
 20
201.775318
 30
0.0
 40
3.5
  1
22,25
100
AcDbText
  0
ENDBLK
  5
7B7
100
AcDbEntity
  8
0
100
AcDbBlockEnd
  0
BLOCK
  5
7BA
100
AcDbEntity
  8
0
100
AcDbBlockBegin
  2
*B201
 70
     0
 10
0.0
 20
0.0
 30
0.0
  3
*B201
  1

  0
TEXT
  5
7BB
100
AcDbEntity
  8
TEXT
  6
Continuous
 62
     0
100
AcDbText
 10
376.708302
 20
201.775318
 30
0.0
 40
3.5
  1
22,25
100
AcDbText
  0
ENDBLK
  5
7BC
100
AcDbEntity
  8
0
100
AcDbBlockEnd
  0
BLOCK
  5
7BF
100
AcDbEntity
  8
0
100
AcDbBlockBegin
  2
*B202
 70
     0
 10
0.0
 20
0.0
 30
0.0
  3
*B202
  1

  0
TEXT
  5
7C0
100
AcDbEntity
  8
TEXT
  6
Continuous
 62
     0
100
AcDbText
 10
287.708302
 20
201.775318
 30
0.0
 40
3.5
  1
22,25
100
AcDbText
  0
ENDBLK
  5
7C1
100
AcDbEntity
  8
0
100
AcDbBlockEnd
  0
BLOCK
  5
7C4
100
AcDbEntity
  8
0
100
AcDbBlockBegin
  2
*B203
 70
     0
 10
0.0
 20
0.0
 30
0.0
  3
*B203
  1

  0
TEXT
  5
7C5
100
AcDbEntity
  8
TEXT
  6
Continuous
 62
     0
100
AcDbText
 10
170.25
 20
138.416667
 30
0.0
 40
3.5
  1
G 1/4"
 50
90.0
100
AcDbText
  0
ENDBLK
  5
7C6
100
AcDbEntity
  8
0
100
AcDbBlockEnd
  0
BLOCK
  5
7C9
100
AcDbEntity
  8
0
100
AcDbBlockBegin
  2
*B204
 70
     0
 10
0.0
 20
0.0
 30
0.0
  3
*B204
  1

  0
TEXT
  5
7CA
100
AcDbEntity
  8
TEXT
  6
Continuous
 62
     0
100
AcDbText
 10
198.708302
 20
201.775318
 30
0.0
 40
3.5
  1
22,25
100
AcDbText
  0
ENDBLK
  5
7CB
100
AcDbEntity
  8
0
100
AcDbBlockEnd
  0
BLOCK
  5
7CE
100
AcDbEntity
  8
0
100
AcDbBlockBegin
  2
*B205
 70
     0
 10
0.0
 20
0.0
 30
0.0
  3
*B205
  1

  0
TEXT
  5
7CF
100
AcDbEntity
  8
TEXT
  6
Continuous
 62
     0
100
AcDbText
 10
222.624969
 20
42.75
 30
0.0
 40
3.5
  1
16,5
100
AcDbText
  0
ENDBLK
  5
7D0
100
AcDbEntity
  8
0
100
AcDbBlockEnd
  0
BLOCK
  5
7D3
100
AcDbEntity
  8
0
100
AcDbBlockBegin
  2
*B206
 70
     0
 10
0.0
 20
0.0
 30
0.0
  3
*B206
  1

  0
TEXT
  5
7D4
100
AcDbEntity
  8
TEXT
  6
Continuous
 62
     0
100
AcDbText
 10
421.208302
 20
201.775318
 30
0.0
 40
3.5
  1
22,25
100
AcDbText
  0
ENDBLK
  5
7D5
100
AcDbEntity
  8
0
100
AcDbBlockEnd
  0
BLOCK
  5
7D8
100
AcDbEntity
  8
0
100
AcDbBlockBegin
  2
*B207
 70
     0
 10
0.0
 20
0.0
 30
0.0
  3
*B207
  1

  0
TEXT
  5
7D9
100
AcDbEntity
  8
TEXT
  6
Continuous
 62
     0
100
AcDbText
 10
295.185196
 20
110.833847
 30
0.0
 40
3.5
  1
16
 50
90.0
100
AcDbText
  0
ENDBLK
  5
7DA
100
AcDbEntity
  8
0
100
AcDbBlockEnd
  0
BLOCK
  5
7DD
100
AcDbEntity
  8
0
100
AcDbBlockBegin
  2
*B208
 70
     0
 10
0.0
 20
0.0
 30
0.0
  3
*B208
  1

  0
TEXT
  5
7DE
100
AcDbEntity
  8
TEXT
  6
Continuous
 62
     0
100
AcDbText
 10
491.25
 20
110.833847
 30
0.0
 40
3.5
  1
46
 50
90.0
100
AcDbText
  0
ENDBLK
  5
7DF
100
AcDbEntity
  8
0
100
AcDbBlockEnd
  0
BLOCK
  5
7E2
100
AcDbEntity
  8
0
100
AcDbBlockBegin
  2
*B209
 70
     0
 10
0.0
 20
0.0
 30
0.0
  3
*B209
  1

  0
TEXT
  5
7E3
100
AcDbEntity
  8
TEXT
  6
Continuous
 62
     0
100
AcDbText
 10
146.25
 20
356.359996
 30
0.0
 40
3.5
  1
22
 50
90.0
100
AcDbText
  0
ENDBLK
  5
7E4
100
AcDbEntity
  8
0
100
AcDbBlockEnd
  0
BLOCK
  5
7E7
100
AcDbEntity
  8
0
100
AcDbBlockBegin
  2
*B210
 70
     0
 10
0.0
 20
0.0
 30
0.0
  3
*B210
  1

  0
TEXT
  5
7E8
100
AcDbEntity
  8
TEXT
  6
Continuous
 62
     0
100
AcDbText
 10
146.25
 20
110.833847
 30
0.0
 40
3.5
  1
60
 50
90.0
100
AcDbText
  0
ENDBLK
  5
7E9
100
AcDbEntity
  8
0
100
AcDbBlockEnd
  0
BLOCK
  5
7EC
100
AcDbEntity
  8
0
100
AcDbBlockBegin
  2
*B211
 70
     0
 10
0.0
 20
0.0
 30
0.0
  3
*B211
  1

  0
TEXT
  5
7ED
100
AcDbEntity
  8
TEXT
  6
Continuous
 62
     0
100
AcDbText
 10
339.883333
 20
42.75
 30
0.0
 40
3.5
  1
%%c5
100
AcDbText
  0
ENDBLK
  5
7EE
100
AcDbEntity
  8
0
100
AcDbBlockEnd
  0
ENDSEC
  0
SECTION
  2
ENTITIES
  0
INSERT
  5
C7
100
AcDbEntity
  8
0
  6
Continuous
 62
   174
100
AcDbBlockReference
  2
*B1
 10
0.0
 20
0.0
 30
0.0
  0
INSERT
  5
15D
100
AcDbEntity
  8
0
  6
HIDDEN
 62
   174
100
AcDbBlockReference
  2
*B2
 10
0.0
 20
0.0
 30
0.0
  0
INSERT
  5
1AC
100
AcDbEntity
  8
0
  6
DOTTED
 62
    42
100
AcDbBlockReference
  2
*B3
 10
0.0
 20
0.0
 30
0.0
  0
INSERT
  5
1B3
100
AcDbEntity
  8
0
  6
Continuous
 62
     0
100
AcDbBlockReference
  2
*B4
 10
0.0
 20
0.0
 30
0.0
  0
INSERT
  5
1BA
100
AcDbEntity
  8
0
  6
Continuous
 62
     0
100
AcDbBlockReference
  2
*B5
 10
0.0
 20
0.0
 30
0.0
  0
INSERT
  5
1C1
100
AcDbEntity
  8
0
  6
Continuous
 62
     0
100
AcDbBlockReference
  2
*B6
 10
0.0
 20
0.0
 30
0.0
  0
INSERT
  5
1C8
100
AcDbEntity
  8
0
  6
Continuous
 62
     0
100
AcDbBlockReference
  2
*B7
 10
0.0
 20
0.0
 30
0.0
  0
INSERT
  5
1CF
100
AcDbEntity
  8
0
  6
Continuous
 62
     0
100
AcDbBlockReference
  2
*B8
 10
0.0
 20
0.0
 30
0.0
  0
INSERT
  5
1D6
100
AcDbEntity
  8
0
  6
Continuous
 62
     0
100
AcDbBlockReference
  2
*B9
 10
0.0
 20
0.0
 30
0.0
  0
INSERT
  5
1DD
100
AcDbEntity
  8
0
  6
Continuous
 62
     0
100
AcDbBlockReference
  2
*B10
 10
0.0
 20
0.0
 30
0.0
  0
INSERT
  5
1E4
100
AcDbEntity
  8
0
  6
Continuous
 62
     0
100
AcDbBlockReference
  2
*B11
 10
0.0
 20
0.0
 30
0.0
  0
INSERT
  5
1EB
100
AcDbEntity
  8
0
  6
Continuous
 62
     0
100
AcDbBlockReference
  2
*B12
 10
0.0
 20
0.0
 30
0.0
  0
INSERT
  5
1F2
100
AcDbEntity
  8
0
  6
Continuous
 62
     0
100
AcDbBlockReference
  2
*B13
 10
0.0
 20
0.0
 30
0.0
  0
INSERT
  5
1F9
100
AcDbEntity
  8
0
  6
Continuous
 62
     0
100
AcDbBlockReference
  2
*B14
 10
0.0
 20
0.0
 30
0.0
  0
INSERT
  5
200
100
AcDbEntity
  8
0
  6
Continuous
 62
     0
100
AcDbBlockReference
  2
*B15
 10
0.0
 20
0.0
 30
0.0
  0
INSERT
  5
207
100
AcDbEntity
  8
0
  6
Continuous
 62
     0
100
AcDbBlockReference
  2
*B16
 10
0.0
 20
0.0
 30
0.0
  0
INSERT
  5
20E
100
AcDbEntity
  8
0
  6
Continuous
 62
     0
100
AcDbBlockReference
  2
*B17
 10
0.0
 20
0.0
 30
0.0
  0
INSERT
  5
215
100
AcDbEntity
  8
0
  6
Continuous
 62
     0
100
AcDbBlockReference
  2
*B18
 10
0.0
 20
0.0
 30
0.0
  0
INSERT
  5
21C
100
AcDbEntity
  8
0
  6
Continuous
 62
     0
100
AcDbBlockReference
  2
*B19
 10
0.0
 20
0.0
 30
0.0
  0
INSERT
  5
223
100
AcDbEntity
  8
0
  6
Continuous
 62
     0
100
AcDbBlockReference
  2
*B20
 10
0.0
 20
0.0
 30
0.0
  0
INSERT
  5
22A
100
AcDbEntity
  8
0
  6
Continuous
 62
     0
100
AcDbBlockReference
  2
*B21
 10
0.0
 20
0.0
 30
0.0
  0
INSERT
  5
231
100
AcDbEntity
  8
0
  6
Continuous
 62
     0
100
AcDbBlockReference
  2
*B22
 10
0.0
 20
0.0
 30
0.0
  0
INSERT
  5
238
100
AcDbEntity
  8
0
  6
Continuous
 62
     0
100
AcDbBlockReference
  2
*B23
 10
0.0
 20
0.0
 30
0.0
  0
INSERT
  5
23F
100
AcDbEntity
  8
0
  6
Continuous
 62
     0
100
AcDbBlockReference
  2
*B24
 10
0.0
 20
0.0
 30
0.0
  0
INSERT
  5
246
100
AcDbEntity
  8
0
  6
Continuous
 62
     0
100
AcDbBlockReference
  2
*B25
 10
0.0
 20
0.0
 30
0.0
  0
INSERT
  5
24D
100
AcDbEntity
  8
0
  6
Continuous
 62
     0
100
AcDbBlockReference
  2
*B26
 10
0.0
 20
0.0
 30
0.0
  0
INSERT
  5
254
100
AcDbEntity
  8
0
  6
Continuous
 62
     0
100
AcDbBlockReference
  2
*B27
 10
0.0
 20
0.0
 30
0.0
  0
INSERT
  5
25B
100
AcDbEntity
  8
0
  6
Continuous
 62
     0
100
AcDbBlockReference
  2
*B28
 10
0.0
 20
0.0
 30
0.0
  0
INSERT
  5
262
100
AcDbEntity
  8
0
  6
Continuous
 62
     0
100
AcDbBlockReference
  2
*B29
 10
0.0
 20
0.0
 30
0.0
  0
INSERT
  5
269
100
AcDbEntity
  8
0
  6
Continuous
 62
     0
100
AcDbBlockReference
  2
*B30
 10
0.0
 20
0.0
 30
0.0
  0
INSERT
  5
270
100
AcDbEntity
  8
0
  6
Continuous
 62
     0
100
AcDbBlockReference
  2
*B31
 10
0.0
 20
0.0
 30
0.0
  0
INSERT
  5
277
100
AcDbEntity
  8
0
  6
Continuous
 62
     0
100
AcDbBlockReference
  2
*B32
 10
0.0
 20
0.0
 30
0.0
  0
INSERT
  5
27E
100
AcDbEntity
  8
0
  6
Continuous
 62
     0
100
AcDbBlockReference
  2
*B33
 10
0.0
 20
0.0
 30
0.0
  0
INSERT
  5
283
100
AcDbEntity
  8
0
  6
Continuous
 62
     8
100
AcDbBlockReference
  2
*B34
 10
0.0
 20
0.0
 30
0.0
  0
INSERT
  5
289
100
AcDbEntity
  8
0
  6
Continuous
 62
     8
100
AcDbBlockReference
  2
*B35
 10
0.0
 20
0.0
 30
0.0
  0
INSERT
  5
28F
100
AcDbEntity
  8
0
  6
Continuous
 62
     8
100
AcDbBlockReference
  2
*B36
 10
0.0
 20
0.0
 30
0.0
  0
INSERT
  5
295
100
AcDbEntity
  8
0
  6
Continuous
 62
     8
100
AcDbBlockReference
  2
*B37
 10
0.0
 20
0.0
 30
0.0
  0
INSERT
  5
29B
100
AcDbEntity
  8
0
  6
Continuous
 62
     8
100
AcDbBlockReference
  2
*B38
 10
0.0
 20
0.0
 30
0.0
  0
INSERT
  5
2AA
100
AcDbEntity
  8
0
  6
Continuous
 62
     8
100
AcDbBlockReference
  2
*B39
 10
0.0
 20
0.0
 30
0.0
  0
INSERT
  5
2B0
100
AcDbEntity
  8
0
  6
Continuous
 62
     8
100
AcDbBlockReference
  2
*B40
 10
0.0
 20
0.0
 30
0.0
  0
INSERT
  5
2BD
100
AcDbEntity
  8
0
  6
Continuous
 62
     8
100
AcDbBlockReference
  2
*B41
 10
0.0
 20
0.0
 30
0.0
  0
INSERT
  5
2CC
100
AcDbEntity
  8
0
  6
Continuous
 62
     8
100
AcDbBlockReference
  2
*B42
 10
0.0
 20
0.0
 30
0.0
  0
INSERT
  5
2D2
100
AcDbEntity
  8
0
  6
Continuous
 62
     8
100
AcDbBlockReference
  2
*B43
 10
0.0
 20
0.0
 30
0.0
  0
INSERT
  5
2D7
100
AcDbEntity
  8
0
  6
Continuous
 62
     8
100
AcDbBlockReference
  2
*B44
 10
0.0
 20
0.0
 30
0.0
  0
INSERT
  5
2E0
100
AcDbEntity
  8
0
  6
Continuous
 62
     8
100
AcDbBlockReference
  2
*B45
 10
0.0
 20
0.0
 30
0.0
  0
INSERT
  5
2E6
100
AcDbEntity
  8
0
  6
Continuous
 62
     8
100
AcDbBlockReference
  2
*B46
 10
0.0
 20
0.0
 30
0.0
  0
INSERT
  5
2EC
100
AcDbEntity
  8
0
  6
Continuous
 62
     8
100
AcDbBlockReference
  2
*B47
 10
0.0
 20
0.0
 30
0.0
  0
INSERT
  5
2F2
100
AcDbEntity
  8
0
  6
Continuous
 62
     8
100
AcDbBlockReference
  2
*B48
 10
0.0
 20
0.0
 30
0.0
  0
INSERT
  5
2F7
100
AcDbEntity
  8
0
  6
Continuous
 62
     8
100
AcDbBlockReference
  2
*B49
 10
0.0
 20
0.0
 30
0.0
  0
INSERT
  5
304
100
AcDbEntity
  8
0
  6
Continuous
 62
     8
100
AcDbBlockReference
  2
*B50
 10
0.0
 20
0.0
 30
0.0
  0
INSERT
  5
30A
100
AcDbEntity
  8
0
  6
Continuous
 62
     8
100
AcDbBlockReference
  2
*B51
 10
0.0
 20
0.0
 30
0.0
  0
INSERT
  5
30F
100
AcDbEntity
  8
0
  6
Continuous
 62
     8
100
AcDbBlockReference
  2
*B52
 10
0.0
 20
0.0
 30
0.0
  0
INSERT
  5
314
100
AcDbEntity
  8
0
  6
Continuous
 62
     8
100
AcDbBlockReference
  2
*B53
 10
0.0
 20
0.0
 30
0.0
  0
INSERT
  5
321
100
AcDbEntity
  8
0
  6
Continuous
 62
     8
100
AcDbBlockReference
  2
*B54
 10
0.0
 20
0.0
 30
0.0
  0
INSERT
  5
327
100
AcDbEntity
  8
0
  6
Continuous
 62
     8
100
AcDbBlockReference
  2
*B55
 10
0.0
 20
0.0
 30
0.0
  0
INSERT
  5
32D
100
AcDbEntity
  8
0
  6
Continuous
 62
     8
100
AcDbBlockReference
  2
*B56
 10
0.0
 20
0.0
 30
0.0
  0
INSERT
  5
350
100
AcDbEntity
  8
0
  6
Continuous
 62
     8
100
AcDbBlockReference
  2
*B57
 10
0.0
 20
0.0
 30
0.0
  0
INSERT
  5
355
100
AcDbEntity
  8
0
  6
Continuous
 62
     8
100
AcDbBlockReference
  2
*B58
 10
0.0
 20
0.0
 30
0.0
  0
INSERT
  5
35B
100
AcDbEntity
  8
0
  6
Continuous
 62
     8
100
AcDbBlockReference
  2
*B59
 10
0.0
 20
0.0
 30
0.0
  0
INSERT
  5
368
100
AcDbEntity
  8
0
  6
Continuous
 62
     8
100
AcDbBlockReference
  2
*B60
 10
0.0
 20
0.0
 30
0.0
  0
INSERT
  5
36E
100
AcDbEntity
  8
0
  6
Continuous
 62
     8
100
AcDbBlockReference
  2
*B61
 10
0.0
 20
0.0
 30
0.0
  0
INSERT
  5
373
100
AcDbEntity
  8
0
  6
Continuous
 62
     8
100
AcDbBlockReference
  2
*B62
 10
0.0
 20
0.0
 30
0.0
  0
INSERT
  5
379
100
AcDbEntity
  8
0
  6
Continuous
 62
     8
100
AcDbBlockReference
  2
*B63
 10
0.0
 20
0.0
 30
0.0
  0
INSERT
  5
393
100
AcDbEntity
  8
0
  6
Continuous
 62
     8
100
AcDbBlockReference
  2
*B64
 10
0.0
 20
0.0
 30
0.0
  0
INSERT
  5
39E
100
AcDbEntity
  8
0
  6
Continuous
 62
     8
100
AcDbBlockReference
  2
*B65
 10
0.0
 20
0.0
 30
0.0
  0
INSERT
  5
3AB
100
AcDbEntity
  8
0
  6
Continuous
 62
     8
100
AcDbBlockReference
  2
*B66
 10
0.0
 20
0.0
 30
0.0
  0
INSERT
  5
3B0
100
AcDbEntity
  8
0
  6
Continuous
 62
     8
100
AcDbBlockReference
  2
*B67
 10
0.0
 20
0.0
 30
0.0
  0
INSERT
  5
3B6
100
AcDbEntity
  8
0
  6
Continuous
 62
     8
100
AcDbBlockReference
  2
*B68
 10
0.0
 20
0.0
 30
0.0
  0
INSERT
  5
3C3
100
AcDbEntity
  8
0
  6
Continuous
 62
     8
100
AcDbBlockReference
  2
*B69
 10
0.0
 20
0.0
 30
0.0
  0
INSERT
  5
3C9
100
AcDbEntity
  8
0
  6
Continuous
 62
     8
100
AcDbBlockReference
  2
*B70
 10
0.0
 20
0.0
 30
0.0
  0
INSERT
  5
3CE
100
AcDbEntity
  8
0
  6
Continuous
 62
     8
100
AcDbBlockReference
  2
*B71
 10
0.0
 20
0.0
 30
0.0
  0
INSERT
  5
3D3
100
AcDbEntity
  8
0
  6
Continuous
 62
     8
100
AcDbBlockReference
  2
*B72
 10
0.0
 20
0.0
 30
0.0
  0
INSERT
  5
3D8
100
AcDbEntity
  8
0
  6
Continuous
 62
     8
100
AcDbBlockReference
  2
*B73
 10
0.0
 20
0.0
 30
0.0
  0
INSERT
  5
3DE
100
AcDbEntity
  8
0
  6
Continuous
 62
     8
100
AcDbBlockReference
  2
*B74
 10
0.0
 20
0.0
 30
0.0
  0
INSERT
  5
3E4
100
AcDbEntity
  8
0
  6
Continuous
 62
     8
100
AcDbBlockReference
  2
*B75
 10
0.0
 20
0.0
 30
0.0
  0
INSERT
  5
3EA
100
AcDbEntity
  8
0
  6
Continuous
 62
     8
100
AcDbBlockReference
  2
*B76
 10
0.0
 20
0.0
 30
0.0
  0
INSERT
  5
3EF
100
AcDbEntity
  8
0
  6
Continuous
 62
     8
100
AcDbBlockReference
  2
*B77
 10
0.0
 20
0.0
 30
0.0
  0
INSERT
  5
412
100
AcDbEntity
  8
0
  6
Continuous
 62
     8
100
AcDbBlockReference
  2
*B78
 10
0.0
 20
0.0
 30
0.0
  0
INSERT
  5
41D
100
AcDbEntity
  8
0
  6
Continuous
 62
     8
100
AcDbBlockReference
  2
*B79
 10
0.0
 20
0.0
 30
0.0
  0
INSERT
  5
423
100
AcDbEntity
  8
0
  6
Continuous
 62
     8
100
AcDbBlockReference
  2
*B80
 10
0.0
 20
0.0
 30
0.0
  0
INSERT
  5
430
100
AcDbEntity
  8
0
  6
Continuous
 62
     8
100
AcDbBlockReference
  2
*B81
 10
0.0
 20
0.0
 30
0.0
  0
INSERT
  5
43B
100
AcDbEntity
  8
0
  6
Continuous
 62
     8
100
AcDbBlockReference
  2
*B82
 10
0.0
 20
0.0
 30
0.0
  0
INSERT
  5
465
100
AcDbEntity
  8
0
  6
Continuous
 62
     8
100
AcDbBlockReference
  2
*B83
 10
0.0
 20
0.0
 30
0.0
  0
INSERT
  5
47F
100
AcDbEntity
  8
0
  6
Continuous
 62
     8
100
AcDbBlockReference
  2
*B84
 10
0.0
 20
0.0
 30
0.0
  0
INSERT
  5
484
100
AcDbEntity
  8
0
  6
Continuous
 62
     8
100
AcDbBlockReference
  2
*B85
 10
0.0
 20
0.0
 30
0.0
  0
INSERT
  5
491
100
AcDbEntity
  8
0
  6
Continuous
 62
     8
100
AcDbBlockReference
  2
*B86
 10
0.0
 20
0.0
 30
0.0
  0
INSERT
  5
497
100
AcDbEntity
  8
0
  6
Continuous
 62
     8
100
AcDbBlockReference
  2
*B87
 10
0.0
 20
0.0
 30
0.0
  0
INSERT
  5
4B8
100
AcDbEntity
  8
0
  6
Continuous
 62
     8
100
AcDbBlockReference
  2
*B88
 10
0.0
 20
0.0
 30
0.0
  0
INSERT
  5
4C5
100
AcDbEntity
  8
0
  6
Continuous
 62
     8
100
AcDbBlockReference
  2
*B89
 10
0.0
 20
0.0
 30
0.0
  0
INSERT
  5
4D2
100
AcDbEntity
  8
0
  6
Continuous
 62
     8
100
AcDbBlockReference
  2
*B90
 10
0.0
 20
0.0
 30
0.0
  0
INSERT
  5
4DF
100
AcDbEntity
  8
0
  6
Continuous
 62
     8
100
AcDbBlockReference
  2
*B91
 10
0.0
 20
0.0
 30
0.0
  0
INSERT
  5
4E5
100
AcDbEntity
  8
0
  6
Continuous
 62
     8
100
AcDbBlockReference
  2
*B92
 10
0.0
 20
0.0
 30
0.0
  0
INSERT
  5
4EB
100
AcDbEntity
  8
0
  6
Continuous
 62
     8
100
AcDbBlockReference
  2
*B93
 10
0.0
 20
0.0
 30
0.0
  0
INSERT
  5
4F1
100
AcDbEntity
  8
0
  6
Continuous
 62
     8
100
AcDbBlockReference
  2
*B94
 10
0.0
 20
0.0
 30
0.0
  0
INSERT
  5
4F7
100
AcDbEntity
  8
0
  6
Continuous
 62
     8
100
AcDbBlockReference
  2
*B95
 10
0.0
 20
0.0
 30
0.0
  0
INSERT
  5
4FD
100
AcDbEntity
  8
0
  6
Continuous
 62
     8
100
AcDbBlockReference
  2
*B96
 10
0.0
 20
0.0
 30
0.0
  0
INSERT
  5
50A
100
AcDbEntity
  8
0
  6
Continuous
 62
     8
100
AcDbBlockReference
  2
*B97
 10
0.0
 20
0.0
 30
0.0
  0
INSERT
  5
513
100
AcDbEntity
  8
0
  6
Continuous
 62
     8
100
AcDbBlockReference
  2
*B98
 10
0.0
 20
0.0
 30
0.0
  0
INSERT
  5
519
100
AcDbEntity
  8
0
  6
Continuous
 62
     8
100
AcDbBlockReference
  2
*B99
 10
0.0
 20
0.0
 30
0.0
  0
INSERT
  5
51F
100
AcDbEntity
  8
0
  6
Continuous
 62
     8
100
AcDbBlockReference
  2
*B100
 10
0.0
 20
0.0
 30
0.0
  0
INSERT
  5
525
100
AcDbEntity
  8
0
  6
Continuous
 62
     8
100
AcDbBlockReference
  2
*B101
 10
0.0
 20
0.0
 30
0.0
  0
INSERT
  5
52B
100
AcDbEntity
  8
0
  6
Continuous
 62
     8
100
AcDbBlockReference
  2
*B102
 10
0.0
 20
0.0
 30
0.0
  0
INSERT
  5
538
100
AcDbEntity
  8
0
  6
Continuous
 62
     8
100
AcDbBlockReference
  2
*B103
 10
0.0
 20
0.0
 30
0.0
  0
INSERT
  5
557
100
AcDbEntity
  8
0
  6
Continuous
 62
     8
100
AcDbBlockReference
  2
*B104
 10
0.0
 20
0.0
 30
0.0
  0
INSERT
  5
562
100
AcDbEntity
  8
0
  6
Continuous
 62
     8
100
AcDbBlockReference
  2
*B105
 10
0.0
 20
0.0
 30
0.0
  0
INSERT
  5
56B
100
AcDbEntity
  8
0
  6
Continuous
 62
     8
100
AcDbBlockReference
  2
*B106
 10
0.0
 20
0.0
 30
0.0
  0
INSERT
  5
571
100
AcDbEntity
  8
0
  6
Continuous
 62
     8
100
AcDbBlockReference
  2
*B107
 10
0.0
 20
0.0
 30
0.0
  0
INSERT
  5
588
100
AcDbEntity
  8
0
  6
Continuous
 62
     8
100
AcDbBlockReference
  2
*B108
 10
0.0
 20
0.0
 30
0.0
  0
INSERT
  5
58E
100
AcDbEntity
  8
0
  6
Continuous
 62
     8
100
AcDbBlockReference
  2
*B109
 10
0.0
 20
0.0
 30
0.0
  0
INSERT
  5
594
100
AcDbEntity
  8
0
  6
Continuous
 62
     8
100
AcDbBlockReference
  2
*B110
 10
0.0
 20
0.0
 30
0.0
  0
INSERT
  5
59F
100
AcDbEntity
  8
0
  6
Continuous
 62
     8
100
AcDbBlockReference
  2
*B111
 10
0.0
 20
0.0
 30
0.0
  0
INSERT
  5
5A4
100
AcDbEntity
  8
0
  6
Continuous
 62
     8
100
AcDbBlockReference
  2
*B112
 10
0.0
 20
0.0
 30
0.0
  0
INSERT
  5
5A9
100
AcDbEntity
  8
0
  6
Continuous
 62
     8
100
AcDbBlockReference
  2
*B113
 10
0.0
 20
0.0
 30
0.0
  0
INSERT
  5
5B4
100
AcDbEntity
  8
0
  6
Continuous
 62
     8
100
AcDbBlockReference
  2
*B114
 10
0.0
 20
0.0
 30
0.0
  0
INSERT
  5
5BA
100
AcDbEntity
  8
0
  6
Continuous
 62
     8
100
AcDbBlockReference
  2
*B115
 10
0.0
 20
0.0
 30
0.0
  0
INSERT
  5
5C0
100
AcDbEntity
  8
0
  6
Continuous
 62
     8
100
AcDbBlockReference
  2
*B116
 10
0.0
 20
0.0
 30
0.0
  0
INSERT
  5
5C5
100
AcDbEntity
  8
0
  6
Continuous
 62
     8
100
AcDbBlockReference
  2
*B117
 10
0.0
 20
0.0
 30
0.0
  0
INSERT
  5
5CA
100
AcDbEntity
  8
0
  6
Continuous
 62
     8
100
AcDbBlockReference
  2
*B118
 10
0.0
 20
0.0
 30
0.0
  0
INSERT
  5
5F2
100
AcDbEntity
  8
0
  6
Continuous
 62
     8
100
AcDbBlockReference
  2
*B119
 10
0.0
 20
0.0
 30
0.0
  0
INSERT
  5
5F8
100
AcDbEntity
  8
0
  6
Continuous
 62
     8
100
AcDbBlockReference
  2
*B120
 10
0.0
 20
0.0
 30
0.0
  0
INSERT
  5
5FE
100
AcDbEntity
  8
0
  6
Continuous
 62
     6
100
AcDbBlockReference
  2
*B121
 10
0.0
 20
0.0
 30
0.0
  0
INSERT
  5
604
100
AcDbEntity
  8
0
  6
Continuous
 62
     6
100
AcDbBlockReference
  2
*B122
 10
0.0
 20
0.0
 30
0.0
  0
INSERT
  5
60A
100
AcDbEntity
  8
0
  6
Continuous
 62
     6
100
AcDbBlockReference
  2
*B123
 10
0.0
 20
0.0
 30
0.0
  0
INSERT
  5
610
100
AcDbEntity
  8
0
  6
Continuous
 62
     6
100
AcDbBlockReference
  2
*B124
 10
0.0
 20
0.0
 30
0.0
  0
INSERT
  5
616
100
AcDbEntity
  8
0
  6
Continuous
 62
     6
100
AcDbBlockReference
  2
*B125
 10
0.0
 20
0.0
 30
0.0
  0
INSERT
  5
61C
100
AcDbEntity
  8
0
  6
Continuous
 62
     6
100
AcDbBlockReference
  2
*B126
 10
0.0
 20
0.0
 30
0.0
  0
INSERT
  5
622
100
AcDbEntity
  8
0
  6
Continuous
 62
     6
100
AcDbBlockReference
  2
*B127
 10
0.0
 20
0.0
 30
0.0
  0
INSERT
  5
628
100
AcDbEntity
  8
0
  6
Continuous
 62
     6
100
AcDbBlockReference
  2
*B128
 10
0.0
 20
0.0
 30
0.0
  0
INSERT
  5
62E
100
AcDbEntity
  8
0
  6
Continuous
 62
     6
100
AcDbBlockReference
  2
*B129
 10
0.0
 20
0.0
 30
0.0
  0
INSERT
  5
634
100
AcDbEntity
  8
0
  6
Continuous
 62
     6
100
AcDbBlockReference
  2
*B130
 10
0.0
 20
0.0
 30
0.0
  0
INSERT
  5
63A
100
AcDbEntity
  8
0
  6
Continuous
 62
     6
100
AcDbBlockReference
  2
*B131
 10
0.0
 20
0.0
 30
0.0
  0
INSERT
  5
640
100
AcDbEntity
  8
0
  6
Continuous
 62
     6
100
AcDbBlockReference
  2
*B132
 10
0.0
 20
0.0
 30
0.0
  0
INSERT
  5
646
100
AcDbEntity
  8
0
  6
Continuous
 62
     6
100
AcDbBlockReference
  2
*B133
 10
0.0
 20
0.0
 30
0.0
  0
INSERT
  5
64C
100
AcDbEntity
  8
0
  6
Continuous
 62
     6
100
AcDbBlockReference
  2
*B134
 10
0.0
 20
0.0
 30
0.0
  0
INSERT
  5
652
100
AcDbEntity
  8
0
  6
Continuous
 62
     6
100
AcDbBlockReference
  2
*B135
 10
0.0
 20
0.0
 30
0.0
  0
INSERT
  5
658
100
AcDbEntity
  8
0
  6
Continuous
 62
     6
100
AcDbBlockReference
  2
*B136
 10
0.0
 20
0.0
 30
0.0
  0
INSERT
  5
65E
100
AcDbEntity
  8
0
  6
Continuous
 62
     6
100
AcDbBlockReference
  2
*B137
 10
0.0
 20
0.0
 30
0.0
  0
INSERT
  5
664
100
AcDbEntity
  8
0
  6
Continuous
 62
     6
100
AcDbBlockReference
  2
*B138
 10
0.0
 20
0.0
 30
0.0
  0
INSERT
  5
66A
100
AcDbEntity
  8
0
  6
Continuous
 62
     6
100
AcDbBlockReference
  2
*B139
 10
0.0
 20
0.0
 30
0.0
  0
INSERT
  5
670
100
AcDbEntity
  8
0
  6
Continuous
 62
     6
100
AcDbBlockReference
  2
*B140
 10
0.0
 20
0.0
 30
0.0
  0
INSERT
  5
676
100
AcDbEntity
  8
0
  6
Continuous
 62
     6
100
AcDbBlockReference
  2
*B141
 10
0.0
 20
0.0
 30
0.0
  0
INSERT
  5
67C
100
AcDbEntity
  8
0
  6
Continuous
 62
     6
100
AcDbBlockReference
  2
*B142
 10
0.0
 20
0.0
 30
0.0
  0
INSERT
  5
682
100
AcDbEntity
  8
0
  6
Continuous
 62
     6
100
AcDbBlockReference
  2
*B143
 10
0.0
 20
0.0
 30
0.0
  0
INSERT
  5
688
100
AcDbEntity
  8
0
  6
Continuous
 62
     6
100
AcDbBlockReference
  2
*B144
 10
0.0
 20
0.0
 30
0.0
  0
INSERT
  5
68E
100
AcDbEntity
  8
0
  6
Continuous
 62
     6
100
AcDbBlockReference
  2
*B145
 10
0.0
 20
0.0
 30
0.0
  0
INSERT
  5
694
100
AcDbEntity
  8
0
  6
Continuous
 62
     6
100
AcDbBlockReference
  2
*B146
 10
0.0
 20
0.0
 30
0.0
  0
INSERT
  5
69A
100
AcDbEntity
  8
0
  6
Continuous
 62
     6
100
AcDbBlockReference
  2
*B147
 10
0.0
 20
0.0
 30
0.0
  0
INSERT
  5
6A0
100
AcDbEntity
  8
0
  6
Continuous
 62
     6
100
AcDbBlockReference
  2
*B148
 10
0.0
 20
0.0
 30
0.0
  0
INSERT
  5
6A6
100
AcDbEntity
  8
0
  6
Continuous
 62
     6
100
AcDbBlockReference
  2
*B149
 10
0.0
 20
0.0
 30
0.0
  0
INSERT
  5
6AC
100
AcDbEntity
  8
0
  6
Continuous
 62
     6
100
AcDbBlockReference
  2
*B150
 10
0.0
 20
0.0
 30
0.0
  0
INSERT
  5
6B2
100
AcDbEntity
  8
0
  6
Continuous
 62
     6
100
AcDbBlockReference
  2
*B151
 10
0.0
 20
0.0
 30
0.0
  0
INSERT
  5
6B8
100
AcDbEntity
  8
0
  6
Continuous
 62
     6
100
AcDbBlockReference
  2
*B152
 10
0.0
 20
0.0
 30
0.0
  0
INSERT
  5
6BE
100
AcDbEntity
  8
0
  6
Continuous
 62
     6
100
AcDbBlockReference
  2
*B153
 10
0.0
 20
0.0
 30
0.0
  0
INSERT
  5
6C4
100
AcDbEntity
  8
0
  6
Continuous
 62
     6
100
AcDbBlockReference
  2
*B154
 10
0.0
 20
0.0
 30
0.0
  0
INSERT
  5
6CA
100
AcDbEntity
  8
0
  6
Continuous
 62
     6
100
AcDbBlockReference
  2
*B155
 10
0.0
 20
0.0
 30
0.0
  0
INSERT
  5
6D0
100
AcDbEntity
  8
0
  6
Continuous
 62
     6
100
AcDbBlockReference
  2
*B156
 10
0.0
 20
0.0
 30
0.0
  0
INSERT
  5
6D6
100
AcDbEntity
  8
0
  6
Continuous
 62
     6
100
AcDbBlockReference
  2
*B157
 10
0.0
 20
0.0
 30
0.0
  0
INSERT
  5
6DC
100
AcDbEntity
  8
0
  6
Continuous
 62
     6
100
AcDbBlockReference
  2
*B158
 10
0.0
 20
0.0
 30
0.0
  0
INSERT
  5
6E2
100
AcDbEntity
  8
0
  6
Continuous
 62
     6
100
AcDbBlockReference
  2
*B159
 10
0.0
 20
0.0
 30
0.0
  0
INSERT
  5
6E8
100
AcDbEntity
  8
0
  6
Continuous
 62
     6
100
AcDbBlockReference
  2
*B160
 10
0.0
 20
0.0
 30
0.0
  0
INSERT
  5
6EE
100
AcDbEntity
  8
0
  6
Continuous
 62
     6
100
AcDbBlockReference
  2
*B161
 10
0.0
 20
0.0
 30
0.0
  0
INSERT
  5
6F4
100
AcDbEntity
  8
0
  6
Continuous
 62
     6
100
AcDbBlockReference
  2
*B162
 10
0.0
 20
0.0
 30
0.0
  0
INSERT
  5
6FA
100
AcDbEntity
  8
0
  6
Continuous
 62
     6
100
AcDbBlockReference
  2
*B163
 10
0.0
 20
0.0
 30
0.0
  0
INSERT
  5
700
100
AcDbEntity
  8
0
  6
Continuous
 62
     6
100
AcDbBlockReference
  2
*B164
 10
0.0
 20
0.0
 30
0.0
  0
INSERT
  5
706
100
AcDbEntity
  8
0
  6
Continuous
 62
     6
100
AcDbBlockReference
  2
*B165
 10
0.0
 20
0.0
 30
0.0
  0
INSERT
  5
70C
100
AcDbEntity
  8
0
  6
Continuous
 62
     6
100
AcDbBlockReference
  2
*B166
 10
0.0
 20
0.0
 30
0.0
  0
INSERT
  5
712
100
AcDbEntity
  8
0
  6
Continuous
 62
     6
100
AcDbBlockReference
  2
*B167
 10
0.0
 20
0.0
 30
0.0
  0
INSERT
  5
718
100
AcDbEntity
  8
0
  6
Continuous
 62
     6
100
AcDbBlockReference
  2
*B168
 10
0.0
 20
0.0
 30
0.0
  0
INSERT
  5
71D
100
AcDbEntity
  8
TEXT
  6
Continuous
 62
     0
100
AcDbBlockReference
  2
*B169
 10
0.0
 20
0.0
 30
0.0
  0
INSERT
  5
722
100
AcDbEntity
  8
TEXT
  6
Continuous
 62
     0
100
AcDbBlockReference
  2
*B170
 10
0.0
 20
0.0
 30
0.0
  0
INSERT
  5
727
100
AcDbEntity
  8
TEXT
  6
Continuous
 62
     0
100
AcDbBlockReference
  2
*B171
 10
0.0
 20
0.0
 30
0.0
  0
INSERT
  5
72C
100
AcDbEntity
  8
TEXT
  6
Continuous
 62
     0
100
AcDbBlockReference
  2
*B172
 10
0.0
 20
0.0
 30
0.0
  0
INSERT
  5
731
100
AcDbEntity
  8
TEXT
  6
Continuous
 62
     0
100
AcDbBlockReference
  2
*B173
 10
0.0
 20
0.0
 30
0.0
  0
INSERT
  5
736
100
AcDbEntity
  8
TEXT
  6
Continuous
 62
     0
100
AcDbBlockReference
  2
*B174
 10
0.0
 20
0.0
 30
0.0
  0
INSERT
  5
73B
100
AcDbEntity
  8
TEXT
  6
Continuous
 62
     0
100
AcDbBlockReference
  2
*B175
 10
0.0
 20
0.0
 30
0.0
  0
INSERT
  5
740
100
AcDbEntity
  8
TEXT
  6
Continuous
 62
     0
100
AcDbBlockReference
  2
*B176
 10
0.0
 20
0.0
 30
0.0
  0
INSERT
  5
745
100
AcDbEntity
  8
TEXT
  6
Continuous
 62
     0
100
AcDbBlockReference
  2
*B177
 10
0.0
 20
0.0
 30
0.0
  0
INSERT
  5
74A
100
AcDbEntity
  8
TEXT
  6
Continuous
 62
     0
100
AcDbBlockReference
  2
*B178
 10
0.0
 20
0.0
 30
0.0
  0
INSERT
  5
74F
100
AcDbEntity
  8
TEXT
  6
Continuous
 62
     0
100
AcDbBlockReference
  2
*B179
 10
0.0
 20
0.0
 30
0.0
  0
INSERT
  5
754
100
AcDbEntity
  8
TEXT
  6
Continuous
 62
     0
100
AcDbBlockReference
  2
*B180
 10
0.0
 20
0.0
 30
0.0
  0
INSERT
  5
759
100
AcDbEntity
  8
TEXT
  6
Continuous
 62
     0
100
AcDbBlockReference
  2
*B181
 10
0.0
 20
0.0
 30
0.0
  0
INSERT
  5
75E
100
AcDbEntity
  8
TEXT
  6
Continuous
 62
     0
100
AcDbBlockReference
  2
*B182
 10
0.0
 20
0.0
 30
0.0
  0
INSERT
  5
763
100
AcDbEntity
  8
TEXT
  6
Continuous
 62
     0
100
AcDbBlockReference
  2
*B183
 10
0.0
 20
0.0
 30
0.0
  0
INSERT
  5
768
100
AcDbEntity
  8
TEXT
  6
Continuous
 62
     0
100
AcDbBlockReference
  2
*B184
 10
0.0
 20
0.0
 30
0.0
  0
INSERT
  5
76D
100
AcDbEntity
  8
TEXT
  6
Continuous
 62
     0
100
AcDbBlockReference
  2
*B185
 10
0.0
 20
0.0
 30
0.0
  0
INSERT
  5
772
100
AcDbEntity
  8
TEXT
  6
Continuous
 62
     0
100
AcDbBlockReference
  2
*B186
 10
0.0
 20
0.0
 30
0.0
  0
INSERT
  5
777
100
AcDbEntity
  8
TEXT
  6
Continuous
 62
     0
100
AcDbBlockReference
  2
*B187
 10
0.0
 20
0.0
 30
0.0
  0
INSERT
  5
77C
100
AcDbEntity
  8
TEXT
  6
Continuous
 62
     0
100
AcDbBlockReference
  2
*B188
 10
0.0
 20
0.0
 30
0.0
  0
INSERT
  5
781
100
AcDbEntity
  8
TEXT
  6
Continuous
 62
     0
100
AcDbBlockReference
  2
*B189
 10
0.0
 20
0.0
 30
0.0
  0
INSERT
  5
786
100
AcDbEntity
  8
TEXT
  6
Continuous
 62
     0
100
AcDbBlockReference
  2
*B190
 10
0.0
 20
0.0
 30
0.0
  0
INSERT
  5
78B
100
AcDbEntity
  8
TEXT
  6
Continuous
 62
     0
100
AcDbBlockReference
  2
*B191
 10
0.0
 20
0.0
 30
0.0
  0
INSERT
  5
790
100
AcDbEntity
  8
TEXT
  6
Continuous
 62
     0
100
AcDbBlockReference
  2
*B192
 10
0.0
 20
0.0
 30
0.0
  0
INSERT
  5
795
100
AcDbEntity
  8
TEXT
  6
Continuous
 62
     0
100
AcDbBlockReference
  2
*B193
 10
0.0
 20
0.0
 30
0.0
  0
INSERT
  5
79A
100
AcDbEntity
  8
TEXT
  6
Continuous
 62
     0
100
AcDbBlockReference
  2
*B194
 10
0.0
 20
0.0
 30
0.0
  0
INSERT
  5
79F
100
AcDbEntity
  8
TEXT
  6
Continuous
 62
     0
100
AcDbBlockReference
  2
*B195
 10
0.0
 20
0.0
 30
0.0
  0
INSERT
  5
7A4
100
AcDbEntity
  8
TEXT
  6
Continuous
 62
     0
100
AcDbBlockReference
  2
*B196
 10
0.0
 20
0.0
 30
0.0
  0
INSERT
  5
7A9
100
AcDbEntity
  8
TEXT
  6
Continuous
 62
     0
100
AcDbBlockReference
  2
*B197
 10
0.0
 20
0.0
 30
0.0
  0
INSERT
  5
7AE
100
AcDbEntity
  8
TEXT
  6
Continuous
 62
     0
100
AcDbBlockReference
  2
*B198
 10
0.0
 20
0.0
 30
0.0
  0
INSERT
  5
7B3
100
AcDbEntity
  8
TEXT
  6
Continuous
 62
     0
100
AcDbBlockReference
  2
*B199
 10
0.0
 20
0.0
 30
0.0
  0
INSERT
  5
7B8
100
AcDbEntity
  8
TEXT
  6
Continuous
 62
     0
100
AcDbBlockReference
  2
*B200
 10
0.0
 20
0.0
 30
0.0
  0
INSERT
  5
7BD
100
AcDbEntity
  8
TEXT
  6
Continuous
 62
     0
100
AcDbBlockReference
  2
*B201
 10
0.0
 20
0.0
 30
0.0
  0
INSERT
  5
7C2
100
AcDbEntity
  8
TEXT
  6
Continuous
 62
     0
100
AcDbBlockReference
  2
*B202
 10
0.0
 20
0.0
 30
0.0
  0
INSERT
  5
7C7
100
AcDbEntity
  8
TEXT
  6
Continuous
 62
     0
100
AcDbBlockReference
  2
*B203
 10
0.0
 20
0.0
 30
0.0
  0
INSERT
  5
7CC
100
AcDbEntity
  8
TEXT
  6
Continuous
 62
     0
100
AcDbBlockReference
  2
*B204
 10
0.0
 20
0.0
 30
0.0
  0
INSERT
  5
7D1
100
AcDbEntity
  8
TEXT
  6
Continuous
 62
     0
100
AcDbBlockReference
  2
*B205
 10
0.0
 20
0.0
 30
0.0
  0
INSERT
  5
7D6
100
AcDbEntity
  8
TEXT
  6
Continuous
 62
     0
100
AcDbBlockReference
  2
*B206
 10
0.0
 20
0.0
 30
0.0
  0
INSERT
  5
7DB
100
AcDbEntity
  8
TEXT
  6
Continuous
 62
     0
100
AcDbBlockReference
  2
*B207
 10
0.0
 20
0.0
 30
0.0
  0
INSERT
  5
7E0
100
AcDbEntity
  8
TEXT
  6
Continuous
 62
     0
100
AcDbBlockReference
  2
*B208
 10
0.0
 20
0.0
 30
0.0
  0
INSERT
  5
7E5
100
AcDbEntity
  8
TEXT
  6
Continuous
 62
     0
100
AcDbBlockReference
  2
*B209
 10
0.0
 20
0.0
 30
0.0
  0
INSERT
  5
7EA
100
AcDbEntity
  8
TEXT
  6
Continuous
 62
     0
100
AcDbBlockReference
  2
*B210
 10
0.0
 20
0.0
 30
0.0
  0
INSERT
  5
7EF
100
AcDbEntity
  8
TEXT
  6
Continuous
 62
     0
100
AcDbBlockReference
  2
*B211
 10
0.0
 20
0.0
 30
0.0
  0
ENDSEC
  0
SECTION
  2
OBJECTS
  0
DICTIONARY
  5
19
100
AcDbDictionary
280
     0
281
     1
  3
ACAD_GROUP
350
1A
  3
ACAD_MLINESTYLE
350
1B
  3
ACAD_LAYOUT
350
1E
  3
ACAD_PLOTSETTINGS
350
22
  3
ACAD_PLOTSTYLENAME
350
1F
  3
ACAD_WIPEOUT_VARS
350
23
  0
DICTIONARY
  5
1A
102
{ACAD_REACTORS
330
19
102
}
100
AcDbDictionary
280
     0
281
     1
  0
DICTIONARY
  5
1B
102
{ACAD_REACTORS
330
19
102
}
100
AcDbDictionary
280
     0
281
     1
  3
Standard
350
1C
  0
MLINESTYLE
  5
1C
102
{ACAD_REACTORS
330
1B
102
}
100
AcDbMlineStyle
  2
Standard
 70
     0
  3

 62
     0
 51
90.0
 52
90.0
 71
     2
 49
0.5
 62
   256
  6
BYLAYER
 49
-0.5
 62
   256
  6
BYLAYER
  0
ACDBDICTIONARYWDFLT
  5
1F
102
{ACAD_REACTORS
330
19
102
}
100
AcDbDictionary
281
     1
  3
Normal
350
1D
100
AcDbDictionaryWithDefault
340
1D
  0
ACDBPLACEHOLDER
  5
1D
102
{ACAD_REACTORS
330
1F
102
}
  0
LAYOUT
  5
20
102
{ACAD_REACTORS
330
1E
102
}
100
AcDbPlotSettings
  1

  2

  4

  6

 40
0.0
 41
0.0
 42
0.0
 43
0.0
 44
0.0
 45
0.0
 46
0.0
 47
0.0
 48
0.0
 49
0.0
140
0.0
141
0.0
142
1.0
143
1.0
 70
     0
 72
     0
 73
     0
 74
     0
  7

 75
     0
147
1.0
148
0.0
149
0.0
100
AcDbLayout
  1
Model
 70
     0
 71
     0
 10
0.0
 20
0.0
 11
0.0
 21
0.0
 12
0.0
 22
0.0
 32
0.0
 14
0.0
 24
0.0
 34
0.0
 15
0.0
 25
0.0
 35
0.0
146
0.0
 13
0.0
 23
0.0
 33
0.0
 16
0.0
 26
0.0
 36
0.0
 17
0.0
 27
0.0
 37
0.0
 76
     0
330
A
331
0
345
0
346
0
  0
LAYOUT
  5
21
102
{ACAD_REACTORS
330
1E
102
}
100
AcDbPlotSettings
  1

  2

  4

  6

 40
0.0
 41
0.0
 42
0.0
 43
0.0
 44
0.0
 45
0.0
 46
0.0
 47
0.0
 48
0.0
 49
0.0
140
0.0
141
0.0
142
1.0
143
1.0
 70
     0
 72
     0
 73
     0
 74
     0
  7

 75
     0
147
1.0
148
0.0
149
0.0
100
AcDbLayout
  1
Layout1
 70
     0
 71
     0
 10
0.0
 20
0.0
 11
0.0
 21
0.0
 12
0.0
 22
0.0
 32
0.0
 14
0.0
 24
0.0
 34
0.0
 15
0.0
 25
0.0
 35
0.0
146
0.0
 13
0.0
 23
0.0
 33
0.0
 16
0.0
 26
0.0
 36
0.0
 17
0.0
 27
0.0
 37
0.0
 76
     0
330
B
331
0
345
0
346
0
  0
DICTIONARY
  5
1E
102
{ACAD_REACTORS
330
19
102
}
100
AcDbDictionary
280
     0
281
     1
  3
Layout1
350
21
  3
Model
350
20
  0
DICTIONARY
  5
22
102
{ACAD_REACTORS
330
19
102
}
100
AcDbDictionary
280
     0
281
     1
  0
WIPEOUTVARIABLES
  5
23
100
AcDbWipeoutVariables
 70
     1
  0
ENDSEC
  0
EOF
