  0
SECTION
  2
HEADER
  9
$ACADVER
  1
AC1015
  9
$ACADMAINTVER
 70
     6
  9
$DWGCODEPAGE
  3
DOS850
  9
$INSBASE
 10
0.0
 20
0.0
 30
0.0
  9
$EXTMIN
 10
0.0
 20
0.0
 30
0.0
  9
$EXTMAX
 10
595.0
 20
420.0
 30
0.0
  9
$LIMMIN
 10
0.0
 20
0.0
  9
$LIMMAX
 10
595.0
 20
420.0
  9
$ORTHOMODE
 70
     0
  9
$REGENMODE
 70
     1
  9
$FILLMODE
 70
     1
  9
$QTEXTMODE
 70
     0
  9
$MIRRTEXT
 70
     1
  9
$LTSCALE
 40
25.4
  9
$ATTMODE
 70
     1
  9
$TEXTSIZE
 40
3.5
  9
$TRACEWID
 40
0.05
  9
$TEXTSTYLE
  7
Standard
  9
$CLAYER
  8
0
  9
$CELTYPE
  6
Continuous
  9
$CECOLOR
 62
   256
  9
$CELTSCALE
 40
1.0
  9
$DISPSILH
 70
     0
  9
$DIMSCALE
 40
1.0
  9
$DIMASZ
 40
5.0
  9
$DIMEXO
 40
3.0
  9
$DIMDLI
 40
0.38
  9
$DIMRND
 40
0.0
  9
$DIMDLE
 40
0.0
  9
$DIMEXE
 40
2.0
  9
$DIMTP
 40
0.0
  9
$DIMTM
 40
0.0
  9
$DIMTXT
 40
3.5
  9
$DIMCEN
 40
4.0
  9
$DIMTSZ
 40
0.0
  9
$DIMTOL
 70
     0
  9
$DIMLIM
 70
     0
  9
$DIMTIH
 70
     1
  9
$DIMTOH
 70
     1
  9
$DIMSE1
 70
     0
  9
$DIMSE2
 70
     0
  9
$DIMTAD
 70
     0
  9
$DIMZIN
 70
     0
  9
$DIMBLK
  1

  9
$DIMASO
 70
     1
  9
$DIMSHO
 70
     1
  9
$DIMPOST
  1

  9
$DIMAPOST
  1

  9
$DIMALT
 70
     0
  9
$DIMALTD
 70
     2
  9
$DIMALTF
 40
25.4
  9
$DIMLFAC
 40
1.0
  9
$DIMTOFL
 70
     0
  9
$DIMTVP
 40
0.0
  9
$DIMTIX
 70
     0
  9
$DIMSOXD
 70
     0
  9
$DIMSAH
 70
     0
  9
$DIMBLK1
  1

  9
$DIMBLK2
  1

  9
$DIMSTYLE
  2
Standard
  9
$DIMCLRD
 70
     0
  9
$DIMCLRE
 70
     0
  9
$DIMCLRT
 70
     0
  9
$DIMTFAC
 40
1.0
  9
$DIMGAP
 40
1.0
  9
$DIMJUST
 70
     0
  9
$DIMSD1
 70
     0
  9
$DIMSD2
 70
     0
  9
$DIMTOLJ
 70
     1
  9
$DIMTZIN
 70
     0
  9
$DIMALTZ
 70
     0
  9
$DIMALTTZ
 70
     0
  9
$DIMUPT
 70
     0
  9
$DIMDEC
 70
     4
  9
$DIMTDEC
 70
     4
  9
$DIMALTU
 70
     2
  9
$DIMALTTD
 70
     2
  9
$DIMTXSTY
  7
Standard
  9
$DIMAUNIT
 70
     0
  9
$DIMADEC
 70
     0
  9
$DIMALTRND
 40
0.0
  9
$DIMAZIN
 70
     0
  9
$DIMDSEP
 70
     0
  9
$DIMATFIT
 70
     3
  9
$DIMFRAC
 70
     0
  9
$DIMLDRBLK
  1

  9
$DIMLUNIT
 70
     2
  9
$DIMLWD
 70
     0
  9
$DIMLWE
 70
     0
  9
$DIMTMOVE
 70
     0
  9
$LUNITS
 70
     2
  9
$LUPREC
 70
     4
  9
$SKETCHINC
 40
0.1
  9
$FILLETRAD
 40
0.0
  9
$AUNITS
 70
     0
  9
$AUPREC
 70
     0
  9
$MENU
  1
acad
  9
$ELEVATION
 40
0.0
  9
$PELEVATION
 40
0.0
  9
$THICKNESS
 40
0.0
  9
$LIMCHECK
 70
     0
  9
$CHAMFERA
 40
0.0
  9
$CHAMFERB
 40
0.0
  9
$CHAMFERC
 40
0.0
  9
$CHAMFERD
 40
0.0
  9
$SKPOLY
 70
     0
  9
$TDCREATE
 40
0.000000000
  9
$TDUCREATE
 40
0.000000000
  9
$TDUPDATE
 40
0.000000000
  9
$TDUUPDATE
 40
0.000000000
  9
$TDINDWG
 40
0.0000000000
  9
$TDUSRTIMER
 40
0.0000000000
  9
$USRTIMER
 70
     1
  9
$ANGBASE
 50
0.0
  9
$ANGDIR
 70
     0
  9
$PDMODE
 70
     0
  9
$PDSIZE
 40
0.0
  9
$PLINEWID
 40
0.0
  9
$SPLFRAME
 70
     0
  9
$SPLINETYPE
 70
     6
  9
$SPLINESEGS
 70
     8
  9
$HANDSEED
  5
8D6
  9
$SURFTAB1
 70
     6
  9
$SURFTAB2
 70
     6
  9
$SURFTYPE
 70
     6
  9
$SURFU
 70
     6
  9
$SURFV
 70
     6
  9
$UCSBASE
  2

  9
$UCSNAME
  2

  9
$UCSORG
 10
0.0
 20
0.0
 30
0.0
  9
$UCSXDIR
 10
1.0
 20
0.0
 30
0.0
  9
$UCSYDIR
 10
0.0
 20
1.0
 30
0.0
  9
$UCSORTHOREF
  2

  9
$UCSORTHOVIEW
 70
     0
  9
$UCSORGTOP
 10
0.0
 20
0.0
 30
0.0
  9
$UCSORGBOTTOM
 10
0.0
 20
0.0
 30
0.0
  9
$UCSORGLEFT
 10
0.0
 20
0.0
 30
0.0
  9
$UCSORGRIGHT
 10
0.0
 20
0.0
 30
0.0
  9
$UCSORGFRONT
 10
0.0
 20
0.0
 30
0.0
  9
$UCSORGBACK
 10
0.0
 20
0.0
 30
0.0
  9
$PUCSBASE
  2

  9
$PUCSNAME
  2

  9
$PUCSORG
 10
0.0
 20
0.0
 30
0.0
  9
$PUCSXDIR
 10
1.0
 20
0.0
 30
0.0
  9
$PUCSYDIR
 10
0.0
 20
1.0
 30
0.0
  9
$PUCSORTHOREF
  2

  9
$PUCSORTHOVIEW
 70
     0
  9
$PUCSORGTOP
 10
0.0
 20
0.0
 30
0.0
  9
$PUCSORGBOTTOM
 10
0.0
 20
0.0
 30
0.0
  9
$PUCSORGLEFT
 10
0.0
 20
0.0
 30
0.0
  9
$PUCSORGRIGHT
 10
0.0
 20
0.0
 30
0.0
  9
$PUCSORGFRONT
 10
0.0
 20
0.0
 30
0.0
  9
$PUCSORGBACK
 10
0.0
 20
0.0
 30
0.0
  9
$USERI1
 70
     0
  9
$USERI2
 70
     0
  9
$USERI3
 70
     0
  9
$USERI4
 70
     0
  9
$USERI5
 70
     0
  9
$USERR1
 40
0.0
  9
$USERR2
 40
0.0
  9
$USERR3
 40
0.0
  9
$USERR4
 40
0.0
  9
$USERR5
 40
0.0
  9
$WORLDVIEW
 70
     1
  9
$SHADEDGE
 70
     3
  9
$SHADEDIF
 70
    70
  9
$TILEMODE
 70
     1
  9
$MAXACTVP
 70
    16
  9
$PINSBASE
 10
0.0
 20
0.0
 30
0.0
  9
$PLIMCHECK
 70
     0
  9
$PEXTMIN
 10
1.000000E+20
 20
1.000000E+20
 30
1.000000E+20
  9
$PEXTMAX
 10
-1.000000E+20
 20
-1.000000E+20
 30
-1.000000E+20
  9
$PLIMMIN
 10
0.0
 20
0.0
  9
$PLIMMAX
 10
595.0
 20
420.0
  9
$UNITMODE
 70
     0
  9
$VISRETAIN
 70
     0
  9
$PLINEGEN
 70
     1
  9
$PSLTSCALE
 70
     0
  9
$TREEDEPTH
 70
  3020
  9
$CMLSTYLE
  2
Standard
  9
$CMLJUST
 70
     0
  9
$CMLSCALE
 40
1.0
  9
$PROXYGRAPHICS
 70
     0
  9
$MEASUREMENT
 70
     0
  9
$CELWEIGHT
370
     0
  9
$ENDCAPS
280
     0
  9
$JOINSTYLE
280
     0
  9
$LWDISPLAY
290
     0
  9
$INSUNITS
 70
     0
  9
$HYPERLINKBASE
  1

  9
$XEDIT
290
     1
  9
$CEPSNTYPE
380
     0
  9
$PSTYLEMODE
290
     0
  9
$FINGERPRINTGUID
  2

  9
$VERSIONGUID
  2

  9
$EXTNAMES
290
     1
  9
$PSVPSCALE
 40
0.0
  0
ENDSEC
  0
SECTION
  2
CLASSES
  0
CLASS
  1
LWPOLYLINE
  2
AcDbPolyline
  3
"AutoCAD"
 90
        0
280
     0
281
     1
  0
CLASS
  1
IMAGE
  2
AcDbRasterImage
  3
ISM
 90
      127
280
     0
281
     1
  0
CLASS
  1
OLE2FRAME
  2
AcDbOle2Frame
  3
""
 90
        0
280
     0
281
     1
  0
CLASS
  1
HATCH
  2
AcDbHatch
  3
"ACAD_SEDONA"
 90
        0
280
     0
281
     1
  0
CLASS
  1
DICTIONARYVAR
  2
AcDbDictionaryVar
  3
"AutoCAD"
 90
        0
280
     0
281
     0
  0
CLASS
  1
RASTERVARIABLES
  2
AcDbRasterVariables
  3
ISM
 90
        0
280
     0
281
     0
  0
CLASS
  1
IMAGEDEF
  2
AcDbRasterImageDef
  3
ISM
 90
        0
280
     0
281
     0
  0
CLASS
  1
IMAGEDEF_REACTOR
  2
AcDbRasterImageDefReactor
  3
ISM
 90
        1
280
     0
281
     0
  0
CLASS
  1
IDBUFFER
  2
AcDbIdBuffer
  3
"Acad"
 90
        0
280
     0
281
     0
  0
CLASS
  1
SPATIAL_FILTER
  2
AcDbSpatialFilter
  3
"Acad"
 90
        0
280
     0
281
     0
  0
CLASS
  1
XRECORD
  2
AcDbXrecord
  3
"<Built In>"
 90
        0
280
     0
281
     0
  0
CLASS
  1
SORTENTSTABLE
  2
AcDbSortentsTable
  3
"AutoCAD"
 90
        0
280
     0
281
     0
  0
CLASS
  1
LAYER_INDEX
  2
AcDbLayerIndex
  3
"Acad"
 90
        0
280
     0
281
     0
  0
CLASS
  1
SPATIAL_INDEX
  2
AcDbSpatialIndex
  3
"Acad"
 90
        0
280
     0
281
     0
  0
CLASS
  1
OBJECT_PTR
  2
CAseDLPNTableRecord
  3
"ASE-LPNTableRecord"
 90
        1
280
     0
281
     0
  0
CLASS
  1
LAYOUT
  2
AcDbLayout
  3
"AutoCAD 2000"
 90
        1
280
     0
281
     0
  0
CLASS
  1
PLOTSETTINGS
  2
AcDbPlotSettings
  3
"AutoCAD 2000"
 90
        1
280
     0
281
     0
  0
CLASS
  1
ACDBDICTIONARYWDFLT
  2
AcDbDictionaryWithDefault
  3
"AutoCAD 2000"
 90
        1
280
     0
281
     0
  0
CLASS
  1
ACDBPLACEHOLDER
  2
AcDbPlaceHolder
  3
"AutoCAD 2000"
 90
        1
280
     0
281
     0
  0
CLASS
  1
VBA_PROJECT
  2
AcDbVbaProject
  3
"acadvba"
 90
        1
280
     0
281
     0
  0
CLASS
  1
WIPEOUT
  2
AcDbWipeout
  3
WipeOut|AutoCAD Express Tool|expresstools@autodesk.com
 90
      127
280
     0
281
     1
  0
CLASS
  1
WIPEOUTVARIABLES
  2
AcDbWipeoutVariables
  3
WipeOut|AutoCAD Express Tool|expresstools@autodesk.com
 90
        0
280
     0
281
     0
  0
CLASS
  1
RTEXT
  2
RText
  3
RText|AutoCAD Express Tool|expresstools@autodesk.com
 90
        0
280
     0
281
     1
  0
CLASS
  1
ARCALIGNEDTEXT
  2
AcDbArcAlignedText
  3
ATEXT|AutoCAD Express Tool|expresstools@autodesk.com
 90
        0
280
     0
281
     1
  0
ENDSEC
  0
SECTION
  2
TABLES
  0
TABLE
  2
VPORT
  5
7
100
AcDbSymbolTable
 70
     1
  0
VPORT
  5
15
100
AcDbSymbolTableRecord
100
AcDbViewportTableRecord
  2
*ACTIVE
 70
     0
 10
0.0
 20
0.0
 11
1.0
 21
1.0
 12
6.591288
 22
4.579184
 13
0.0
 23
0.0
 14
1.0
 24
1.0
 15
0.0
 25
0.0
 16
0.0
 26
0.0
 36
1.0
 17
0.0
 27
0.0
 37
0.0
 40
9.158369
 41
0.688564
 42
50.0
 43
0.0
 44
0.0
 50
0.0
 51
0.0
 71
     0
 72
   100
 73
     1
 74
     1
 75
     0
 76
     0
 77
     0
 78
     0
281
     0
 65
     0
110
0.0
120
0.0
130
0.0
111
1.0
121
0.0
131
0.0
112
0.0
122
1.0
132
0.0
345
0
346
0
 79
     0
146
0.0
  0
ENDTAB
  0
TABLE
  2
LTYPE
  5
4
100
AcDbSymbolTable
 70
     7
  0
LTYPE
  5
11
100
AcDbSymbolTableRecord
100
AcDbLinetypeTableRecord
  2
ByBlock
 70
    64
  3

 72
    65
 73
     0
 40
0.0
  0
LTYPE
  5
12
100
AcDbSymbolTableRecord
100
AcDbLinetypeTableRecord
  2
ByLayer
 70
    64
  3

 72
    65
 73
     0
 40
0.0
  0
LTYPE
  5
13
100
AcDbSymbolTableRecord
100
AcDbLinetypeTableRecord
  2
Continuous
 70
    64
  3
Solid line
 72
    65
 73
     0
 40
0.0
  0
LTYPE
  5
24
100
AcDbSymbolTableRecord
100
AcDbLinetypeTableRecord
  2
HIDDEN
 70
    64
  3
_ _ _ _ _ _ _ _ _ _ _ _ _ _ _ _ _ _ _ _ _ _ _ _
 72
    65
 73
     2
 40
0.1875
 49
0.125
 74
     0
 49
-0.0625
 74
     0
  0
LTYPE
  5
25
100
AcDbSymbolTableRecord
100
AcDbLinetypeTableRecord
  2
DOTTED
 70
    64
  3
...............................................
 72
    65
 73
     2
 40
0.125
 49
0.0
 74
     0
 49
-0.125
 74
     0
  0
LTYPE
  5
26
100
AcDbSymbolTableRecord
100
AcDbLinetypeTableRecord
  2
CENTER
 70
    64
  3
____ _ ____ _ ____ _ ____ _ ____ _ ____ _ ____ 
 72
    65
 73
     4
 40
1.125
 49
0.75
 74
     0
 49
-0.125
 74
     0
 49
0.125
 74
     0
 49
-0.125
 74
     0
  0
LTYPE
  5
27
100
AcDbSymbolTableRecord
100
AcDbLinetypeTableRecord
  2
PHANTOM
 70
    64
  3
______  __  __  ______  __  __  ______  __  __ 
 72
    65
 73
     6
 40
1.25
 49
0.625
 74
     0
 49
-0.125
 74
     0
 49
0.125
 74
     0
 49
-0.125
 74
     0
 49
0.125
 74
     0
 49
-0.125
 74
     0
  0
ENDTAB
  0
TABLE
  2
LAYER
  5
2
100
AcDbSymbolTable
 70
     2
  0
LAYER
  5
14
100
AcDbSymbolTableRecord
100
AcDbLayerTableRecord
  2
0
 70
     0
 62
     7
  6
Continuous
290
     1
370
    -3
390
1D
  0
LAYER
  5
28
100
AcDbSymbolTableRecord
100
AcDbLayerTableRecord
  2
TEXT
 70
     0
 62
     8
  6
Continuous
290
     1
370
    -3
390
1F
  0
ENDTAB
  0
TABLE
  2
STYLE
  5
3
100
AcDbSymbolTable
 70
     1
  0
STYLE
  5
17
100
AcDbSymbolTableRecord
100
AcDbTextStyleTableRecord
  2
Standard
 70
     0
 40
0.0
 41
1.0
 50
0.0
 71
     0
 42
0.0
  3
txt
  4

  0
ENDTAB
  0
TABLE
  2
VIEW
  5
5
100
AcDbSymbolTable
 70
     0
  0
ENDTAB
  0
TABLE
  2
UCS
  5
6
100
AcDbSymbolTable
 70
     0
  0
ENDTAB
  0
TABLE
  2
APPID
  5
8
100
AcDbSymbolTable
 70
     1
  0
APPID
  5
16
100
AcDbSymbolTableRecord
100
AcDbRegAppTableRecord
  2
ACAD
 70
     0
  0
ENDTAB
  0
TABLE
  2
DIMSTYLE
  5
9
100
AcDbSymbolTable
 70
     1
100
AcDbDimStyleTable
 71
     0
  0
DIMSTYLE
105
18
100
AcDbSymbolTableRecord
100
AcDbDimStyleTableRecord
  2
Standard
 70
     0
  3

  4

 40
1.0
 41
0.18
 42
0.0625
 43
0.38
 44
0.18
 45
0.0
 46
0.0
 47
0.0
 48
0.0
 71
     0
 72
     0
 73
     1
 74
     1
 75
     0
 76
     0
 77
     0
 78
     0
 79
     0
140
0.18
141
0.09
142
0.0
143
25.4
144
1.0
145
0.0
146
1.0
147
0.09
148
0.0
170
     0
171
     2
172
     0
173
     0
174
     0
175
     0
176
     0
177
     0
178
     0
179
     0
271
     4
272
     4
273
     2
274
     2
275
     0
276
     0
277
     2
278
    46
279
     0
280
     0
281
     0
282
     0
283
     1
284
     0
285
     0
286
     0
288
     0
340
17
341
0
342
0
343
0
344
0
371
    -2
372
    -2
  0
ENDTAB
  0
TABLE
  2
BLOCK_RECORD
  5
1
100
AcDbSymbolTable
 70
   247
  0
BLOCK_RECORD
  5
A
100
AcDbSymbolTableRecord
100
AcDbBlockTableRecord
  2
*MODEL_SPACE
340
20
  0
BLOCK_RECORD
  5
B
100
AcDbSymbolTableRecord
100
AcDbBlockTableRecord
  2
*PAPER_SPACE
340
21
  0
BLOCK_RECORD
  5
29
100
AcDbSymbolTableRecord
100
AcDbBlockTableRecord
  2
*B0
340
0
  0
BLOCK_RECORD
  5
2C
100
AcDbSymbolTableRecord
100
AcDbBlockTableRecord
  2
*B1
340
0
  0
BLOCK_RECORD
  5
2F
100
AcDbSymbolTableRecord
100
AcDbBlockTableRecord
  2
*B2
340
0
  0
BLOCK_RECORD
  5
157
100
AcDbSymbolTableRecord
100
AcDbBlockTableRecord
  2
*B3
340
0
  0
BLOCK_RECORD
  5
1AF
100
AcDbSymbolTableRecord
100
AcDbBlockTableRecord
  2
*B4
340
0
  0
BLOCK_RECORD
  5
1C7
100
AcDbSymbolTableRecord
100
AcDbBlockTableRecord
  2
*B5
340
0
  0
BLOCK_RECORD
  5
1CE
100
AcDbSymbolTableRecord
100
AcDbBlockTableRecord
  2
*B6
340
0
  0
BLOCK_RECORD
  5
1D5
100
AcDbSymbolTableRecord
100
AcDbBlockTableRecord
  2
*B7
340
0
  0
BLOCK_RECORD
  5
1DC
100
AcDbSymbolTableRecord
100
AcDbBlockTableRecord
  2
*B8
340
0
  0
BLOCK_RECORD
  5
1E3
100
AcDbSymbolTableRecord
100
AcDbBlockTableRecord
  2
*B9
340
0
  0
BLOCK_RECORD
  5
1EA
100
AcDbSymbolTableRecord
100
AcDbBlockTableRecord
  2
*B10
340
0
  0
BLOCK_RECORD
  5
1F1
100
AcDbSymbolTableRecord
100
AcDbBlockTableRecord
  2
*B11
340
0
  0
BLOCK_RECORD
  5
1F8
100
AcDbSymbolTableRecord
100
AcDbBlockTableRecord
  2
*B12
340
0
  0
BLOCK_RECORD
  5
1FF
100
AcDbSymbolTableRecord
100
AcDbBlockTableRecord
  2
*B13
340
0
  0
BLOCK_RECORD
  5
206
100
AcDbSymbolTableRecord
100
AcDbBlockTableRecord
  2
*B14
340
0
  0
BLOCK_RECORD
  5
20D
100
AcDbSymbolTableRecord
100
AcDbBlockTableRecord
  2
*B15
340
0
  0
BLOCK_RECORD
  5
214
100
AcDbSymbolTableRecord
100
AcDbBlockTableRecord
  2
*B16
340
0
  0
BLOCK_RECORD
  5
21B
100
AcDbSymbolTableRecord
100
AcDbBlockTableRecord
  2
*B17
340
0
  0
BLOCK_RECORD
  5
222
100
AcDbSymbolTableRecord
100
AcDbBlockTableRecord
  2
*B18
340
0
  0
BLOCK_RECORD
  5
229
100
AcDbSymbolTableRecord
100
AcDbBlockTableRecord
  2
*B19
340
0
  0
BLOCK_RECORD
  5
230
100
AcDbSymbolTableRecord
100
AcDbBlockTableRecord
  2
*B20
340
0
  0
BLOCK_RECORD
  5
237
100
AcDbSymbolTableRecord
100
AcDbBlockTableRecord
  2
*B21
340
0
  0
BLOCK_RECORD
  5
23E
100
AcDbSymbolTableRecord
100
AcDbBlockTableRecord
  2
*B22
340
0
  0
BLOCK_RECORD
  5
245
100
AcDbSymbolTableRecord
100
AcDbBlockTableRecord
  2
*B23
340
0
  0
BLOCK_RECORD
  5
24C
100
AcDbSymbolTableRecord
100
AcDbBlockTableRecord
  2
*B24
340
0
  0
BLOCK_RECORD
  5
253
100
AcDbSymbolTableRecord
100
AcDbBlockTableRecord
  2
*B25
340
0
  0
BLOCK_RECORD
  5
25A
100
AcDbSymbolTableRecord
100
AcDbBlockTableRecord
  2
*B26
340
0
  0
BLOCK_RECORD
  5
261
100
AcDbSymbolTableRecord
100
AcDbBlockTableRecord
  2
*B27
340
0
  0
BLOCK_RECORD
  5
268
100
AcDbSymbolTableRecord
100
AcDbBlockTableRecord
  2
*B28
340
0
  0
BLOCK_RECORD
  5
26F
100
AcDbSymbolTableRecord
100
AcDbBlockTableRecord
  2
*B29
340
0
  0
BLOCK_RECORD
  5
276
100
AcDbSymbolTableRecord
100
AcDbBlockTableRecord
  2
*B30
340
0
  0
BLOCK_RECORD
  5
27D
100
AcDbSymbolTableRecord
100
AcDbBlockTableRecord
  2
*B31
340
0
  0
BLOCK_RECORD
  5
284
100
AcDbSymbolTableRecord
100
AcDbBlockTableRecord
  2
*B32
340
0
  0
BLOCK_RECORD
  5
28B
100
AcDbSymbolTableRecord
100
AcDbBlockTableRecord
  2
*B33
340
0
  0
BLOCK_RECORD
  5
292
100
AcDbSymbolTableRecord
100
AcDbBlockTableRecord
  2
*B34
340
0
  0
BLOCK_RECORD
  5
299
100
AcDbSymbolTableRecord
100
AcDbBlockTableRecord
  2
*B35
340
0
  0
BLOCK_RECORD
  5
2A0
100
AcDbSymbolTableRecord
100
AcDbBlockTableRecord
  2
*B36
340
0
  0
BLOCK_RECORD
  5
2A7
100
AcDbSymbolTableRecord
100
AcDbBlockTableRecord
  2
*B37
340
0
  0
BLOCK_RECORD
  5
2AE
100
AcDbSymbolTableRecord
100
AcDbBlockTableRecord
  2
*B38
340
0
  0
BLOCK_RECORD
  5
2B4
100
AcDbSymbolTableRecord
100
AcDbBlockTableRecord
  2
*B39
340
0
  0
BLOCK_RECORD
  5
2C1
100
AcDbSymbolTableRecord
100
AcDbBlockTableRecord
  2
*B40
340
0
  0
BLOCK_RECORD
  5
2C7
100
AcDbSymbolTableRecord
100
AcDbBlockTableRecord
  2
*B41
340
0
  0
BLOCK_RECORD
  5
2CD
100
AcDbSymbolTableRecord
100
AcDbBlockTableRecord
  2
*B42
340
0
  0
BLOCK_RECORD
  5
2D3
100
AcDbSymbolTableRecord
100
AcDbBlockTableRecord
  2
*B43
340
0
  0
BLOCK_RECORD
  5
2D9
100
AcDbSymbolTableRecord
100
AcDbBlockTableRecord
  2
*B44
340
0
  0
BLOCK_RECORD
  5
2EA
100
AcDbSymbolTableRecord
100
AcDbBlockTableRecord
  2
*B45
340
0
  0
BLOCK_RECORD
  5
2EF
100
AcDbSymbolTableRecord
100
AcDbBlockTableRecord
  2
*B46
340
0
  0
BLOCK_RECORD
  5
2F4
100
AcDbSymbolTableRecord
100
AcDbBlockTableRecord
  2
*B47
340
0
  0
BLOCK_RECORD
  5
2F9
100
AcDbSymbolTableRecord
100
AcDbBlockTableRecord
  2
*B48
340
0
  0
BLOCK_RECORD
  5
2FE
100
AcDbSymbolTableRecord
100
AcDbBlockTableRecord
  2
*B49
340
0
  0
BLOCK_RECORD
  5
304
100
AcDbSymbolTableRecord
100
AcDbBlockTableRecord
  2
*B50
340
0
  0
BLOCK_RECORD
  5
30A
100
AcDbSymbolTableRecord
100
AcDbBlockTableRecord
  2
*B51
340
0
  0
BLOCK_RECORD
  5
30F
100
AcDbSymbolTableRecord
100
AcDbBlockTableRecord
  2
*B52
340
0
  0
BLOCK_RECORD
  5
318
100
AcDbSymbolTableRecord
100
AcDbBlockTableRecord
  2
*B53
340
0
  0
BLOCK_RECORD
  5
31E
100
AcDbSymbolTableRecord
100
AcDbBlockTableRecord
  2
*B54
340
0
  0
BLOCK_RECORD
  5
324
100
AcDbSymbolTableRecord
100
AcDbBlockTableRecord
  2
*B55
340
0
  0
BLOCK_RECORD
  5
32A
100
AcDbSymbolTableRecord
100
AcDbBlockTableRecord
  2
*B56
340
0
  0
BLOCK_RECORD
  5
330
100
AcDbSymbolTableRecord
100
AcDbBlockTableRecord
  2
*B57
340
0
  0
BLOCK_RECORD
  5
336
100
AcDbSymbolTableRecord
100
AcDbBlockTableRecord
  2
*B58
340
0
  0
BLOCK_RECORD
  5
33C
100
AcDbSymbolTableRecord
100
AcDbBlockTableRecord
  2
*B59
340
0
  0
BLOCK_RECORD
  5
345
100
AcDbSymbolTableRecord
100
AcDbBlockTableRecord
  2
*B60
340
0
  0
BLOCK_RECORD
  5
34C
100
AcDbSymbolTableRecord
100
AcDbBlockTableRecord
  2
*B61
340
0
  0
BLOCK_RECORD
  5
352
100
AcDbSymbolTableRecord
100
AcDbBlockTableRecord
  2
*B62
340
0
  0
BLOCK_RECORD
  5
358
100
AcDbSymbolTableRecord
100
AcDbBlockTableRecord
  2
*B63
340
0
  0
BLOCK_RECORD
  5
35E
100
AcDbSymbolTableRecord
100
AcDbBlockTableRecord
  2
*B64
340
0
  0
BLOCK_RECORD
  5
364
100
AcDbSymbolTableRecord
100
AcDbBlockTableRecord
  2
*B65
340
0
  0
BLOCK_RECORD
  5
36A
100
AcDbSymbolTableRecord
100
AcDbBlockTableRecord
  2
*B66
340
0
  0
BLOCK_RECORD
  5
370
100
AcDbSymbolTableRecord
100
AcDbBlockTableRecord
  2
*B67
340
0
  0
BLOCK_RECORD
  5
376
100
AcDbSymbolTableRecord
100
AcDbBlockTableRecord
  2
*B68
340
0
  0
BLOCK_RECORD
  5
383
100
AcDbSymbolTableRecord
100
AcDbBlockTableRecord
  2
*B69
340
0
  0
BLOCK_RECORD
  5
394
100
AcDbSymbolTableRecord
100
AcDbBlockTableRecord
  2
*B70
340
0
  0
BLOCK_RECORD
  5
39A
100
AcDbSymbolTableRecord
100
AcDbBlockTableRecord
  2
*B71
340
0
  0
BLOCK_RECORD
  5
3A0
100
AcDbSymbolTableRecord
100
AcDbBlockTableRecord
  2
*B72
340
0
  0
BLOCK_RECORD
  5
3A6
100
AcDbSymbolTableRecord
100
AcDbBlockTableRecord
  2
*B73
340
0
  0
BLOCK_RECORD
  5
3AB
100
AcDbSymbolTableRecord
100
AcDbBlockTableRecord
  2
*B74
340
0
  0
BLOCK_RECORD
  5
3B1
100
AcDbSymbolTableRecord
100
AcDbBlockTableRecord
  2
*B75
340
0
  0
BLOCK_RECORD
  5
3BA
100
AcDbSymbolTableRecord
100
AcDbBlockTableRecord
  2
*B76
340
0
  0
BLOCK_RECORD
  5
3CB
100
AcDbSymbolTableRecord
100
AcDbBlockTableRecord
  2
*B77
340
0
  0
BLOCK_RECORD
  5
3D1
100
AcDbSymbolTableRecord
100
AcDbBlockTableRecord
  2
*B78
340
0
  0
BLOCK_RECORD
  5
3D7
100
AcDbSymbolTableRecord
100
AcDbBlockTableRecord
  2
*B79
340
0
  0
BLOCK_RECORD
  5
3DD
100
AcDbSymbolTableRecord
100
AcDbBlockTableRecord
  2
*B80
340
0
  0
BLOCK_RECORD
  5
3E3
100
AcDbSymbolTableRecord
100
AcDbBlockTableRecord
  2
*B81
340
0
  0
BLOCK_RECORD
  5
3F0
100
AcDbSymbolTableRecord
100
AcDbBlockTableRecord
  2
*B82
340
0
  0
BLOCK_RECORD
  5
3FB
100
AcDbSymbolTableRecord
100
AcDbBlockTableRecord
  2
*B83
340
0
  0
BLOCK_RECORD
  5
406
100
AcDbSymbolTableRecord
100
AcDbBlockTableRecord
  2
*B84
340
0
  0
BLOCK_RECORD
  5
40C
100
AcDbSymbolTableRecord
100
AcDbBlockTableRecord
  2
*B85
340
0
  0
BLOCK_RECORD
  5
41D
100
AcDbSymbolTableRecord
100
AcDbBlockTableRecord
  2
*B86
340
0
  0
BLOCK_RECORD
  5
42E
100
AcDbSymbolTableRecord
100
AcDbBlockTableRecord
  2
*B87
340
0
  0
BLOCK_RECORD
  5
434
100
AcDbSymbolTableRecord
100
AcDbBlockTableRecord
  2
*B88
340
0
  0
BLOCK_RECORD
  5
43A
100
AcDbSymbolTableRecord
100
AcDbBlockTableRecord
  2
*B89
340
0
  0
BLOCK_RECORD
  5
440
100
AcDbSymbolTableRecord
100
AcDbBlockTableRecord
  2
*B90
340
0
  0
BLOCK_RECORD
  5
446
100
AcDbSymbolTableRecord
100
AcDbBlockTableRecord
  2
*B91
340
0
  0
BLOCK_RECORD
  5
44F
100
AcDbSymbolTableRecord
100
AcDbBlockTableRecord
  2
*B92
340
0
  0
BLOCK_RECORD
  5
454
100
AcDbSymbolTableRecord
100
AcDbBlockTableRecord
  2
*B93
340
0
  0
BLOCK_RECORD
  5
45A
100
AcDbSymbolTableRecord
100
AcDbBlockTableRecord
  2
*B94
340
0
  0
BLOCK_RECORD
  5
460
100
AcDbSymbolTableRecord
100
AcDbBlockTableRecord
  2
*B95
340
0
  0
BLOCK_RECORD
  5
466
100
AcDbSymbolTableRecord
100
AcDbBlockTableRecord
  2
*B96
340
0
  0
BLOCK_RECORD
  5
473
100
AcDbSymbolTableRecord
100
AcDbBlockTableRecord
  2
*B97
340
0
  0
BLOCK_RECORD
  5
479
100
AcDbSymbolTableRecord
100
AcDbBlockTableRecord
  2
*B98
340
0
  0
BLOCK_RECORD
  5
47F
100
AcDbSymbolTableRecord
100
AcDbBlockTableRecord
  2
*B99
340
0
  0
BLOCK_RECORD
  5
485
100
AcDbSymbolTableRecord
100
AcDbBlockTableRecord
  2
*B100
340
0
  0
BLOCK_RECORD
  5
490
100
AcDbSymbolTableRecord
100
AcDbBlockTableRecord
  2
*B101
340
0
  0
BLOCK_RECORD
  5
49D
100
AcDbSymbolTableRecord
100
AcDbBlockTableRecord
  2
*B102
340
0
  0
BLOCK_RECORD
  5
4A3
100
AcDbSymbolTableRecord
100
AcDbBlockTableRecord
  2
*B103
340
0
  0
BLOCK_RECORD
  5
4A9
100
AcDbSymbolTableRecord
100
AcDbBlockTableRecord
  2
*B104
340
0
  0
BLOCK_RECORD
  5
4AF
100
AcDbSymbolTableRecord
100
AcDbBlockTableRecord
  2
*B105
340
0
  0
BLOCK_RECORD
  5
4B5
100
AcDbSymbolTableRecord
100
AcDbBlockTableRecord
  2
*B106
340
0
  0
BLOCK_RECORD
  5
4BA
100
AcDbSymbolTableRecord
100
AcDbBlockTableRecord
  2
*B107
340
0
  0
BLOCK_RECORD
  5
4C0
100
AcDbSymbolTableRecord
100
AcDbBlockTableRecord
  2
*B108
340
0
  0
BLOCK_RECORD
  5
4C6
100
AcDbSymbolTableRecord
100
AcDbBlockTableRecord
  2
*B109
340
0
  0
BLOCK_RECORD
  5
4CF
100
AcDbSymbolTableRecord
100
AcDbBlockTableRecord
  2
*B110
340
0
  0
BLOCK_RECORD
  5
4D4
100
AcDbSymbolTableRecord
100
AcDbBlockTableRecord
  2
*B111
340
0
  0
BLOCK_RECORD
  5
4DA
100
AcDbSymbolTableRecord
100
AcDbBlockTableRecord
  2
*B112
340
0
  0
BLOCK_RECORD
  5
4E0
100
AcDbSymbolTableRecord
100
AcDbBlockTableRecord
  2
*B113
340
0
  0
BLOCK_RECORD
  5
501
100
AcDbSymbolTableRecord
100
AcDbBlockTableRecord
  2
*B114
340
0
  0
BLOCK_RECORD
  5
507
100
AcDbSymbolTableRecord
100
AcDbBlockTableRecord
  2
*B115
340
0
  0
BLOCK_RECORD
  5
533
100
AcDbSymbolTableRecord
100
AcDbBlockTableRecord
  2
*B116
340
0
  0
BLOCK_RECORD
  5
540
100
AcDbSymbolTableRecord
100
AcDbBlockTableRecord
  2
*B117
340
0
  0
BLOCK_RECORD
  5
563
100
AcDbSymbolTableRecord
100
AcDbBlockTableRecord
  2
*B118
340
0
  0
BLOCK_RECORD
  5
569
100
AcDbSymbolTableRecord
100
AcDbBlockTableRecord
  2
*B119
340
0
  0
BLOCK_RECORD
  5
572
100
AcDbSymbolTableRecord
100
AcDbBlockTableRecord
  2
*B120
340
0
  0
BLOCK_RECORD
  5
578
100
AcDbSymbolTableRecord
100
AcDbBlockTableRecord
  2
*B121
340
0
  0
BLOCK_RECORD
  5
57E
100
AcDbSymbolTableRecord
100
AcDbBlockTableRecord
  2
*B122
340
0
  0
BLOCK_RECORD
  5
593
100
AcDbSymbolTableRecord
100
AcDbBlockTableRecord
  2
*B123
340
0
  0
BLOCK_RECORD
  5
598
100
AcDbSymbolTableRecord
100
AcDbBlockTableRecord
  2
*B124
340
0
  0
BLOCK_RECORD
  5
5A5
100
AcDbSymbolTableRecord
100
AcDbBlockTableRecord
  2
*B125
340
0
  0
BLOCK_RECORD
  5
5AB
100
AcDbSymbolTableRecord
100
AcDbBlockTableRecord
  2
*B126
340
0
  0
BLOCK_RECORD
  5
5B0
100
AcDbSymbolTableRecord
100
AcDbBlockTableRecord
  2
*B127
340
0
  0
BLOCK_RECORD
  5
5B5
100
AcDbSymbolTableRecord
100
AcDbBlockTableRecord
  2
*B128
340
0
  0
BLOCK_RECORD
  5
5BE
100
AcDbSymbolTableRecord
100
AcDbBlockTableRecord
  2
*B129
340
0
  0
BLOCK_RECORD
  5
5CD
100
AcDbSymbolTableRecord
100
AcDbBlockTableRecord
  2
*B130
340
0
  0
BLOCK_RECORD
  5
5D3
100
AcDbSymbolTableRecord
100
AcDbBlockTableRecord
  2
*B131
340
0
  0
BLOCK_RECORD
  5
5D9
100
AcDbSymbolTableRecord
100
AcDbBlockTableRecord
  2
*B132
340
0
  0
BLOCK_RECORD
  5
5E6
100
AcDbSymbolTableRecord
100
AcDbBlockTableRecord
  2
*B133
340
0
  0
BLOCK_RECORD
  5
602
100
AcDbSymbolTableRecord
100
AcDbBlockTableRecord
  2
*B134
340
0
  0
BLOCK_RECORD
  5
62E
100
AcDbSymbolTableRecord
100
AcDbBlockTableRecord
  2
*B135
340
0
  0
BLOCK_RECORD
  5
637
100
AcDbSymbolTableRecord
100
AcDbBlockTableRecord
  2
*B136
340
0
  0
BLOCK_RECORD
  5
63D
100
AcDbSymbolTableRecord
100
AcDbBlockTableRecord
  2
*B137
340
0
  0
BLOCK_RECORD
  5
643
100
AcDbSymbolTableRecord
100
AcDbBlockTableRecord
  2
*B138
340
0
  0
BLOCK_RECORD
  5
649
100
AcDbSymbolTableRecord
100
AcDbBlockTableRecord
  2
*B139
340
0
  0
BLOCK_RECORD
  5
670
100
AcDbSymbolTableRecord
100
AcDbBlockTableRecord
  2
*B140
340
0
  0
BLOCK_RECORD
  5
68C
100
AcDbSymbolTableRecord
100
AcDbBlockTableRecord
  2
*B141
340
0
  0
BLOCK_RECORD
  5
691
100
AcDbSymbolTableRecord
100
AcDbBlockTableRecord
  2
*B142
340
0
  0
BLOCK_RECORD
  5
697
100
AcDbSymbolTableRecord
100
AcDbBlockTableRecord
  2
*B143
340
0
  0
BLOCK_RECORD
  5
69D
100
AcDbSymbolTableRecord
100
AcDbBlockTableRecord
  2
*B144
340
0
  0
BLOCK_RECORD
  5
6A3
100
AcDbSymbolTableRecord
100
AcDbBlockTableRecord
  2
*B145
340
0
  0
BLOCK_RECORD
  5
6A9
100
AcDbSymbolTableRecord
100
AcDbBlockTableRecord
  2
*B146
340
0
  0
BLOCK_RECORD
  5
6AF
100
AcDbSymbolTableRecord
100
AcDbBlockTableRecord
  2
*B147
340
0
  0
BLOCK_RECORD
  5
6B5
100
AcDbSymbolTableRecord
100
AcDbBlockTableRecord
  2
*B148
340
0
  0
BLOCK_RECORD
  5
6BB
100
AcDbSymbolTableRecord
100
AcDbBlockTableRecord
  2
*B149
340
0
  0
BLOCK_RECORD
  5
6C1
100
AcDbSymbolTableRecord
100
AcDbBlockTableRecord
  2
*B150
340
0
  0
BLOCK_RECORD
  5
6C7
100
AcDbSymbolTableRecord
100
AcDbBlockTableRecord
  2
*B151
340
0
  0
BLOCK_RECORD
  5
6CD
100
AcDbSymbolTableRecord
100
AcDbBlockTableRecord
  2
*B152
340
0
  0
BLOCK_RECORD
  5
6D3
100
AcDbSymbolTableRecord
100
AcDbBlockTableRecord
  2
*B153
340
0
  0
BLOCK_RECORD
  5
6D9
100
AcDbSymbolTableRecord
100
AcDbBlockTableRecord
  2
*B154
340
0
  0
BLOCK_RECORD
  5
6DF
100
AcDbSymbolTableRecord
100
AcDbBlockTableRecord
  2
*B155
340
0
  0
BLOCK_RECORD
  5
6E5
100
AcDbSymbolTableRecord
100
AcDbBlockTableRecord
  2
*B156
340
0
  0
BLOCK_RECORD
  5
6EB
100
AcDbSymbolTableRecord
100
AcDbBlockTableRecord
  2
*B157
340
0
  0
BLOCK_RECORD
  5
6F1
100
AcDbSymbolTableRecord
100
AcDbBlockTableRecord
  2
*B158
340
0
  0
BLOCK_RECORD
  5
6F7
100
AcDbSymbolTableRecord
100
AcDbBlockTableRecord
  2
*B159
340
0
  0
BLOCK_RECORD
  5
6FD
100
AcDbSymbolTableRecord
100
AcDbBlockTableRecord
  2
*B160
340
0
  0
BLOCK_RECORD
  5
703
100
AcDbSymbolTableRecord
100
AcDbBlockTableRecord
  2
*B161
340
0
  0
BLOCK_RECORD
  5
709
100
AcDbSymbolTableRecord
100
AcDbBlockTableRecord
  2
*B162
340
0
  0
BLOCK_RECORD
  5
70F
100
AcDbSymbolTableRecord
100
AcDbBlockTableRecord
  2
*B163
340
0
  0
BLOCK_RECORD
  5
715
100
AcDbSymbolTableRecord
100
AcDbBlockTableRecord
  2
*B164
340
0
  0
BLOCK_RECORD
  5
71B
100
AcDbSymbolTableRecord
100
AcDbBlockTableRecord
  2
*B165
340
0
  0
BLOCK_RECORD
  5
721
100
AcDbSymbolTableRecord
100
AcDbBlockTableRecord
  2
*B166
340
0
  0
BLOCK_RECORD
  5
727
100
AcDbSymbolTableRecord
100
AcDbBlockTableRecord
  2
*B167
340
0
  0
BLOCK_RECORD
  5
72D
100
AcDbSymbolTableRecord
100
AcDbBlockTableRecord
  2
*B168
340
0
  0
BLOCK_RECORD
  5
733
100
AcDbSymbolTableRecord
100
AcDbBlockTableRecord
  2
*B169
340
0
  0
BLOCK_RECORD
  5
739
100
AcDbSymbolTableRecord
100
AcDbBlockTableRecord
  2
*B170
340
0
  0
BLOCK_RECORD
  5
73F
100
AcDbSymbolTableRecord
100
AcDbBlockTableRecord
  2
*B171
340
0
  0
BLOCK_RECORD
  5
745
100
AcDbSymbolTableRecord
100
AcDbBlockTableRecord
  2
*B172
340
0
  0
BLOCK_RECORD
  5
74B
100
AcDbSymbolTableRecord
100
AcDbBlockTableRecord
  2
*B173
340
0
  0
BLOCK_RECORD
  5
751
100
AcDbSymbolTableRecord
100
AcDbBlockTableRecord
  2
*B174
340
0
  0
BLOCK_RECORD
  5
757
100
AcDbSymbolTableRecord
100
AcDbBlockTableRecord
  2
*B175
340
0
  0
BLOCK_RECORD
  5
75D
100
AcDbSymbolTableRecord
100
AcDbBlockTableRecord
  2
*B176
340
0
  0
BLOCK_RECORD
  5
763
100
AcDbSymbolTableRecord
100
AcDbBlockTableRecord
  2
*B177
340
0
  0
BLOCK_RECORD
  5
769
100
AcDbSymbolTableRecord
100
AcDbBlockTableRecord
  2
*B178
340
0
  0
BLOCK_RECORD
  5
76F
100
AcDbSymbolTableRecord
100
AcDbBlockTableRecord
  2
*B179
340
0
  0
BLOCK_RECORD
  5
775
100
AcDbSymbolTableRecord
100
AcDbBlockTableRecord
  2
*B180
340
0
  0
BLOCK_RECORD
  5
77B
100
AcDbSymbolTableRecord
100
AcDbBlockTableRecord
  2
*B181
340
0
  0
BLOCK_RECORD
  5
781
100
AcDbSymbolTableRecord
100
AcDbBlockTableRecord
  2
*B182
340
0
  0
BLOCK_RECORD
  5
787
100
AcDbSymbolTableRecord
100
AcDbBlockTableRecord
  2
*B183
340
0
  0
BLOCK_RECORD
  5
78D
100
AcDbSymbolTableRecord
100
AcDbBlockTableRecord
  2
*B184
340
0
  0
BLOCK_RECORD
  5
793
100
AcDbSymbolTableRecord
100
AcDbBlockTableRecord
  2
*B185
340
0
  0
BLOCK_RECORD
  5
799
100
AcDbSymbolTableRecord
100
AcDbBlockTableRecord
  2
*B186
340
0
  0
BLOCK_RECORD
  5
79F
100
AcDbSymbolTableRecord
100
AcDbBlockTableRecord
  2
*B187
340
0
  0
BLOCK_RECORD
  5
7A5
100
AcDbSymbolTableRecord
100
AcDbBlockTableRecord
  2
*B188
340
0
  0
BLOCK_RECORD
  5
7AB
100
AcDbSymbolTableRecord
100
AcDbBlockTableRecord
  2
*B189
340
0
  0
BLOCK_RECORD
  5
7B1
100
AcDbSymbolTableRecord
100
AcDbBlockTableRecord
  2
*B190
340
0
  0
BLOCK_RECORD
  5
7B7
100
AcDbSymbolTableRecord
100
AcDbBlockTableRecord
  2
*B191
340
0
  0
BLOCK_RECORD
  5
7BD
100
AcDbSymbolTableRecord
100
AcDbBlockTableRecord
  2
*B192
340
0
  0
BLOCK_RECORD
  5
7C3
100
AcDbSymbolTableRecord
100
AcDbBlockTableRecord
  2
*B193
340
0
  0
BLOCK_RECORD
  5
7C9
100
AcDbSymbolTableRecord
100
AcDbBlockTableRecord
  2
*B194
340
0
  0
BLOCK_RECORD
  5
7D0
100
AcDbSymbolTableRecord
100
AcDbBlockTableRecord
  2
*B195
340
0
  0
BLOCK_RECORD
  5
7D7
100
AcDbSymbolTableRecord
100
AcDbBlockTableRecord
  2
*B196
340
0
  0
BLOCK_RECORD
  5
7DC
100
AcDbSymbolTableRecord
100
AcDbBlockTableRecord
  2
*B197
340
0
  0
BLOCK_RECORD
  5
7E1
100
AcDbSymbolTableRecord
100
AcDbBlockTableRecord
  2
*B198
340
0
  0
BLOCK_RECORD
  5
7E6
100
AcDbSymbolTableRecord
100
AcDbBlockTableRecord
  2
*B199
340
0
  0
BLOCK_RECORD
  5
7EB
100
AcDbSymbolTableRecord
100
AcDbBlockTableRecord
  2
*B200
340
0
  0
BLOCK_RECORD
  5
7F0
100
AcDbSymbolTableRecord
100
AcDbBlockTableRecord
  2
*B201
340
0
  0
BLOCK_RECORD
  5
7F5
100
AcDbSymbolTableRecord
100
AcDbBlockTableRecord
  2
*B202
340
0
  0
BLOCK_RECORD
  5
7FA
100
AcDbSymbolTableRecord
100
AcDbBlockTableRecord
  2
*B203
340
0
  0
BLOCK_RECORD
  5
7FF
100
AcDbSymbolTableRecord
100
AcDbBlockTableRecord
  2
*B204
340
0
  0
BLOCK_RECORD
  5
804
100
AcDbSymbolTableRecord
100
AcDbBlockTableRecord
  2
*B205
340
0
  0
BLOCK_RECORD
  5
809
100
AcDbSymbolTableRecord
100
AcDbBlockTableRecord
  2
*B206
340
0
  0
BLOCK_RECORD
  5
80E
100
AcDbSymbolTableRecord
100
AcDbBlockTableRecord
  2
*B207
340
0
  0
BLOCK_RECORD
  5
813
100
AcDbSymbolTableRecord
100
AcDbBlockTableRecord
  2
*B208
340
0
  0
BLOCK_RECORD
  5
818
100
AcDbSymbolTableRecord
100
AcDbBlockTableRecord
  2
*B209
340
0
  0
BLOCK_RECORD
  5
81D
100
AcDbSymbolTableRecord
100
AcDbBlockTableRecord
  2
*B210
340
0
  0
BLOCK_RECORD
  5
822
100
AcDbSymbolTableRecord
100
AcDbBlockTableRecord
  2
*B211
340
0
  0
BLOCK_RECORD
  5
827
100
AcDbSymbolTableRecord
100
AcDbBlockTableRecord
  2
*B212
340
0
  0
BLOCK_RECORD
  5
82C
100
AcDbSymbolTableRecord
100
AcDbBlockTableRecord
  2
*B213
340
0
  0
BLOCK_RECORD
  5
831
100
AcDbSymbolTableRecord
100
AcDbBlockTableRecord
  2
*B214
340
0
  0
BLOCK_RECORD
  5
836
100
AcDbSymbolTableRecord
100
AcDbBlockTableRecord
  2
*B215
340
0
  0
BLOCK_RECORD
  5
83B
100
AcDbSymbolTableRecord
100
AcDbBlockTableRecord
  2
*B216
340
0
  0
BLOCK_RECORD
  5
840
100
AcDbSymbolTableRecord
100
AcDbBlockTableRecord
  2
*B217
340
0
  0
BLOCK_RECORD
  5
845
100
AcDbSymbolTableRecord
100
AcDbBlockTableRecord
  2
*B218
340
0
  0
BLOCK_RECORD
  5
84A
100
AcDbSymbolTableRecord
100
AcDbBlockTableRecord
  2
*B219
340
0
  0
BLOCK_RECORD
  5
84F
100
AcDbSymbolTableRecord
100
AcDbBlockTableRecord
  2
*B220
340
0
  0
BLOCK_RECORD
  5
854
100
AcDbSymbolTableRecord
100
AcDbBlockTableRecord
  2
*B221
340
0
  0
BLOCK_RECORD
  5
859
100
AcDbSymbolTableRecord
100
AcDbBlockTableRecord
  2
*B222
340
0
  0
BLOCK_RECORD
  5
85E
100
AcDbSymbolTableRecord
100
AcDbBlockTableRecord
  2
*B223
340
0
  0
BLOCK_RECORD
  5
863
100
AcDbSymbolTableRecord
100
AcDbBlockTableRecord
  2
*B224
340
0
  0
BLOCK_RECORD
  5
868
100
AcDbSymbolTableRecord
100
AcDbBlockTableRecord
  2
*B225
340
0
  0
BLOCK_RECORD
  5
86D
100
AcDbSymbolTableRecord
100
AcDbBlockTableRecord
  2
*B226
340
0
  0
BLOCK_RECORD
  5
872
100
AcDbSymbolTableRecord
100
AcDbBlockTableRecord
  2
*B227
340
0
  0
BLOCK_RECORD
  5
877
100
AcDbSymbolTableRecord
100
AcDbBlockTableRecord
  2
*B228
340
0
  0
BLOCK_RECORD
  5
87C
100
AcDbSymbolTableRecord
100
AcDbBlockTableRecord
  2
*B229
340
0
  0
BLOCK_RECORD
  5
881
100
AcDbSymbolTableRecord
100
AcDbBlockTableRecord
  2
*B230
340
0
  0
BLOCK_RECORD
  5
886
100
AcDbSymbolTableRecord
100
AcDbBlockTableRecord
  2
*B231
340
0
  0
BLOCK_RECORD
  5
88B
100
AcDbSymbolTableRecord
100
AcDbBlockTableRecord
  2
*B232
340
0
  0
BLOCK_RECORD
  5
890
100
AcDbSymbolTableRecord
100
AcDbBlockTableRecord
  2
*B233
340
0
  0
BLOCK_RECORD
  5
895
100
AcDbSymbolTableRecord
100
AcDbBlockTableRecord
  2
*B234
340
0
  0
BLOCK_RECORD
  5
89A
100
AcDbSymbolTableRecord
100
AcDbBlockTableRecord
  2
*B235
340
0
  0
BLOCK_RECORD
  5
89F
100
AcDbSymbolTableRecord
100
AcDbBlockTableRecord
  2
*B236
340
0
  0
BLOCK_RECORD
  5
8A4
100
AcDbSymbolTableRecord
100
AcDbBlockTableRecord
  2
*B237
340
0
  0
BLOCK_RECORD
  5
8A9
100
AcDbSymbolTableRecord
100
AcDbBlockTableRecord
  2
*B238
340
0
  0
BLOCK_RECORD
  5
8AE
100
AcDbSymbolTableRecord
100
AcDbBlockTableRecord
  2
*B239
340
0
  0
BLOCK_RECORD
  5
8B3
100
AcDbSymbolTableRecord
100
AcDbBlockTableRecord
  2
*B240
340
0
  0
BLOCK_RECORD
  5
8B8
100
AcDbSymbolTableRecord
100
AcDbBlockTableRecord
  2
*B241
340
0
  0
BLOCK_RECORD
  5
8BD
100
AcDbSymbolTableRecord
100
AcDbBlockTableRecord
  2
*B242
340
0
  0
BLOCK_RECORD
  5
8C2
100
AcDbSymbolTableRecord
100
AcDbBlockTableRecord
  2
*B243
340
0
  0
BLOCK_RECORD
  5
8C7
100
AcDbSymbolTableRecord
100
AcDbBlockTableRecord
  2
*B244
340
0
  0
BLOCK_RECORD
  5
8CC
100
AcDbSymbolTableRecord
100
AcDbBlockTableRecord
  2
*B245
340
0
  0
BLOCK_RECORD
  5
8D1
100
AcDbSymbolTableRecord
100
AcDbBlockTableRecord
  2
*B246
340
0
  0
ENDTAB
  0
ENDSEC
  0
SECTION
  2
BLOCKS
  0
BLOCK
  5
D
100
AcDbEntity
  8
0
100
AcDbBlockBegin
  2
*MODEL_SPACE
 70
     0
 10
0.0
 20
0.0
 30
0.0
  3
*MODEL_SPACE
  1

  0
ENDBLK
  5
E
100
AcDbEntity
  8
0
100
AcDbBlockEnd
  0
BLOCK
  5
F
100
AcDbEntity
 67
     1
  8
0
100
AcDbBlockBegin
  2
*PAPER_SPACE
 70
     0
 10
0.0
 20
0.0
 30
0.0
  3
*PAPER_SPACE
  1

  0
ENDBLK
  5
10
100
AcDbEntity
 67
     1
  8
0
100
AcDbBlockEnd
  0
BLOCK
  5
2A
100
AcDbEntity
  8
0
100
AcDbBlockBegin
  2
*B0
 70
     0
 10
0.0
 20
0.0
 30
0.0
  3
*B0
  1

  0
ENDBLK
  5
2B
100
AcDbEntity
  8
0
100
AcDbBlockEnd
  0
BLOCK
  5
2D
100
AcDbEntity
  8
0
100
AcDbBlockBegin
  2
*B1
 70
     0
 10
0.0
 20
0.0
 30
0.0
  3
*B1
  1

  0
ENDBLK
  5
2E
100
AcDbEntity
  8
0
100
AcDbBlockEnd
  0
BLOCK
  5
30
100
AcDbEntity
  8
0
100
AcDbBlockBegin
  2
*B2
 70
     0
 10
0.0
 20
0.0
 30
0.0
  3
*B2
  1

  0
LINE
  5
31
100
AcDbEntity
  8
0
  6
HIDDEN
 62
   174
100
AcDbLine
 10
193.958114
 20
56.594954
 30
0.0
 11
193.958114
 21
76.594952
 31
0.0
  0
LINE
  5
32
100
AcDbEntity
  8
0
  6
HIDDEN
 62
   174
100
AcDbLine
 10
193.958114
 20
56.594954
 30
0.0
 11
193.958114
 21
76.594952
 31
0.0
  0
LINE
  5
33
100
AcDbEntity
  8
0
  6
HIDDEN
 62
   174
100
AcDbLine
 10
419.184612
 20
152.593671
 30
0.0
 11
419.184612
 21
172.593244
 31
0.0
  0
LINE
  5
34
100
AcDbEntity
  8
0
  6
HIDDEN
 62
   174
100
AcDbLine
 10
419.184612
 20
152.593671
 30
0.0
 11
419.184612
 21
172.593244
 31
0.0
  0
LINE
  5
35
100
AcDbEntity
  8
0
  6
HIDDEN
 62
   174
100
AcDbLine
 10
193.958114
 20
152.593671
 30
0.0
 11
193.958114
 21
172.593244
 31
0.0
  0
LINE
  5
36
100
AcDbEntity
  8
0
  6
HIDDEN
 62
   174
100
AcDbLine
 10
193.958114
 20
152.593671
 30
0.0
 11
193.958114
 21
172.593244
 31
0.0
  0
LINE
  5
37
100
AcDbEntity
  8
0
  6
HIDDEN
 62
   174
100
AcDbLine
 10
419.184612
 20
104.594525
 30
0.0
 11
419.184612
 21
124.594098
 31
0.0
  0
LINE
  5
38
100
AcDbEntity
  8
0
  6
HIDDEN
 62
   174
100
AcDbLine
 10
419.184612
 20
104.594525
 30
0.0
 11
419.184612
 21
124.594098
 31
0.0
  0
LINE
  5
39
100
AcDbEntity
  8
0
  6
HIDDEN
 62
   174
100
AcDbLine
 10
193.958114
 20
104.594525
 30
0.0
 11
193.958114
 21
124.594098
 31
0.0
  0
LINE
  5
3A
100
AcDbEntity
  8
0
  6
HIDDEN
 62
   174
100
AcDbLine
 10
193.958114
 20
104.594525
 30
0.0
 11
193.958114
 21
124.594098
 31
0.0
  0
ARC
  5
3B
100
AcDbEntity
  8
0
  6
Continuous
 62
   174
100
AcDbCircle
 10
404.571363
 20
92.595877
 30
0.0
 40
7.0
100
AcDbArc
 50
0.0
 51
180.0
  0
ARC
  5
3C
100
AcDbEntity
  8
0
  6
Continuous
 62
   174
100
AcDbCircle
 10
404.571363
 20
92.595877
 30
0.0
 40
7.0
100
AcDbArc
 50
-180.0
 51
0.0
  0
ARC
  5
3D
100
AcDbEntity
  8
0
  6
Continuous
 62
   174
100
AcDbCircle
 10
386.571363
 20
136.595877
 30
0.0
 40
7.0
100
AcDbArc
 50
0.0
 51
180.0
  0
ARC
  5
3E
100
AcDbEntity
  8
0
  6
Continuous
 62
   174
100
AcDbCircle
 10
175.071363
 20
90.595877
 30
0.0
 40
4.5
100
AcDbArc
 50
-180.0
 51
0.0
  0
LINE
  5
3F
100
AcDbEntity
  8
0
  6
HIDDEN
 62
   174
100
AcDbLine
 10
422.071363
 20
147.593565
 30
0.0
 11
422.071363
 21
177.59335
 31
0.0
  0
LINE
  5
40
100
AcDbEntity
  8
0
  6
HIDDEN
 62
   174
100
AcDbLine
 10
426.071363
 20
49.935097
 30
0.0
 11
426.071363
 21
83.254809
 31
0.0
  0
LINE
  5
41
100
AcDbEntity
  8
0
  6
HIDDEN
 62
   174
100
AcDbLine
 10
450.071363
 20
147.595877
 30
0.0
 11
422.071363
 21
147.595877
 31
0.0
  0
LINE
  5
42
100
AcDbEntity
  8
0
  6
HIDDEN
 62
   174
100
AcDbLine
 10
426.071363
 20
99.595877
 30
0.0
 11
450.071363
 21
99.595877
 31
0.0
  0
LINE
  5
43
100
AcDbEntity
  8
0
  6
HIDDEN
 62
   174
100
AcDbLine
 10
426.071363
 20
129.595877
 30
0.0
 11
450.071363
 21
129.595877
 31
0.0
  0
LINE
  5
44
100
AcDbEntity
  8
0
  6
HIDDEN
 62
   174
100
AcDbLine
 10
426.071363
 20
97.935877
 30
0.0
 11
450.071363
 21
97.935877
 31
0.0
  0
LINE
  5
45
100
AcDbEntity
  8
0
  6
HIDDEN
 62
   174
100
AcDbLine
 10
450.071363
 20
97.934668
 30
0.0
 11
450.071363
 21
131.253955
 31
0.0
  0
ARC
  5
46
100
AcDbEntity
  8
0
  6
Continuous
 62
   174
100
AcDbCircle
 10
226.571363
 20
158.595877
 30
0.0
 40
7.0
100
AcDbArc
 50
0.0
 51
180.0
  0
ARC
  5
47
100
AcDbEntity
  8
0
  6
Continuous
 62
   174
100
AcDbCircle
 10
226.571363
 20
158.595877
 30
0.0
 40
7.0
100
AcDbArc
 50
-180.0
 51
0.0
  0
LWPOLYLINE
  5
48
100
AcDbEntity
  8
0
  6
Continuous
 62
   174
100
AcDbPolyline
 90
        9
 70
   128
 10
222.985562
 20
152.595878
 10
223.845891
 20
152.598714
 10
224.740405
 20
152.604896
 10
225.64678
 20
152.610736
 10
226.555788
 20
152.613138
 10
227.461921
 20
152.610902
 10
228.365727
 20
152.605165
 10
229.267976
 20
152.598882
 10
230.176914
 20
152.595877
  0
ARC
  5
49
100
AcDbEntity
  8
0
  6
Continuous
 62
   174
100
AcDbCircle
 10
379.071363
 20
84.595877
 30
0.0
 40
3.0
100
AcDbArc
 50
0.0
 51
118.810059
  0
ARC
  5
4A
100
AcDbEntity
  8
0
  6
Continuous
 62
   174
100
AcDbCircle
 10
412.071363
 20
144.595877
 30
0.0
 40
2.5
100
AcDbArc
 50
0.0
 51
180.0
  0
ARC
  5
4B
100
AcDbEntity
  8
0
  6
Continuous
 62
   174
100
AcDbCircle
 10
342.071363
 20
70.595877
 30
0.0
 40
7.0
100
AcDbArc
 50
-180.0
 51
0.0
  0
LINE
  5
4C
100
AcDbEntity
  8
0
  6
HIDDEN
 62
   174
100
AcDbLine
 10
345.676914
 20
76.595877
 30
0.0
 11
345.657164
 21
76.595875
 31
0.0
  0
ARC
  5
4D
100
AcDbEntity
  8
0
  6
Continuous
 62
   174
100
AcDbCircle
 10
175.071363
 20
138.595877
 30
0.0
 40
4.5
100
AcDbArc
 50
-180.0
 51
0.0
  0
LINE
  5
4E
100
AcDbEntity
  8
0
  6
HIDDEN
 62
   174
100
AcDbLine
 10
450.071363
 20
145.933814
 30
0.0
 11
450.071363
 21
179.253101
 31
0.0
  0
LINE
  5
4F
100
AcDbEntity
  8
0
  6
HIDDEN
 62
   174
100
AcDbLine
 10
426.071363
 20
129.595877
 30
0.0
 11
450.071363
 21
129.595877
 31
0.0
  0
LINE
  5
50
100
AcDbEntity
  8
0
  6
HIDDEN
 62
   174
100
AcDbLine
 10
450.071363
 20
177.59335
 30
0.0
 11
450.071363
 21
147.593565
 31
0.0
  0
LINE
  5
51
100
AcDbEntity
  8
0
  6
HIDDEN
 62
   174
100
AcDbLine
 10
450.071363
 20
81.594633
 30
0.0
 11
450.071363
 21
51.595273
 31
0.0
  0
ARC
  5
52
100
AcDbEntity
  8
0
  6
Continuous
 62
   174
100
AcDbCircle
 10
217.571363
 20
114.595877
 30
0.0
 40
7.0
100
AcDbArc
 50
0.0
 51
180.0
  0
LWPOLYLINE
  5
53
100
AcDbEntity
  8
0
  6
Continuous
 62
   174
100
AcDbPolyline
 90
        9
 70
   128
 10
301.157164
 20
76.595875
 10
300.296835
 20
76.593039
 10
299.402321
 20
76.586857
 10
298.495946
 20
76.581018
 10
297.586938
 20
76.578616
 10
296.680805
 20
76.580851
 10
295.776999
 20
76.586589
 10
294.87475
 20
76.592871
 10
293.965812
 20
76.595877
  0
ARC
  5
54
100
AcDbEntity
  8
0
  6
Continuous
 62
   174
100
AcDbCircle
 10
360.071363
 20
92.595877
 30
0.0
 40
7.0
100
AcDbArc
 50
0.0
 51
180.0
  0
ARC
  5
55
100
AcDbEntity
  8
0
  6
Continuous
 62
   174
100
AcDbCircle
 10
438.071363
 20
138.595877
 30
0.0
 40
4.5
100
AcDbArc
 50
-180.0
 51
0.0
  0
LINE
  5
56
100
AcDbEntity
  8
0
  6
HIDDEN
 62
   174
100
AcDbLine
 10
450.071363
 20
147.595877
 30
0.0
 11
422.071363
 21
147.595877
 31
0.0
  0
LINE
  5
57
100
AcDbEntity
  8
0
  6
HIDDEN
 62
   174
100
AcDbLine
 10
426.071363
 20
145.933814
 30
0.0
 11
426.071363
 21
179.253101
 31
0.0
  0
LINE
  5
58
100
AcDbEntity
  8
0
  6
HIDDEN
 62
   174
100
AcDbLine
 10
450.071363
 20
129.595877
 30
0.0
 11
422.071363
 21
129.595877
 31
0.0
  0
LINE
  5
59
100
AcDbEntity
  8
0
  6
HIDDEN
 62
   174
100
AcDbLine
 10
450.071363
 20
129.593779
 30
0.0
 11
450.071363
 21
99.594419
 31
0.0
  0
LWPOLYLINE
  5
5A
100
AcDbEntity
  8
0
  6
Continuous
 62
   174
100
AcDbPolyline
 90
        9
 70
   128
 10
212.157164
 20
76.595875
 10
211.296835
 20
76.593039
 10
210.402321
 20
76.586857
 10
209.495946
 20
76.581018
 10
208.586938
 20
76.578616
 10
207.680805
 20
76.580851
 10
206.776999
 20
76.586589
 10
205.87475
 20
76.592871
 10
204.965812
 20
76.595877
  0
ARC
  5
5B
100
AcDbEntity
  8
0
  6
Continuous
 62
   174
100
AcDbCircle
 10
297.571363
 20
70.595877
 30
0.0
 40
7.0
100
AcDbArc
 50
0.0
 51
180.0
  0
ARC
  5
5C
100
AcDbEntity
  8
0
  6
Continuous
 62
   174
100
AcDbCircle
 10
412.071363
 20
144.595877
 30
0.0
 40
3.0
100
AcDbArc
 50
-180.0
 51
0.0
  0
ARC
  5
5D
100
AcDbEntity
  8
0
  6
Continuous
 62
   174
100
AcDbCircle
 10
379.071363
 20
84.595877
 30
0.0
 40
2.5
100
AcDbArc
 50
-180.0
 51
0.0
  0
LWPOLYLINE
  5
5E
100
AcDbEntity
  8
0
  6
Continuous
 62
   174
100
AcDbPolyline
 90
        9
 70
   128
 10
345.657164
 20
76.595875
 10
344.796835
 20
76.593039
 10
343.902321
 20
76.586857
 10
342.995946
 20
76.581018
 10
342.086938
 20
76.578616
 10
341.180805
 20
76.580851
 10
340.276999
 20
76.586589
 10
339.37475
 20
76.592871
 10
338.465812
 20
76.595877
  0
LINE
  5
5F
100
AcDbEntity
  8
0
  6
HIDDEN
 62
   174
100
AcDbLine
 10
422.071363
 20
51.595273
 30
0.0
 11
422.071363
 21
81.594633
 31
0.0
  0
LINE
  5
60
100
AcDbEntity
  8
0
  6
HIDDEN
 62
   174
100
AcDbLine
 10
450.071363
 20
177.595877
 30
0.0
 11
422.071363
 21
177.595877
 31
0.0
  0
LINE
  5
61
100
AcDbEntity
  8
0
  6
HIDDEN
 62
   174
100
AcDbLine
 10
426.071363
 20
99.595877
 30
0.0
 11
450.071363
 21
99.595877
 31
0.0
  0
LINE
  5
62
100
AcDbEntity
  8
0
  6
HIDDEN
 62
   174
100
AcDbLine
 10
450.071363
 20
99.595877
 30
0.0
 11
422.071363
 21
99.595877
 31
0.0
  0
ARC
  5
63
100
AcDbEntity
  8
0
  6
Continuous
 62
   174
100
AcDbCircle
 10
412.071363
 20
144.595877
 30
0.0
 40
3.0
100
AcDbArc
 50
0.0
 51
118.810059
  0
LINE
  5
64
100
AcDbEntity
  8
0
  6
HIDDEN
 62
   174
100
AcDbLine
 10
426.071363
 20
81.595877
 30
0.0
 11
450.071363
 21
81.595877
 31
0.0
  0
LINE
  5
65
100
AcDbEntity
  8
0
  6
HIDDEN
 62
   174
100
AcDbLine
 10
426.071363
 20
51.595877
 30
0.0
 11
450.071363
 21
51.595877
 31
0.0
  0
LINE
  5
66
100
AcDbEntity
  8
0
  6
HIDDEN
 62
   174
100
AcDbLine
 10
450.071363
 20
51.595877
 30
0.0
 11
422.071363
 21
51.595877
 31
0.0
  0
LINE
  5
67
100
AcDbEntity
  8
0
  6
HIDDEN
 62
   174
100
AcDbLine
 10
450.071363
 20
81.595877
 30
0.0
 11
422.071363
 21
81.595877
 31
0.0
  0
LINE
  5
68
100
AcDbEntity
  8
0
  6
HIDDEN
 62
   174
100
AcDbLine
 10
450.071363
 20
51.595877
 30
0.0
 11
422.071363
 21
51.595877
 31
0.0
  0
LINE
  5
69
100
AcDbEntity
  8
0
  6
HIDDEN
 62
   174
100
AcDbLine
 10
426.071363
 20
147.595877
 30
0.0
 11
450.071363
 21
147.595877
 31
0.0
  0
LINE
  5
6A
100
AcDbEntity
  8
0
  6
HIDDEN
 62
   174
100
AcDbLine
 10
426.071363
 20
147.595877
 30
0.0
 11
450.071363
 21
147.595877
 31
0.0
  0
LINE
  5
6B
100
AcDbEntity
  8
0
  6
HIDDEN
 62
   174
100
AcDbLine
 10
426.071363
 20
179.255877
 30
0.0
 11
450.071363
 21
179.255877
 31
0.0
  0
LINE
  5
6C
100
AcDbEntity
  8
0
  6
Continuous
 62
   174
100
AcDbLine
 10
163.071363
 20
184.595877
 30
0.0
 11
163.071363
 21
44.595877
 31
0.0
  0
LINE
  5
6D
100
AcDbEntity
  8
0
  6
Continuous
 62
   174
100
AcDbLine
 10
450.071363
 20
184.595877
 30
0.0
 11
163.071363
 21
184.595877
 31
0.0
  0
LINE
  5
6E
100
AcDbEntity
  8
0
  6
HIDDEN
 62
   174
100
AcDbLine
 10
212.176914
 20
76.595877
 30
0.0
 11
212.157164
 21
76.595875
 31
0.0
  0
ARC
  5
6F
100
AcDbEntity
  8
0
  6
Continuous
 62
   174
100
AcDbCircle
 10
351.071363
 20
114.595877
 30
0.0
 40
7.0
100
AcDbArc
 50
-180.0
 51
0.0
  0
ARC
  5
70
100
AcDbEntity
  8
0
  6
Continuous
 62
   174
100
AcDbCircle
 10
342.071363
 20
70.595877
 30
0.0
 40
7.0
100
AcDbArc
 50
0.0
 51
180.0
  0
ARC
  5
71
100
AcDbEntity
  8
0
  6
Continuous
 62
   174
100
AcDbCircle
 10
360.071363
 20
158.595877
 30
0.0
 40
7.0
100
AcDbArc
 50
-180.0
 51
0.0
  0
ARC
  5
72
100
AcDbEntity
  8
0
  6
Continuous
 62
   174
100
AcDbCircle
 10
438.071363
 20
90.595877
 30
0.0
 40
4.5
100
AcDbArc
 50
0.0
 51
180.0
  0
ARC
  5
73
100
AcDbEntity
  8
0
  6
Continuous
 62
   174
100
AcDbCircle
 10
438.071363
 20
90.595877
 30
0.0
 40
4.5
100
AcDbArc
 50
-180.0
 51
0.0
  0
ARC
  5
74
100
AcDbEntity
  8
0
  6
Continuous
 62
   174
100
AcDbCircle
 10
175.071363
 20
138.595877
 30
0.0
 40
4.5
100
AcDbArc
 50
0.0
 51
180.0
  0
ARC
  5
75
100
AcDbEntity
  8
0
  6
Continuous
 62
   174
100
AcDbCircle
 10
175.071363
 20
90.595877
 30
0.0
 40
4.5
100
AcDbArc
 50
0.0
 51
180.0
  0
LINE
  5
76
100
AcDbEntity
  8
0
  6
HIDDEN
 62
   174
100
AcDbLine
 10
422.071363
 20
99.594419
 30
0.0
 11
422.071363
 21
129.593779
 31
0.0
  0
LINE
  5
77
100
AcDbEntity
  8
0
  6
HIDDEN
 62
   174
100
AcDbLine
 10
422.071363
 20
147.593565
 30
0.0
 11
422.071363
 21
177.59335
 31
0.0
  0
LINE
  5
78
100
AcDbEntity
  8
0
  6
HIDDEN
 62
   174
100
AcDbLine
 10
426.071363
 20
51.595877
 30
0.0
 11
450.071363
 21
51.595877
 31
0.0
  0
LINE
  5
79
100
AcDbEntity
  8
0
  6
HIDDEN
 62
   174
100
AcDbLine
 10
426.071363
 20
81.595877
 30
0.0
 11
450.071363
 21
81.595877
 31
0.0
  0
LINE
  5
7A
100
AcDbEntity
  8
0
  6
HIDDEN
 62
   174
100
AcDbLine
 10
450.071363
 20
81.595877
 30
0.0
 11
422.071363
 21
81.595877
 31
0.0
  0
LINE
  5
7B
100
AcDbEntity
  8
0
  6
HIDDEN
 62
   174
100
AcDbLine
 10
426.071363
 20
49.935877
 30
0.0
 11
450.071363
 21
49.935877
 31
0.0
  0
LINE
  5
7C
100
AcDbEntity
  8
0
  6
HIDDEN
 62
   174
100
AcDbLine
 10
426.071363
 20
83.255877
 30
0.0
 11
450.071363
 21
83.255877
 31
0.0
  0
LINE
  5
7D
100
AcDbEntity
  8
0
  6
HIDDEN
 62
   174
100
AcDbLine
 10
426.071363
 20
49.935877
 30
0.0
 11
450.071363
 21
49.935877
 31
0.0
  0
LINE
  5
7E
100
AcDbEntity
  8
0
  6
HIDDEN
 62
   174
100
AcDbLine
 10
450.071363
 20
49.935097
 30
0.0
 11
450.071363
 21
83.254809
 31
0.0
  0
LINE
  5
7F
100
AcDbEntity
  8
0
  6
HIDDEN
 62
   174
100
AcDbLine
 10
426.071363
 20
83.255877
 30
0.0
 11
450.071363
 21
83.255877
 31
0.0
  0
LINE
  5
80
100
AcDbEntity
  8
0
  6
HIDDEN
 62
   174
100
AcDbLine
 10
450.071363
 20
177.595877
 30
0.0
 11
422.071363
 21
177.595877
 31
0.0
  0
LINE
  5
81
100
AcDbEntity
  8
0
  6
HIDDEN
 62
   174
100
AcDbLine
 10
426.071363
 20
145.935877
 30
0.0
 11
450.071363
 21
145.935877
 31
0.0
  0
LINE
  5
82
100
AcDbEntity
  8
0
  6
HIDDEN
 62
   174
100
AcDbLine
 10
426.071363
 20
97.934668
 30
0.0
 11
426.071363
 21
131.253955
 31
0.0
  0
LINE
  5
83
100
AcDbEntity
  8
0
  6
Continuous
 62
   174
100
AcDbLine
 10
163.071363
 20
44.595877
 30
0.0
 11
450.071363
 21
44.595877
 31
0.0
  0
LINE
  5
84
100
AcDbEntity
  8
0
  6
HIDDEN
 62
   174
100
AcDbLine
 10
222.965812
 20
152.595877
 30
0.0
 11
222.985562
 21
152.595878
 31
0.0
  0
ARC
  5
85
100
AcDbEntity
  8
0
  6
Continuous
 62
   174
100
AcDbCircle
 10
297.571363
 20
70.595877
 30
0.0
 40
7.0
100
AcDbArc
 50
-180.0
 51
0.0
  0
ARC
  5
86
100
AcDbEntity
  8
0
  6
Continuous
 62
   174
100
AcDbCircle
 10
379.071363
 20
84.595877
 30
0.0
 40
2.5
100
AcDbArc
 50
0.0
 51
180.0
  0
ARC
  5
87
100
AcDbEntity
  8
0
  6
Continuous
 62
   174
100
AcDbCircle
 10
360.071363
 20
158.595877
 30
0.0
 40
7.0
100
AcDbArc
 50
0.0
 51
180.0
  0
ARC
  5
88
100
AcDbEntity
  8
0
  6
Continuous
 62
   174
100
AcDbCircle
 10
315.571363
 20
92.595877
 30
0.0
 40
7.0
100
AcDbArc
 50
-180.0
 51
0.0
  0
ARC
  5
89
100
AcDbEntity
  8
0
  6
Continuous
 62
   174
100
AcDbCircle
 10
438.071363
 20
138.595877
 30
0.0
 40
4.5
100
AcDbArc
 50
0.0
 51
180.0
  0
LINE
  5
8A
100
AcDbEntity
  8
0
  6
HIDDEN
 62
   174
100
AcDbLine
 10
422.071363
 20
51.595273
 30
0.0
 11
422.071363
 21
81.594633
 31
0.0
  0
LINE
  5
8B
100
AcDbEntity
  8
0
  6
HIDDEN
 62
   174
100
AcDbLine
 10
426.071363
 20
177.595877
 30
0.0
 11
450.071363
 21
177.595877
 31
0.0
  0
LINE
  5
8C
100
AcDbEntity
  8
0
  6
HIDDEN
 62
   174
100
AcDbLine
 10
450.071363
 20
99.595877
 30
0.0
 11
422.071363
 21
99.595877
 31
0.0
  0
LINE
  5
8D
100
AcDbEntity
  8
0
  6
HIDDEN
 62
   174
100
AcDbLine
 10
426.071363
 20
131.255877
 30
0.0
 11
450.071363
 21
131.255877
 31
0.0
  0
ARC
  5
8E
100
AcDbEntity
  8
0
  6
Continuous
 62
   174
100
AcDbCircle
 10
217.571363
 20
114.595877
 30
0.0
 40
7.0
100
AcDbArc
 50
-180.0
 51
0.0
  0
ARC
  5
8F
100
AcDbEntity
  8
0
  6
Continuous
 62
   174
100
AcDbCircle
 10
412.071363
 20
144.595877
 30
0.0
 40
2.5
100
AcDbArc
 50
-180.0
 51
0.0
  0
ARC
  5
90
100
AcDbEntity
  8
0
  6
Continuous
 62
   174
100
AcDbCircle
 10
360.071363
 20
92.595877
 30
0.0
 40
7.0
100
AcDbArc
 50
-180.0
 51
0.0
  0
LINE
  5
91
100
AcDbEntity
  8
0
  6
HIDDEN
 62
   174
100
AcDbLine
 10
356.465812
 20
152.595877
 30
0.0
 11
356.485562
 21
152.595878
 31
0.0
  0
ARC
  5
92
100
AcDbEntity
  8
0
  6
Continuous
 62
   174
100
AcDbCircle
 10
386.571363
 20
136.595877
 30
0.0
 40
7.0
100
AcDbArc
 50
-180.0
 51
0.0
  0
LINE
  5
93
100
AcDbEntity
  8
0
  6
HIDDEN
 62
   174
100
AcDbLine
 10
422.071363
 20
99.594419
 30
0.0
 11
422.071363
 21
129.593779
 31
0.0
  0
LINE
  5
94
100
AcDbEntity
  8
0
  6
HIDDEN
 62
   174
100
AcDbLine
 10
426.071363
 20
177.595877
 30
0.0
 11
450.071363
 21
177.595877
 31
0.0
  0
LINE
  5
95
100
AcDbEntity
  8
0
  6
HIDDEN
 62
   174
100
AcDbLine
 10
426.071363
 20
145.935877
 30
0.0
 11
450.071363
 21
145.935877
 31
0.0
  0
LINE
  5
96
100
AcDbEntity
  8
0
  6
HIDDEN
 62
   174
100
AcDbLine
 10
426.071363
 20
179.255877
 30
0.0
 11
450.071363
 21
179.255877
 31
0.0
  0
LINE
  5
97
100
AcDbEntity
  8
0
  6
HIDDEN
 62
   174
100
AcDbLine
 10
450.071363
 20
129.595877
 30
0.0
 11
422.071363
 21
129.595877
 31
0.0
  0
LINE
  5
98
100
AcDbEntity
  8
0
  6
HIDDEN
 62
   174
100
AcDbLine
 10
426.071363
 20
97.935877
 30
0.0
 11
450.071363
 21
97.935877
 31
0.0
  0
LINE
  5
99
100
AcDbEntity
  8
0
  6
HIDDEN
 62
   174
100
AcDbLine
 10
426.071363
 20
131.255877
 30
0.0
 11
450.071363
 21
131.255877
 31
0.0
  0
LINE
  5
9A
100
AcDbEntity
  8
0
  6
Continuous
 62
   174
100
AcDbLine
 10
450.071363
 20
44.595877
 30
0.0
 11
450.071363
 21
184.595877
 31
0.0
  0
ARC
  5
9B
100
AcDbEntity
  8
0
  6
Continuous
 62
   174
100
AcDbCircle
 10
379.071363
 20
84.595877
 30
0.0
 40
3.0
100
AcDbArc
 50
-180.0
 51
0.0
  0
LINE
  5
9C
100
AcDbEntity
  8
0
  6
HIDDEN
 62
   174
100
AcDbLine
 10
301.176914
 20
76.595877
 30
0.0
 11
301.157164
 21
76.595875
 31
0.0
  0
ARC
  5
9D
100
AcDbEntity
  8
0
  6
Continuous
 62
   174
100
AcDbCircle
 10
351.071363
 20
114.595877
 30
0.0
 40
7.0
100
AcDbArc
 50
0.0
 51
180.0
  0
ARC
  5
9E
100
AcDbEntity
  8
0
  6
Continuous
 62
   174
100
AcDbCircle
 10
315.571363
 20
92.595877
 30
0.0
 40
7.0
100
AcDbArc
 50
0.0
 51
180.0
  0
ARC
  5
9F
100
AcDbEntity
  8
0
  6
Continuous
 62
   174
100
AcDbCircle
 10
367.571363
 20
144.595877
 30
0.0
 40
3.0
100
AcDbArc
 50
-180.0
 51
0.0
  0
LINE
  5
A0
100
AcDbEntity
  8
0
  6
HIDDEN
 62
   174
100
AcDbLine
 10
191.071363
 20
177.59335
 30
0.0
 11
191.071363
 21
147.593565
 31
0.0
  0
LINE
  5
A1
100
AcDbEntity
  8
0
  6
HIDDEN
 62
   174
100
AcDbLine
 10
191.071363
 20
177.59335
 30
0.0
 11
191.071363
 21
147.593565
 31
0.0
  0
LINE
  5
A2
100
AcDbEntity
  8
0
  6
HIDDEN
 62
   174
100
AcDbLine
 10
191.071363
 20
177.595877
 30
0.0
 11
193.958114
 21
172.595877
 31
0.0
  0
LINE
  5
A3
100
AcDbEntity
  8
0
  6
HIDDEN
 62
   174
100
AcDbLine
 10
191.071363
 20
81.595877
 30
0.0
 11
193.958114
 21
76.595877
 31
0.0
  0
LINE
  5
A4
100
AcDbEntity
  8
0
  6
HIDDEN
 62
   174
100
AcDbLine
 10
187.071363
 20
83.255877
 30
0.0
 11
163.071363
 21
83.255877
 31
0.0
  0
LINE
  5
A5
100
AcDbEntity
  8
0
  6
HIDDEN
 62
   174
100
AcDbLine
 10
191.071363
 20
147.595877
 30
0.0
 11
193.958114
 21
152.595877
 31
0.0
  0
LINE
  5
A6
100
AcDbEntity
  8
0
  6
HIDDEN
 62
   174
100
AcDbLine
 10
163.071363
 20
51.595877
 30
0.0
 11
191.071363
 21
51.595877
 31
0.0
  0
LINE
  5
A7
100
AcDbEntity
  8
0
  6
HIDDEN
 62
   174
100
AcDbLine
 10
163.071363
 20
99.595877
 30
0.0
 11
191.071363
 21
99.595877
 31
0.0
  0
LINE
  5
A8
100
AcDbEntity
  8
0
  6
HIDDEN
 62
   174
100
AcDbLine
 10
191.071363
 20
99.595877
 30
0.0
 11
193.958114
 21
104.595877
 31
0.0
  0
ARC
  5
A9
100
AcDbEntity
  8
0
  6
Continuous
 62
   174
100
AcDbCircle
 10
342.071363
 20
136.595877
 30
0.0
 40
7.0
100
AcDbArc
 50
0.0
 51
180.0
  0
ARC
  5
AA
100
AcDbEntity
  8
0
  6
Continuous
 62
   174
100
AcDbCircle
 10
208.571363
 20
136.595877
 30
0.0
 40
7.0
100
AcDbArc
 50
-180.0
 51
0.0
  0
ARC
  5
AB
100
AcDbEntity
  8
0
  6
Continuous
 62
   174
100
AcDbCircle
 10
271.071363
 20
92.595877
 30
0.0
 40
7.0
100
AcDbArc
 50
0.0
 51
180.0
  0
ARC
  5
AC
100
AcDbEntity
  8
0
  6
Continuous
 62
   174
100
AcDbCircle
 10
290.071363
 20
84.595877
 30
0.0
 40
3.0
100
AcDbArc
 50
0.0
 51
118.774077
  0
LINE
  5
AD
100
AcDbEntity
  8
0
  6
HIDDEN
 62
   174
100
AcDbLine
 10
163.071363
 20
147.595877
 30
0.0
 11
191.071363
 21
147.595877
 31
0.0
  0
LINE
  5
AE
100
AcDbEntity
  8
0
  6
HIDDEN
 62
   174
100
AcDbLine
 10
408.176914
 20
152.595877
 30
0.0
 11
419.184612
 21
152.595877
 31
0.0
  0
LINE
  5
AF
100
AcDbEntity
  8
0
  6
HIDDEN
 62
   174
100
AcDbLine
 10
319.176914
 20
152.595877
 30
0.0
 11
356.465812
 21
152.595877
 31
0.0
  0
LINE
  5
B0
100
AcDbEntity
  8
0
  6
HIDDEN
 62
   174
100
AcDbLine
 10
193.958114
 20
56.595877
 30
0.0
 11
419.184612
 21
56.595877
 31
0.0
  0
LINE
  5
B1
100
AcDbEntity
  8
0
  6
HIDDEN
 62
   174
100
AcDbLine
 10
274.676914
 20
152.595877
 30
0.0
 11
311.965812
 21
152.595877
 31
0.0
  0
LINE
  5
B2
100
AcDbEntity
  8
0
  6
HIDDEN
 62
   174
100
AcDbLine
 10
187.071363
 20
129.595877
 30
0.0
 11
163.071363
 21
129.595877
 31
0.0
  0
LINE
  5
B3
100
AcDbEntity
  8
0
  6
HIDDEN
 62
   174
100
AcDbLine
 10
191.071363
 20
81.594633
 30
0.0
 11
191.071363
 21
51.595273
 31
0.0
  0
LINE
  5
B4
100
AcDbEntity
  8
0
  6
HIDDEN
 62
   174
100
AcDbLine
 10
187.071363
 20
147.595877
 30
0.0
 11
163.071363
 21
147.595877
 31
0.0
  0
LINE
  5
B5
100
AcDbEntity
  8
0
  6
HIDDEN
 62
   174
100
AcDbLine
 10
163.071363
 20
83.254809
 30
0.0
 11
163.071363
 21
49.935097
 31
0.0
  0
ARC
  5
B6
100
AcDbEntity
  8
0
  6
Continuous
 62
   174
100
AcDbCircle
 10
245.571363
 20
84.595877
 30
0.0
 40
2.5
100
AcDbArc
 50
-180.0
 51
0.0
  0
LINE
  5
B7
100
AcDbEntity
  8
0
  6
HIDDEN
 62
   174
100
AcDbLine
 10
191.071363
 20
51.595877
 30
0.0
 11
193.958114
 21
56.595877
 31
0.0
  0
ARC
  5
B8
100
AcDbEntity
  8
0
  6
Continuous
 62
   174
100
AcDbCircle
 10
208.571363
 20
70.595877
 30
0.0
 40
7.0
100
AcDbArc
 50
-180.0
 51
0.0
  0
ARC
  5
B9
100
AcDbEntity
  8
0
  6
Continuous
 62
   174
100
AcDbCircle
 10
297.571363
 20
136.595877
 30
0.0
 40
7.0
100
AcDbArc
 50
-180.0
 51
0.0
  0
ARC
  5
BA
100
AcDbEntity
  8
0
  6
Continuous
 62
   174
100
AcDbCircle
 10
395.571363
 20
114.595877
 30
0.0
 40
7.0
100
AcDbArc
 50
-180.0
 51
0.0
  0
ARC
  5
BB
100
AcDbEntity
  8
0
  6
Continuous
 62
   174
100
AcDbCircle
 10
334.571363
 20
84.595877
 30
0.0
 40
3.0
100
AcDbArc
 50
0.0
 51
118.774077
  0
ARC
  5
BC
100
AcDbEntity
  8
0
  6
Continuous
 62
   174
100
AcDbCircle
 10
342.071363
 20
136.595877
 30
0.0
 40
7.0
100
AcDbArc
 50
-180.0
 51
0.0
  0
ARC
  5
BD
100
AcDbEntity
  8
0
  6
Continuous
 62
   174
100
AcDbCircle
 10
245.571363
 20
84.595877
 30
0.0
 40
2.5
100
AcDbArc
 50
0.0
 51
180.0
  0
ARC
  5
BE
100
AcDbEntity
  8
0
  6
Continuous
 62
   174
100
AcDbCircle
 10
234.071363
 20
144.595877
 30
0.0
 40
2.5
100
AcDbArc
 50
0.0
 51
180.0
  0
LINE
  5
BF
100
AcDbEntity
  8
0
  6
HIDDEN
 62
   174
100
AcDbLine
 10
187.071363
 20
81.595877
 30
0.0
 11
163.071363
 21
81.595877
 31
0.0
  0
ARC
  5
C0
100
AcDbEntity
  8
0
  6
Continuous
 62
   174
100
AcDbCircle
 10
323.071363
 20
144.595877
 30
0.0
 40
3.0
100
AcDbArc
 50
-180.0
 51
0.0
  0
ARC
  5
C1
100
AcDbEntity
  8
0
  6
Continuous
 62
   174
100
AcDbCircle
 10
278.571363
 20
144.595877
 30
0.0
 40
2.5
100
AcDbArc
 50
-180.0
 51
0.0
  0
LINE
  5
C2
100
AcDbEntity
  8
0
  6
HIDDEN
 62
   174
100
AcDbLine
 10
193.958114
 20
152.595877
 30
0.0
 11
222.965812
 21
152.595877
 31
0.0
  0
ARC
  5
C3
100
AcDbEntity
  8
0
  6
Continuous
 62
   174
100
AcDbCircle
 10
395.571363
 20
114.595877
 30
0.0
 40
7.0
100
AcDbArc
 50
0.0
 51
180.0
  0
ARC
  5
C4
100
AcDbEntity
  8
0
  6
Continuous
 62
   174
100
AcDbCircle
 10
297.571363
 20
136.595877
 30
0.0
 40
7.0
100
AcDbArc
 50
0.0
 51
180.0
  0
LINE
  5
C5
100
AcDbEntity
  8
0
  6
HIDDEN
 62
   174
100
AcDbLine
 10
191.071363
 20
129.593779
 30
0.0
 11
191.071363
 21
99.594419
 31
0.0
  0
ARC
  5
C6
100
AcDbEntity
  8
0
  6
Continuous
 62
   174
100
AcDbCircle
 10
201.071363
 20
84.595877
 30
0.0
 40
2.5
100
AcDbArc
 50
0.0
 51
180.0
  0
LINE
  5
C7
100
AcDbEntity
  8
0
  6
HIDDEN
 62
   174
100
AcDbLine
 10
193.958114
 20
104.595877
 30
0.0
 11
419.184612
 21
104.595877
 31
0.0
  0
ARC
  5
C8
100
AcDbEntity
  8
0
  6
Continuous
 62
   174
100
AcDbCircle
 10
271.071363
 20
158.595877
 30
0.0
 40
7.0
100
AcDbArc
 50
-180.0
 51
0.0
  0
LINE
  5
C9
100
AcDbEntity
  8
0
  6
HIDDEN
 62
   174
100
AcDbLine
 10
187.071363
 20
129.595877
 30
0.0
 11
163.071363
 21
129.595877
 31
0.0
  0
LINE
  5
CA
100
AcDbEntity
  8
0
  6
HIDDEN
 62
   174
100
AcDbLine
 10
345.676914
 20
76.595877
 30
0.0
 11
382.965812
 21
76.595877
 31
0.0
  0
ARC
  5
CB
100
AcDbEntity
  8
0
  6
Continuous
 62
   174
100
AcDbCircle
 10
404.571363
 20
158.595877
 30
0.0
 40
7.0
100
AcDbArc
 50
-180.0
 51
0.0
  0
LINE
  5
CC
100
AcDbEntity
  8
0
  6
HIDDEN
 62
   174
100
AcDbLine
 10
163.071363
 20
81.595877
 30
0.0
 11
191.071363
 21
81.595877
 31
0.0
  0
ARC
  5
CD
100
AcDbEntity
  8
0
  6
Continuous
 62
   174
100
AcDbCircle
 10
253.071363
 20
70.595877
 30
0.0
 40
7.0
100
AcDbArc
 50
0.0
 51
180.0
  0
LINE
  5
CE
100
AcDbEntity
  8
0
  6
HIDDEN
 62
   174
100
AcDbLine
 10
191.071363
 20
81.595877
 30
0.0
 11
193.958114
 21
76.595877
 31
0.0
  0
LINE
  5
CF
100
AcDbEntity
  8
0
  6
HIDDEN
 62
   174
100
AcDbLine
 10
256.676914
 20
76.595877
 30
0.0
 11
293.965812
 21
76.595877
 31
0.0
  0
LINE
  5
D0
100
AcDbEntity
  8
0
  6
HIDDEN
 62
   174
100
AcDbLine
 10
193.958114
 20
172.595877
 30
0.0
 11
419.184612
 21
172.595877
 31
0.0
  0
LINE
  5
D1
100
AcDbEntity
  8
0
  6
HIDDEN
 62
   174
100
AcDbLine
 10
363.676914
 20
152.595877
 30
0.0
 11
400.965812
 21
152.595877
 31
0.0
  0
LINE
  5
D2
100
AcDbEntity
  8
0
  6
HIDDEN
 62
   174
100
AcDbLine
 10
256.676914
 20
76.595877
 30
0.0
 11
256.657164
 21
76.595875
 31
0.0
  0
ARC
  5
D3
100
AcDbEntity
  8
0
  6
Continuous
 62
   174
100
AcDbCircle
 10
278.571363
 20
144.595877
 30
0.0
 40
3.0
100
AcDbArc
 50
-180.0
 51
0.0
  0
ARC
  5
D4
100
AcDbEntity
  8
0
  6
Continuous
 62
   174
100
AcDbCircle
 10
278.571363
 20
144.595877
 30
0.0
 40
2.5
100
AcDbArc
 50
0.0
 51
180.0
  0
LINE
  5
D5
100
AcDbEntity
  8
0
  6
HIDDEN
 62
   174
100
AcDbLine
 10
187.071363
 20
131.253955
 30
0.0
 11
187.071363
 21
97.934668
 31
0.0
  0
LINE
  5
D6
100
AcDbEntity
  8
0
  6
HIDDEN
 62
   174
100
AcDbLine
 10
193.958114
 20
76.595877
 30
0.0
 11
204.965812
 21
76.595877
 31
0.0
  0
LINE
  5
D7
100
AcDbEntity
  8
0
  6
HIDDEN
 62
   174
100
AcDbLine
 10
319.176914
 20
152.595877
 30
0.0
 11
356.465812
 21
152.595877
 31
0.0
  0
ARC
  5
D8
100
AcDbEntity
  8
0
  6
Continuous
 62
   174
100
AcDbCircle
 10
315.571363
 20
158.595877
 30
0.0
 40
7.0
100
AcDbArc
 50
-180.0
 51
0.0
  0
ARC
  5
D9
100
AcDbEntity
  8
0
  6
Continuous
 62
   174
100
AcDbCircle
 10
262.071363
 20
114.595877
 30
0.0
 40
7.0
100
AcDbArc
 50
0.0
 51
180.0
  0
ARC
  5
DA
100
AcDbEntity
  8
0
  6
Continuous
 62
   174
100
AcDbCircle
 10
262.071363
 20
114.595877
 30
0.0
 40
7.0
100
AcDbArc
 50
-180.0
 51
0.0
  0
LINE
  5
DB
100
AcDbEntity
  8
0
  6
HIDDEN
 62
   174
100
AcDbLine
 10
187.071363
 20
49.935877
 30
0.0
 11
163.071363
 21
49.935877
 31
0.0
  0
ARC
  5
DC
100
AcDbEntity
  8
0
  6
Continuous
 62
   174
100
AcDbCircle
 10
234.071363
 20
144.595877
 30
0.0
 40
2.5
100
AcDbArc
 50
-180.0
 51
0.0
  0
LWPOLYLINE
  5
DD
100
AcDbEntity
  8
0
  6
Continuous
 62
   174
100
AcDbPolyline
 90
        9
 70
   128
 10
390.157164
 20
76.595875
 10
389.296835
 20
76.593039
 10
388.402321
 20
76.586857
 10
387.495946
 20
76.581018
 10
386.586938
 20
76.578616
 10
385.680805
 20
76.580851
 10
384.776999
 20
76.586589
 10
383.87475
 20
76.592871
 10
382.965812
 20
76.595877
  0
ARC
  5
DE
100
AcDbEntity
  8
0
  6
Continuous
 62
   174
100
AcDbCircle
 10
306.571363
 20
114.595877
 30
0.0
 40
7.0
100
AcDbArc
 50
-180.0
 51
0.0
  0
LINE
  5
DF
100
AcDbEntity
  8
0
  6
HIDDEN
 62
   174
100
AcDbLine
 10
187.071363
 20
81.595877
 30
0.0
 11
163.071363
 21
81.595877
 31
0.0
  0
LINE
  5
E0
100
AcDbEntity
  8
0
  6
HIDDEN
 62
   174
100
AcDbLine
 10
193.958114
 20
56.595877
 30
0.0
 11
419.184612
 21
56.595877
 31
0.0
  0
LINE
  5
E1
100
AcDbEntity
  8
0
  6
HIDDEN
 62
   174
100
AcDbLine
 10
193.958114
 20
76.595877
 30
0.0
 11
204.965812
 21
76.595877
 31
0.0
  0
ARC
  5
E2
100
AcDbEntity
  8
0
  6
Continuous
 62
   174
100
AcDbCircle
 10
271.071363
 20
92.595877
 30
0.0
 40
7.0
100
AcDbArc
 50
-180.0
 51
0.0
  0
LINE
  5
E3
100
AcDbEntity
  8
0
  6
HIDDEN
 62
   174
100
AcDbLine
 10
163.071363
 20
147.595877
 30
0.0
 11
191.071363
 21
147.595877
 31
0.0
  0
LINE
  5
E4
100
AcDbEntity
  8
0
  6
HIDDEN
 62
   174
100
AcDbLine
 10
163.071363
 20
81.595877
 30
0.0
 11
191.071363
 21
81.595877
 31
0.0
  0
LINE
  5
E5
100
AcDbEntity
  8
0
  6
HIDDEN
 62
   174
100
AcDbLine
 10
163.071363
 20
99.595877
 30
0.0
 11
191.071363
 21
99.595877
 31
0.0
  0
LINE
  5
E6
100
AcDbEntity
  8
0
  6
HIDDEN
 62
   174
100
AcDbLine
 10
230.176914
 20
152.595877
 30
0.0
 11
267.465812
 21
152.595877
 31
0.0
  0
LINE
  5
E7
100
AcDbEntity
  8
0
  6
HIDDEN
 62
   174
100
AcDbLine
 10
187.071363
 20
147.595877
 30
0.0
 11
163.071363
 21
147.595877
 31
0.0
  0
LINE
  5
E8
100
AcDbEntity
  8
0
  6
HIDDEN
 62
   174
100
AcDbLine
 10
163.071363
 20
179.253101
 30
0.0
 11
163.071363
 21
145.933814
 31
0.0
  0
LINE
  5
E9
100
AcDbEntity
  8
0
  6
HIDDEN
 62
   174
100
AcDbLine
 10
187.071363
 20
179.253101
 30
0.0
 11
187.071363
 21
145.933814
 31
0.0
  0
LINE
  5
EA
100
AcDbEntity
  8
0
  6
HIDDEN
 62
   174
100
AcDbLine
 10
163.071363
 20
129.595877
 30
0.0
 11
191.071363
 21
129.595877
 31
0.0
  0
ARC
  5
EB
100
AcDbEntity
  8
0
  6
Continuous
 62
   174
100
AcDbCircle
 10
367.571363
 20
144.595877
 30
0.0
 40
2.5
100
AcDbArc
 50
0.0
 51
180.0
  0
LINE
  5
EC
100
AcDbEntity
  8
0
  6
HIDDEN
 62
   174
100
AcDbLine
 10
187.071363
 20
99.595877
 30
0.0
 11
163.071363
 21
99.595877
 31
0.0
  0
LINE
  5
ED
100
AcDbEntity
  8
0
  6
HIDDEN
 62
   174
100
AcDbLine
 10
191.071363
 20
129.595877
 30
0.0
 11
193.958114
 21
124.595877
 31
0.0
  0
LINE
  5
EE
100
AcDbEntity
  8
0
  6
HIDDEN
 62
   174
100
AcDbLine
 10
193.958114
 20
152.595877
 30
0.0
 11
222.965812
 21
152.595877
 31
0.0
  0
LINE
  5
EF
100
AcDbEntity
  8
0
  6
HIDDEN
 62
   174
100
AcDbLine
 10
187.071363
 20
145.935877
 30
0.0
 11
163.071363
 21
145.935877
 31
0.0
  0
LINE
  5
F0
100
AcDbEntity
  8
0
  6
HIDDEN
 62
   174
100
AcDbLine
 10
163.071363
 20
51.595877
 30
0.0
 11
191.071363
 21
51.595877
 31
0.0
  0
ARC
  5
F1
100
AcDbEntity
  8
0
  6
Continuous
 62
   174
100
AcDbCircle
 10
404.571363
 20
158.595877
 30
0.0
 40
7.0
100
AcDbArc
 50
0.0
 51
180.0
  0
ARC
  5
F2
100
AcDbEntity
  8
0
  6
Continuous
 62
   174
100
AcDbCircle
 10
323.071363
 20
144.595877
 30
0.0
 40
2.5
100
AcDbArc
 50
0.0
 51
180.0
  0
LINE
  5
F3
100
AcDbEntity
  8
0
  6
HIDDEN
 62
   174
100
AcDbLine
 10
193.958114
 20
172.595877
 30
0.0
 11
419.184612
 21
172.595877
 31
0.0
  0
ARC
  5
F4
100
AcDbEntity
  8
0
  6
Continuous
 62
   174
100
AcDbCircle
 10
386.571363
 20
70.595877
 30
0.0
 40
7.0
100
AcDbArc
 50
-180.0
 51
0.0
  0
LINE
  5
F5
100
AcDbEntity
  8
0
  6
HIDDEN
 62
   174
100
AcDbLine
 10
422.071363
 20
51.595877
 30
0.0
 11
419.184612
 21
56.595877
 31
0.0
  0
LINE
  5
F6
100
AcDbEntity
  8
0
  6
HIDDEN
 62
   174
100
AcDbLine
 10
212.176914
 20
76.595877
 30
0.0
 11
249.465812
 21
76.595877
 31
0.0
  0
LWPOLYLINE
  5
F7
100
AcDbEntity
  8
0
  6
Continuous
 62
   174
100
AcDbPolyline
 90
        9
 70
   128
 10
400.985562
 20
152.595878
 10
401.845891
 20
152.598714
 10
402.740405
 20
152.604896
 10
403.64678
 20
152.610736
 10
404.555788
 20
152.613138
 10
405.461921
 20
152.610902
 10
406.365727
 20
152.605165
 10
407.267976
 20
152.598882
 10
408.176914
 20
152.595877
  0
LINE
  5
F8
100
AcDbEntity
  8
0
  6
HIDDEN
 62
   174
100
AcDbLine
 10
187.071363
 20
177.595877
 30
0.0
 11
163.071363
 21
177.595877
 31
0.0
  0
LINE
  5
F9
100
AcDbEntity
  8
0
  6
HIDDEN
 62
   174
100
AcDbLine
 10
187.071363
 20
97.935877
 30
0.0
 11
163.071363
 21
97.935877
 31
0.0
  0
LINE
  5
FA
100
AcDbEntity
  8
0
  6
HIDDEN
 62
   174
100
AcDbLine
 10
400.965812
 20
152.595877
 30
0.0
 11
400.985562
 21
152.595878
 31
0.0
  0
ARC
  5
FB
100
AcDbEntity
  8
0
  6
Continuous
 62
   174
100
AcDbCircle
 10
386.571363
 20
70.595877
 30
0.0
 40
7.0
100
AcDbArc
 50
0.0
 51
180.0
  0
ARC
  5
FC
100
AcDbEntity
  8
0
  6
Continuous
 62
   174
100
AcDbCircle
 10
334.571363
 20
84.595877
 30
0.0
 40
2.5
100
AcDbArc
 50
-180.0
 51
0.0
  0
LINE
  5
FD
100
AcDbEntity
  8
0
  6
HIDDEN
 62
   174
100
AcDbLine
 10
191.071363
 20
147.595877
 30
0.0
 11
193.958114
 21
152.595877
 31
0.0
  0
ARC
  5
FE
100
AcDbEntity
  8
0
  6
Continuous
 62
   174
100
AcDbCircle
 10
323.071363
 20
144.595877
 30
0.0
 40
3.0
100
AcDbArc
 50
0.0
 51
118.774077
  0
ARC
  5
FF
100
AcDbEntity
  8
0
  6
Continuous
 62
   174
100
AcDbCircle
 10
334.571363
 20
84.595877
 30
0.0
 40
2.5
100
AcDbArc
 50
0.0
 51
180.0
  0
LINE
  5
100
100
AcDbEntity
  8
0
  6
HIDDEN
 62
   174
100
AcDbLine
 10
187.071363
 20
83.255877
 30
0.0
 11
163.071363
 21
83.255877
 31
0.0
  0
LINE
  5
101
100
AcDbEntity
  8
0
  6
HIDDEN
 62
   174
100
AcDbLine
 10
301.176914
 20
76.595877
 30
0.0
 11
338.465812
 21
76.595877
 31
0.0
  0
LINE
  5
102
100
AcDbEntity
  8
0
  6
HIDDEN
 62
   174
100
AcDbLine
 10
193.958114
 20
104.595877
 30
0.0
 11
419.184612
 21
104.595877
 31
0.0
  0
ARC
  5
103
100
AcDbEntity
  8
0
  6
Continuous
 62
   174
100
AcDbCircle
 10
201.071363
 20
84.595877
 30
0.0
 40
3.0
100
AcDbArc
 50
0.0
 51
118.810059
  0
ARC
  5
104
100
AcDbEntity
  8
0
  6
Continuous
 62
   174
100
AcDbCircle
 10
201.071363
 20
84.595877
 30
0.0
 40
2.5
100
AcDbArc
 50
-180.0
 51
0.0
  0
LWPOLYLINE
  5
105
100
AcDbEntity
  8
0
  6
Continuous
 62
   174
100
AcDbPolyline
 90
        9
 70
   128
 10
356.485562
 20
152.595878
 10
357.345891
 20
152.598714
 10
358.240405
 20
152.604896
 10
359.14678
 20
152.610736
 10
360.055788
 20
152.613138
 10
360.961921
 20
152.610902
 10
361.865727
 20
152.605165
 10
362.767976
 20
152.598882
 10
363.676914
 20
152.595877
  0
ARC
  5
106
100
AcDbEntity
  8
0
  6
Continuous
 62
   174
100
AcDbCircle
 10
315.571363
 20
158.595877
 30
0.0
 40
7.0
100
AcDbArc
 50
0.0
 51
180.0
  0
LINE
  5
107
100
AcDbEntity
  8
0
  6
HIDDEN
 62
   174
100
AcDbLine
 10
187.071363
 20
131.255877
 30
0.0
 11
163.071363
 21
131.255877
 31
0.0
  0
LINE
  5
108
100
AcDbEntity
  8
0
  6
HIDDEN
 62
   174
100
AcDbLine
 10
163.071363
 20
131.253955
 30
0.0
 11
163.071363
 21
97.934668
 31
0.0
  0
LINE
  5
109
100
AcDbEntity
  8
0
  6
HIDDEN
 62
   174
100
AcDbLine
 10
363.676914
 20
152.595877
 30
0.0
 11
400.965812
 21
152.595877
 31
0.0
  0
LINE
  5
10A
100
AcDbEntity
  8
0
  6
HIDDEN
 62
   174
100
AcDbLine
 10
267.465812
 20
152.595877
 30
0.0
 11
267.485562
 21
152.595878
 31
0.0
  0
LINE
  5
10B
100
AcDbEntity
  8
0
  6
HIDDEN
 62
   174
100
AcDbLine
 10
163.071363
 20
99.594419
 30
0.0
 11
163.071363
 21
129.593779
 31
0.0
  0
ARC
  5
10C
100
AcDbEntity
  8
0
  6
Continuous
 62
   174
100
AcDbCircle
 10
201.071363
 20
84.595877
 30
0.0
 40
3.0
100
AcDbArc
 50
-180.0
 51
0.0
  0
LINE
  5
10D
100
AcDbEntity
  8
0
  6
HIDDEN
 62
   174
100
AcDbLine
 10
187.071363
 20
97.935877
 30
0.0
 11
163.071363
 21
97.935877
 31
0.0
  0
LINE
  5
10E
100
AcDbEntity
  8
0
  6
HIDDEN
 62
   174
100
AcDbLine
 10
422.071363
 20
177.595877
 30
0.0
 11
419.184612
 21
172.595877
 31
0.0
  0
LINE
  5
10F
100
AcDbEntity
  8
0
  6
HIDDEN
 62
   174
100
AcDbLine
 10
422.071363
 20
147.595877
 30
0.0
 11
419.184612
 21
152.595877
 31
0.0
  0
ARC
  5
110
100
AcDbEntity
  8
0
  6
Continuous
 62
   174
100
AcDbCircle
 10
208.571363
 20
136.595877
 30
0.0
 40
7.0
100
AcDbArc
 50
0.0
 51
180.0
  0
LINE
  5
111
100
AcDbEntity
  8
0
  6
HIDDEN
 62
   174
100
AcDbLine
 10
422.071363
 20
51.595877
 30
0.0
 11
419.184612
 21
56.595877
 31
0.0
  0
LINE
  5
112
100
AcDbEntity
  8
0
  6
HIDDEN
 62
   174
100
AcDbLine
 10
191.071363
 20
99.595877
 30
0.0
 11
193.958114
 21
104.595877
 31
0.0
  0
ARC
  5
113
100
AcDbEntity
  8
0
  6
Continuous
 62
   174
100
AcDbCircle
 10
290.071363
 20
84.595877
 30
0.0
 40
2.5
100
AcDbArc
 50
0.0
 51
180.0
  0
ARC
  5
114
100
AcDbEntity
  8
0
  6
Continuous
 62
   174
100
AcDbCircle
 10
290.071363
 20
84.595877
 30
0.0
 40
2.5
100
AcDbArc
 50
-180.0
 51
0.0
  0
LINE
  5
115
100
AcDbEntity
  8
0
  6
HIDDEN
 62
   174
100
AcDbLine
 10
422.071363
 20
177.595877
 30
0.0
 11
419.184612
 21
172.595877
 31
0.0
  0
LINE
  5
116
100
AcDbEntity
  8
0
  6
HIDDEN
 62
   174
100
AcDbLine
 10
345.676914
 20
76.595877
 30
0.0
 11
382.965812
 21
76.595877
 31
0.0
  0
LINE
  5
117
100
AcDbEntity
  8
0
  6
HIDDEN
 62
   174
100
AcDbLine
 10
422.071363
 20
99.595877
 30
0.0
 11
419.184612
 21
104.595877
 31
0.0
  0
LINE
  5
118
100
AcDbEntity
  8
0
  6
HIDDEN
 62
   174
100
AcDbLine
 10
256.676914
 20
76.595877
 30
0.0
 11
293.965812
 21
76.595877
 31
0.0
  0
ARC
  5
119
100
AcDbEntity
  8
0
  6
Continuous
 62
   174
100
AcDbCircle
 10
226.571363
 20
92.595877
 30
0.0
 40
7.0
100
AcDbArc
 50
0.0
 51
180.0
  0
ARC
  5
11A
100
AcDbEntity
  8
0
  6
Continuous
 62
   174
100
AcDbCircle
 10
253.071363
 20
70.595877
 30
0.0
 40
7.0
100
AcDbArc
 50
-180.0
 51
0.0
  0
ARC
  5
11B
100
AcDbEntity
  8
0
  6
Continuous
 62
   174
100
AcDbCircle
 10
208.571363
 20
70.595877
 30
0.0
 40
7.0
100
AcDbArc
 50
0.0
 51
180.0
  0
LINE
  5
11C
100
AcDbEntity
  8
0
  6
HIDDEN
 62
   174
100
AcDbLine
 10
187.071363
 20
49.935877
 30
0.0
 11
163.071363
 21
49.935877
 31
0.0
  0
LINE
  5
11D
100
AcDbEntity
  8
0
  6
HIDDEN
 62
   174
100
AcDbLine
 10
408.176914
 20
152.595877
 30
0.0
 11
419.184612
 21
152.595877
 31
0.0
  0
LINE
  5
11E
100
AcDbEntity
  8
0
  6
HIDDEN
 62
   174
100
AcDbLine
 10
212.176914
 20
76.595877
 30
0.0
 11
249.465812
 21
76.595877
 31
0.0
  0
ARC
  5
11F
100
AcDbEntity
  8
0
  6
Continuous
 62
   174
100
AcDbCircle
 10
367.571363
 20
144.595877
 30
0.0
 40
3.0
100
AcDbArc
 50
0.0
 51
118.774077
  0
ARC
  5
120
100
AcDbEntity
  8
0
  6
Continuous
 62
   174
100
AcDbCircle
 10
245.571363
 20
84.595877
 30
0.0
 40
3.0
100
AcDbArc
 50
-180.0
 51
0.0
  0
LINE
  5
121
100
AcDbEntity
  8
0
  6
HIDDEN
 62
   174
100
AcDbLine
 10
274.676914
 20
152.595877
 30
0.0
 11
311.965812
 21
152.595877
 31
0.0
  0
LWPOLYLINE
  5
122
100
AcDbEntity
  8
0
  6
Continuous
 62
   174
100
AcDbPolyline
 90
        9
 70
   128
 10
311.985562
 20
152.595878
 10
312.845891
 20
152.598714
 10
313.740405
 20
152.604896
 10
314.64678
 20
152.610736
 10
315.555788
 20
152.613138
 10
316.461921
 20
152.610902
 10
317.365727
 20
152.605165
 10
318.267976
 20
152.598882
 10
319.176914
 20
152.595877
  0
LINE
  5
123
100
AcDbEntity
  8
0
  6
HIDDEN
 62
   174
100
AcDbLine
 10
163.071363
 20
177.595877
 30
0.0
 11
191.071363
 21
177.595877
 31
0.0
  0
LINE
  5
124
100
AcDbEntity
  8
0
  6
HIDDEN
 62
   174
100
AcDbLine
 10
187.071363
 20
131.255877
 30
0.0
 11
163.071363
 21
131.255877
 31
0.0
  0
LINE
  5
125
100
AcDbEntity
  8
0
  6
HIDDEN
 62
   174
100
AcDbLine
 10
422.071363
 20
99.595877
 30
0.0
 11
419.184612
 21
104.595877
 31
0.0
  0
ARC
  5
126
100
AcDbEntity
  8
0
  6
Continuous
 62
   174
100
AcDbCircle
 10
367.571363
 20
144.595877
 30
0.0
 40
2.5
100
AcDbArc
 50
-180.0
 51
0.0
  0
LINE
  5
127
100
AcDbEntity
  8
0
  6
HIDDEN
 62
   174
100
AcDbLine
 10
163.071363
 20
147.593565
 30
0.0
 11
163.071363
 21
177.59335
 31
0.0
  0
LINE
  5
128
100
AcDbEntity
  8
0
  6
HIDDEN
 62
   174
100
AcDbLine
 10
419.184612
 20
56.594954
 30
0.0
 11
419.184612
 21
76.594952
 31
0.0
  0
LINE
  5
129
100
AcDbEntity
  8
0
  6
HIDDEN
 62
   174
100
AcDbLine
 10
187.071363
 20
179.255877
 30
0.0
 11
163.071363
 21
179.255877
 31
0.0
  0
LINE
  5
12A
100
AcDbEntity
  8
0
  6
HIDDEN
 62
   174
100
AcDbLine
 10
193.958114
 20
124.595877
 30
0.0
 11
419.184612
 21
124.595877
 31
0.0
  0
LWPOLYLINE
  5
12B
100
AcDbEntity
  8
0
  6
Continuous
 62
   174
100
AcDbPolyline
 90
        9
 70
   128
 10
256.657164
 20
76.595875
 10
255.796835
 20
76.593039
 10
254.902321
 20
76.586857
 10
253.995946
 20
76.581018
 10
253.086938
 20
76.578616
 10
252.180805
 20
76.580851
 10
251.276999
 20
76.586589
 10
250.37475
 20
76.592871
 10
249.465812
 20
76.595877
  0
ARC
  5
12C
100
AcDbEntity
  8
0
  6
Continuous
 62
   174
100
AcDbCircle
 10
245.571363
 20
84.595877
 30
0.0
 40
3.0
100
AcDbArc
 50
0.0
 51
118.774077
  0
LINE
  5
12D
100
AcDbEntity
  8
0
  6
HIDDEN
 62
   174
100
AcDbLine
 10
422.071363
 20
147.595877
 30
0.0
 11
419.184612
 21
152.595877
 31
0.0
  0
LINE
  5
12E
100
AcDbEntity
  8
0
  6
HIDDEN
 62
   174
100
AcDbLine
 10
191.071363
 20
177.595877
 30
0.0
 11
193.958114
 21
172.595877
 31
0.0
  0
ARC
  5
12F
100
AcDbEntity
  8
0
  6
Continuous
 62
   174
100
AcDbCircle
 10
226.571363
 20
92.595877
 30
0.0
 40
7.0
100
AcDbArc
 50
-180.0
 51
0.0
  0
LINE
  5
130
100
AcDbEntity
  8
0
  6
HIDDEN
 62
   174
100
AcDbLine
 10
191.071363
 20
129.593779
 30
0.0
 11
191.071363
 21
99.594419
 31
0.0
  0
LINE
  5
131
100
AcDbEntity
  8
0
  6
HIDDEN
 62
   174
100
AcDbLine
 10
163.071363
 20
129.595877
 30
0.0
 11
191.071363
 21
129.595877
 31
0.0
  0
LINE
  5
132
100
AcDbEntity
  8
0
  6
HIDDEN
 62
   174
100
AcDbLine
 10
422.071363
 20
81.595877
 30
0.0
 11
419.184612
 21
76.595877
 31
0.0
  0
LINE
  5
133
100
AcDbEntity
  8
0
  6
HIDDEN
 62
   174
100
AcDbLine
 10
390.176914
 20
76.595877
 30
0.0
 11
419.184612
 21
76.595877
 31
0.0
  0
ARC
  5
134
100
AcDbEntity
  8
0
  6
Continuous
 62
   174
100
AcDbCircle
 10
323.071363
 20
144.595877
 30
0.0
 40
2.5
100
AcDbArc
 50
-180.0
 51
0.0
  0
LINE
  5
135
100
AcDbEntity
  8
0
  6
HIDDEN
 62
   174
100
AcDbLine
 10
187.071363
 20
51.595877
 30
0.0
 11
163.071363
 21
51.595877
 31
0.0
  0
LINE
  5
136
100
AcDbEntity
  8
0
  6
HIDDEN
 62
   174
100
AcDbLine
 10
187.071363
 20
83.254809
 30
0.0
 11
187.071363
 21
49.935097
 31
0.0
  0
LINE
  5
137
100
AcDbEntity
  8
0
  6
HIDDEN
 62
   174
100
AcDbLine
 10
422.071363
 20
129.595877
 30
0.0
 11
419.184612
 21
124.595877
 31
0.0
  0
LINE
  5
138
100
AcDbEntity
  8
0
  6
HIDDEN
 62
   174
100
AcDbLine
 10
311.965812
 20
152.595877
 30
0.0
 11
311.985562
 21
152.595878
 31
0.0
  0
ARC
  5
139
100
AcDbEntity
  8
0
  6
Continuous
 62
   174
100
AcDbCircle
 10
334.571363
 20
84.595877
 30
0.0
 40
3.0
100
AcDbArc
 50
-180.0
 51
0.0
  0
ARC
  5
13A
100
AcDbEntity
  8
0
  6
Continuous
 62
   174
100
AcDbCircle
 10
278.571363
 20
144.595877
 30
0.0
 40
3.0
100
AcDbArc
 50
0.0
 51
118.774077
  0
LINE
  5
13B
100
AcDbEntity
  8
0
  6
HIDDEN
 62
   174
100
AcDbLine
 10
422.071363
 20
81.595877
 30
0.0
 11
419.184612
 21
76.595877
 31
0.0
  0
ARC
  5
13C
100
AcDbEntity
  8
0
  6
Continuous
 62
   174
100
AcDbCircle
 10
290.071363
 20
84.595877
 30
0.0
 40
3.0
100
AcDbArc
 50
-180.0
 51
0.0
  0
LINE
  5
13D
100
AcDbEntity
  8
0
  6
HIDDEN
 62
   174
100
AcDbLine
 10
163.071363
 20
51.595273
 30
0.0
 11
163.071363
 21
81.594633
 31
0.0
  0
LINE
  5
13E
100
AcDbEntity
  8
0
  6
HIDDEN
 62
   174
100
AcDbLine
 10
422.071363
 20
129.595877
 30
0.0
 11
419.184612
 21
124.595877
 31
0.0
  0
LINE
  5
13F
100
AcDbEntity
  8
0
  6
HIDDEN
 62
   174
100
AcDbLine
 10
191.071363
 20
129.595877
 30
0.0
 11
193.958114
 21
124.595877
 31
0.0
  0
LINE
  5
140
100
AcDbEntity
  8
0
  6
HIDDEN
 62
   174
100
AcDbLine
 10
193.958114
 20
124.595877
 30
0.0
 11
419.184612
 21
124.595877
 31
0.0
  0
LINE
  5
141
100
AcDbEntity
  8
0
  6
HIDDEN
 62
   174
100
AcDbLine
 10
419.184612
 20
56.594954
 30
0.0
 11
419.184612
 21
76.594952
 31
0.0
  0
ARC
  5
142
100
AcDbEntity
  8
0
  6
Continuous
 62
   174
100
AcDbCircle
 10
306.571363
 20
114.595877
 30
0.0
 40
7.0
100
AcDbArc
 50
0.0
 51
180.0
  0
ARC
  5
143
100
AcDbEntity
  8
0
  6
Continuous
 62
   174
100
AcDbCircle
 10
271.071363
 20
158.595877
 30
0.0
 40
7.0
100
AcDbArc
 50
0.0
 51
180.0
  0
ARC
  5
144
100
AcDbEntity
  8
0
  6
Continuous
 62
   174
100
AcDbCircle
 10
234.071363
 20
144.595877
 30
0.0
 40
3.0
100
AcDbArc
 50
0.0
 51
118.774077
  0
LINE
  5
145
100
AcDbEntity
  8
0
  6
HIDDEN
 62
   174
100
AcDbLine
 10
390.176914
 20
76.595877
 30
0.0
 11
419.184612
 21
76.595877
 31
0.0
  0
ARC
  5
146
100
AcDbEntity
  8
0
  6
Continuous
 62
   174
100
AcDbCircle
 10
253.071363
 20
136.595877
 30
0.0
 40
7.0
100
AcDbArc
 50
-180.0
 51
0.0
  0
LINE
  5
147
100
AcDbEntity
  8
0
  6
HIDDEN
 62
   174
100
AcDbLine
 10
187.071363
 20
177.595877
 30
0.0
 11
163.071363
 21
177.595877
 31
0.0
  0
LINE
  5
148
100
AcDbEntity
  8
0
  6
HIDDEN
 62
   174
100
AcDbLine
 10
163.071363
 20
177.595877
 30
0.0
 11
191.071363
 21
177.595877
 31
0.0
  0
LINE
  5
149
100
AcDbEntity
  8
0
  6
HIDDEN
 62
   174
100
AcDbLine
 10
187.071363
 20
145.935877
 30
0.0
 11
163.071363
 21
145.935877
 31
0.0
  0
LINE
  5
14A
100
AcDbEntity
  8
0
  6
HIDDEN
 62
   174
100
AcDbLine
 10
187.071363
 20
51.595877
 30
0.0
 11
163.071363
 21
51.595877
 31
0.0
  0
LINE
  5
14B
100
AcDbEntity
  8
0
  6
HIDDEN
 62
   174
100
AcDbLine
 10
187.071363
 20
99.595877
 30
0.0
 11
163.071363
 21
99.595877
 31
0.0
  0
LINE
  5
14C
100
AcDbEntity
  8
0
  6
HIDDEN
 62
   174
100
AcDbLine
 10
191.071363
 20
51.595877
 30
0.0
 11
193.958114
 21
56.595877
 31
0.0
  0
LINE
  5
14D
100
AcDbEntity
  8
0
  6
HIDDEN
 62
   174
100
AcDbLine
 10
301.176914
 20
76.595877
 30
0.0
 11
338.465812
 21
76.595877
 31
0.0
  0
LINE
  5
14E
100
AcDbEntity
  8
0
  6
HIDDEN
 62
   174
100
AcDbLine
 10
390.176914
 20
76.595877
 30
0.0
 11
390.157164
 21
76.595875
 31
0.0
  0
LWPOLYLINE
  5
14F
100
AcDbEntity
  8
0
  6
Continuous
 62
   174
100
AcDbPolyline
 90
        9
 70
   128
 10
267.485562
 20
152.595878
 10
268.345891
 20
152.598714
 10
269.240405
 20
152.604896
 10
270.14678
 20
152.610736
 10
271.055788
 20
152.613138
 10
271.961921
 20
152.610902
 10
272.865727
 20
152.605165
 10
273.767976
 20
152.598882
 10
274.676914
 20
152.595877
  0
LINE
  5
150
100
AcDbEntity
  8
0
  6
HIDDEN
 62
   174
100
AcDbLine
 10
187.071363
 20
179.255877
 30
0.0
 11
163.071363
 21
179.255877
 31
0.0
  0
LINE
  5
151
100
AcDbEntity
  8
0
  6
HIDDEN
 62
   174
100
AcDbLine
 10
230.176914
 20
152.595877
 30
0.0
 11
267.465812
 21
152.595877
 31
0.0
  0
ARC
  5
152
100
AcDbEntity
  8
0
  6
Continuous
 62
   174
100
AcDbCircle
 10
253.071363
 20
136.595877
 30
0.0
 40
7.0
100
AcDbArc
 50
0.0
 51
180.0
  0
ARC
  5
153
100
AcDbEntity
  8
0
  6
Continuous
 62
   174
100
AcDbCircle
 10
234.071363
 20
144.595877
 30
0.0
 40
3.0
100
AcDbArc
 50
-180.0
 51
0.0
  0
LINE
  5
154
100
AcDbEntity
  8
0
  6
HIDDEN
 62
   174
100
AcDbLine
 10
191.071363
 20
81.594633
 30
0.0
 11
191.071363
 21
51.595273
 31
0.0
  0
ENDBLK
  5
155
100
AcDbEntity
  8
0
100
AcDbBlockEnd
  0
BLOCK
  5
158
100
AcDbEntity
  8
0
100
AcDbBlockBegin
  2
*B3
 70
     0
 10
0.0
 20
0.0
 30
0.0
  3
*B3
  1

  0
ARC
  5
159
100
AcDbEntity
  8
0
  6
Continuous
 62
   174
100
AcDbCircle
 10
251.071363
 20
288.633847
 30
0.0
 40
13.16
100
AcDbArc
 50
-180.0
 51
0.0
  0
ARC
  5
15A
100
AcDbEntity
  8
0
  6
Continuous
 62
   174
100
AcDbCircle
 10
251.071363
 20
288.633847
 30
0.0
 40
13.16
100
AcDbArc
 50
0.0
 51
118.805294
  0
ARC
  5
15B
100
AcDbEntity
  8
0
  6
Continuous
 62
   174
100
AcDbCircle
 10
295.571363
 20
288.633847
 30
0.0
 40
13.16
100
AcDbArc
 50
-180.0
 51
0.0
  0
ARC
  5
15C
100
AcDbEntity
  8
0
  6
Continuous
 62
   174
100
AcDbCircle
 10
295.571363
 20
288.633847
 30
0.0
 40
13.16
100
AcDbArc
 50
0.0
 51
118.789674
  0
LINE
  5
15D
100
AcDbEntity
  8
0
  6
Continuous
 62
   174
100
AcDbLine
 10
411.571363
 20
332.734867
 30
0.0
 11
411.571334
 21
332.784656
 31
0.0
  0
LWPOLYLINE
  5
15E
100
AcDbEntity
  8
0
  6
Continuous
 62
   174
100
AcDbPolyline
 90
       10
 70
   128
 10
411.571334
 20
332.784656
 10
411.55431
 20
334.022097
 10
411.519492
 20
335.171969
 10
411.486694
 20
336.200889
 10
411.467463
 20
337.16193
 10
411.467462
 20
338.105719
 10
411.486693
 20
339.066784
 10
411.519492
 20
340.095731
 10
411.55431
 20
341.245567
 10
411.571334
 20
342.483036
  0
ARC
  5
15F
100
AcDbEntity
  8
0
  6
Continuous
 62
   174
100
AcDbCircle
 10
340.071363
 20
288.633847
 30
0.0
 40
13.16
100
AcDbArc
 50
-180.0
 51
0.0
  0
ARC
  5
160
100
AcDbEntity
  8
0
  6
Continuous
 62
   174
100
AcDbCircle
 10
340.071363
 20
288.633847
 30
0.0
 40
13.16
100
AcDbArc
 50
0.0
 51
118.805294
  0
ARC
  5
161
100
AcDbEntity
  8
0
  6
Continuous
 62
   174
100
AcDbCircle
 10
206.571363
 20
288.633847
 30
0.0
 40
13.16
100
AcDbArc
 50
-180.0
 51
0.0
  0
ARC
  5
162
100
AcDbEntity
  8
0
  6
Continuous
 62
   174
100
AcDbCircle
 10
206.571363
 20
288.633847
 30
0.0
 40
13.16
100
AcDbArc
 50
0.0
 51
118.802641
  0
ARC
  5
163
100
AcDbEntity
  8
0
  6
Continuous
 62
   174
100
AcDbCircle
 10
340.071363
 20
288.633847
 30
0.0
 40
11.75
100
AcDbArc
 50
0.0
 51
180.0
  0
ARC
  5
164
100
AcDbEntity
  8
0
  6
Continuous
 62
   174
100
AcDbCircle
 10
340.071363
 20
288.633847
 30
0.0
 40
11.75
100
AcDbArc
 50
-180.0
 51
0.0
  0
ARC
  5
165
100
AcDbEntity
  8
0
  6
Continuous
 62
   174
100
AcDbCircle
 10
295.571363
 20
288.633847
 30
0.0
 40
11.75
100
AcDbArc
 50
0.0
 51
180.0
  0
ARC
  5
166
100
AcDbEntity
  8
0
  6
Continuous
 62
   174
100
AcDbCircle
 10
251.071363
 20
288.633847
 30
0.0
 40
11.75
100
AcDbArc
 50
0.0
 51
180.0
  0
ARC
  5
167
100
AcDbEntity
  8
0
  6
Continuous
 62
   174
100
AcDbCircle
 10
340.071363
 20
288.633847
 30
0.0
 40
7.0
100
AcDbArc
 50
-180.0
 51
0.0
  0
ARC
  5
168
100
AcDbEntity
  8
0
  6
Continuous
 62
   174
100
AcDbCircle
 10
251.071363
 20
288.633847
 30
0.0
 40
7.0
100
AcDbArc
 50
0.0
 51
180.0
  0
ARC
  5
169
100
AcDbEntity
  8
0
  6
Continuous
 62
   174
100
AcDbCircle
 10
251.071363
 20
288.633847
 30
0.0
 40
7.0
100
AcDbArc
 50
-180.0
 51
0.0
  0
LINE
  5
16A
100
AcDbEntity
  8
0
  6
Continuous
 62
   174
100
AcDbLine
 10
163.071363
 20
267.633847
 30
0.0
 11
163.071363
 21
357.633847
 31
0.0
  0
LWPOLYLINE
  5
16B
100
AcDbEntity
  8
0
  6
Continuous
 62
   174
100
AcDbPolyline
 90
       10
 70
   128
 10
278.071334
 20
332.784656
 10
278.05431
 20
334.022097
 10
278.019492
 20
335.171969
 10
277.986694
 20
336.200889
 10
277.967463
 20
337.16193
 10
277.967462
 20
338.105719
 10
277.986693
 20
339.066784
 10
278.019492
 20
340.095731
 10
278.05431
 20
341.245567
 10
278.071334
 20
342.483036
  0
LWPOLYLINE
  5
16C
100
AcDbEntity
  8
0
  6
Continuous
 62
   174
100
AcDbPolyline
 90
       10
 70
   128
 10
233.571334
 20
332.784656
 10
233.55431
 20
334.022097
 10
233.519492
 20
335.171969
 10
233.486694
 20
336.200889
 10
233.467463
 20
337.16193
 10
233.467462
 20
338.105719
 10
233.486693
 20
339.066784
 10
233.519492
 20
340.095731
 10
233.55431
 20
341.245567
 10
233.571334
 20
342.483036
  0
ARC
  5
16D
100
AcDbEntity
  8
0
  6
Continuous
 62
   174
100
AcDbCircle
 10
362.071363
 20
337.633847
 30
0.0
 40
11.75
100
AcDbArc
 50
-180.0
 51
0.0
  0
ARC
  5
16E
100
AcDbEntity
  8
0
  6
Continuous
 62
   174
100
AcDbCircle
 10
228.571363
 20
337.633847
 30
0.0
 40
11.75
100
AcDbArc
 50
0.0
 51
180.0
  0
LINE
  5
16F
100
AcDbEntity
  8
0
  6
Continuous
 62
   174
100
AcDbLine
 10
335.071363
 20
293.532826
 30
0.0
 11
335.071392
 21
293.483037
 31
0.0
  0
ARC
  5
170
100
AcDbEntity
  8
0
  6
Continuous
 62
   174
100
AcDbCircle
 10
406.571363
 20
337.633847
 30
0.0
 40
11.75
100
AcDbArc
 50
-180.0
 51
0.0
  0
ARC
  5
171
100
AcDbEntity
  8
0
  6
Continuous
 62
   174
100
AcDbCircle
 10
362.071363
 20
337.633847
 30
0.0
 40
7.0
100
AcDbArc
 50
0.0
 51
180.0
  0
ARC
  5
172
100
AcDbEntity
  8
0
  6
Continuous
 62
   174
100
AcDbCircle
 10
228.571363
 20
337.633847
 30
0.0
 40
7.0
100
AcDbArc
 50
-180.0
 51
0.0
  0
ARC
  5
173
100
AcDbEntity
  8
0
  6
Continuous
 62
   174
100
AcDbCircle
 10
206.571363
 20
288.633847
 30
0.0
 40
11.75
100
AcDbArc
 50
0.0
 51
180.0
  0
LINE
  5
174
100
AcDbEntity
  8
0
  6
Continuous
 62
   174
100
AcDbLine
 10
278.071363
 20
332.734867
 30
0.0
 11
278.071334
 21
332.784656
 31
0.0
  0
ARC
  5
175
100
AcDbEntity
  8
0
  6
Continuous
 62
   174
100
AcDbCircle
 10
362.071363
 20
337.633847
 30
0.0
 40
11.75
100
AcDbArc
 50
0.0
 51
180.0
  0
ARC
  5
176
100
AcDbEntity
  8
0
  6
Continuous
 62
   174
100
AcDbCircle
 10
228.571363
 20
337.633847
 30
0.0
 40
11.75
100
AcDbArc
 50
-180.0
 51
0.0
  0
LWPOLYLINE
  5
177
100
AcDbEntity
  8
0
  6
Continuous
 62
   174
100
AcDbPolyline
 90
       10
 70
   128
 10
246.071392
 20
293.483037
 10
246.088416
 20
292.245596
 10
246.123234
 20
291.095724
 10
246.156032
 20
290.066804
 10
246.175263
 20
289.105763
 10
246.175264
 20
288.161974
 10
246.156033
 20
287.200909
 10
246.123234
 20
286.171962
 10
246.088416
 20
285.022126
 10
246.071392
 20
283.784657
  0
ARC
  5
178
100
AcDbEntity
  8
0
  6
Continuous
 62
   174
100
AcDbCircle
 10
295.571363
 20
288.633847
 30
0.0
 40
11.75
100
AcDbArc
 50
-180.0
 51
0.0
  0
LINE
  5
179
100
AcDbEntity
  8
0
  6
Continuous
 62
   174
100
AcDbLine
 10
163.071363
 20
267.633847
 30
0.0
 11
450.071363
 21
267.633847
 31
0.0
  0
LINE
  5
17A
100
AcDbEntity
  8
0
  6
Continuous
 62
   174
100
AcDbLine
 10
233.571363
 20
332.734867
 30
0.0
 11
233.571334
 21
332.784656
 31
0.0
  0
ARC
  5
17B
100
AcDbEntity
  8
0
  6
Continuous
 62
   174
100
AcDbCircle
 10
362.071363
 20
337.633847
 30
0.0
 40
13.16
100
AcDbArc
 50
0.0
 51
118.802641
  0
ARC
  5
17C
100
AcDbEntity
  8
0
  6
Continuous
 62
   174
100
AcDbCircle
 10
273.071363
 20
337.633847
 30
0.0
 40
13.16
100
AcDbArc
 50
-180.0
 51
0.0
  0
ARC
  5
17D
100
AcDbEntity
  8
0
  6
Continuous
 62
   174
100
AcDbCircle
 10
273.071363
 20
337.633847
 30
0.0
 40
13.16
100
AcDbArc
 50
0.0
 51
118.805294
  0
ARC
  5
17E
100
AcDbEntity
  8
0
  6
Continuous
 62
   174
100
AcDbCircle
 10
406.571363
 20
337.633847
 30
0.0
 40
13.16
100
AcDbArc
 50
0.0
 51
118.794868
  0
ARC
  5
17F
100
AcDbEntity
  8
0
  6
Continuous
 62
   174
100
AcDbCircle
 10
406.571363
 20
337.633847
 30
0.0
 40
11.75
100
AcDbArc
 50
0.0
 51
180.0
  0
ARC
  5
180
100
AcDbEntity
  8
0
  6
Continuous
 62
   174
100
AcDbCircle
 10
384.571363
 20
288.633847
 30
0.0
 40
11.75
100
AcDbArc
 50
0.0
 51
180.0
  0
ARC
  5
181
100
AcDbEntity
  8
0
  6
Continuous
 62
   174
100
AcDbCircle
 10
384.571363
 20
288.633847
 30
0.0
 40
7.0
100
AcDbArc
 50
0.0
 51
180.0
  0
ARC
  5
182
100
AcDbEntity
  8
0
  6
Continuous
 62
   174
100
AcDbCircle
 10
206.571363
 20
288.633847
 30
0.0
 40
11.75
100
AcDbArc
 50
-180.0
 51
0.0
  0
ARC
  5
183
100
AcDbEntity
  8
0
  6
Continuous
 62
   174
100
AcDbCircle
 10
295.571363
 20
288.633847
 30
0.0
 40
7.0
100
AcDbArc
 50
0.0
 51
180.0
  0
LINE
  5
184
100
AcDbEntity
  8
0
  6
Continuous
 62
   174
100
AcDbLine
 10
163.071363
 20
357.633847
 30
0.0
 11
450.071363
 21
357.633847
 31
0.0
  0
LINE
  5
185
100
AcDbEntity
  8
0
  6
Continuous
 62
   174
100
AcDbLine
 10
367.071363
 20
332.734867
 30
0.0
 11
367.071334
 21
332.784656
 31
0.0
  0
LWPOLYLINE
  5
186
100
AcDbEntity
  8
0
  6
Continuous
 62
   174
100
AcDbPolyline
 90
       10
 70
   128
 10
367.071334
 20
332.784656
 10
367.05431
 20
334.022097
 10
367.019492
 20
335.171969
 10
366.986694
 20
336.200889
 10
366.967463
 20
337.16193
 10
366.967462
 20
338.105719
 10
366.986693
 20
339.066784
 10
367.019492
 20
340.095731
 10
367.05431
 20
341.245567
 10
367.071334
 20
342.483036
  0
ARC
  5
187
100
AcDbEntity
  8
0
  6
Continuous
 62
   174
100
AcDbCircle
 10
317.571363
 20
337.633847
 30
0.0
 40
13.16
100
AcDbArc
 50
0.0
 51
118.805294
  0
ARC
  5
188
100
AcDbEntity
  8
0
  6
Continuous
 62
   174
100
AcDbCircle
 10
228.571363
 20
337.633847
 30
0.0
 40
13.16
100
AcDbArc
 50
-180.0
 51
0.0
  0
ARC
  5
189
100
AcDbEntity
  8
0
  6
Continuous
 62
   174
100
AcDbCircle
 10
317.571363
 20
337.633847
 30
0.0
 40
11.75
100
AcDbArc
 50
-180.0
 51
0.0
  0
ARC
  5
18A
100
AcDbEntity
  8
0
  6
Continuous
 62
   174
100
AcDbCircle
 10
273.071363
 20
337.633847
 30
0.0
 40
11.75
100
AcDbArc
 50
0.0
 51
180.0
  0
ARC
  5
18B
100
AcDbEntity
  8
0
  6
Continuous
 62
   174
100
AcDbCircle
 10
273.071363
 20
337.633847
 30
0.0
 40
11.75
100
AcDbArc
 50
-180.0
 51
0.0
  0
LWPOLYLINE
  5
18C
100
AcDbEntity
  8
0
  6
Continuous
 62
   174
100
AcDbPolyline
 90
       10
 70
   128
 10
290.571392
 20
293.483037
 10
290.588416
 20
292.245596
 10
290.623234
 20
291.095724
 10
290.656032
 20
290.066804
 10
290.675263
 20
289.105763
 10
290.675264
 20
288.161974
 10
290.656033
 20
287.200909
 10
290.623234
 20
286.171962
 10
290.588416
 20
285.022126
 10
290.571392
 20
283.784657
  0
ARC
  5
18D
100
AcDbEntity
  8
0
  6
Continuous
 62
   174
100
AcDbCircle
 10
384.571363
 20
288.633847
 30
0.0
 40
13.16
100
AcDbArc
 50
-180.0
 51
0.0
  0
ARC
  5
18E
100
AcDbEntity
  8
0
  6
Continuous
 62
   174
100
AcDbCircle
 10
273.071363
 20
337.633847
 30
0.0
 40
7.0
100
AcDbArc
 50
-180.0
 51
0.0
  0
LWPOLYLINE
  5
18F
100
AcDbEntity
  8
0
  6
Continuous
 62
   174
100
AcDbPolyline
 90
       10
 70
   128
 10
379.571392
 20
293.483037
 10
379.588416
 20
292.245596
 10
379.623234
 20
291.095724
 10
379.656032
 20
290.066804
 10
379.675263
 20
289.105763
 10
379.675264
 20
288.161974
 10
379.656033
 20
287.200909
 10
379.623234
 20
286.171962
 10
379.588416
 20
285.022126
 10
379.571392
 20
283.784657
  0
ARC
  5
190
100
AcDbEntity
  8
0
  6
Continuous
 62
   174
100
AcDbCircle
 10
295.571363
 20
288.633847
 30
0.0
 40
7.0
100
AcDbArc
 50
-180.0
 51
0.0
  0
ARC
  5
191
100
AcDbEntity
  8
0
  6
Continuous
 62
   174
100
AcDbCircle
 10
206.571363
 20
288.633847
 30
0.0
 40
7.0
100
AcDbArc
 50
-180.0
 51
0.0
  0
LINE
  5
192
100
AcDbEntity
  8
0
  6
Continuous
 62
   174
100
AcDbLine
 10
450.071363
 20
267.633847
 30
0.0
 11
450.071363
 21
357.633847
 31
0.0
  0
LWPOLYLINE
  5
193
100
AcDbEntity
  8
0
  6
Continuous
 62
   174
100
AcDbPolyline
 90
       10
 70
   128
 10
322.571334
 20
332.784656
 10
322.55431
 20
334.022097
 10
322.519492
 20
335.171969
 10
322.486694
 20
336.200889
 10
322.467463
 20
337.16193
 10
322.467462
 20
338.105719
 10
322.486693
 20
339.066784
 10
322.519492
 20
340.095731
 10
322.55431
 20
341.245567
 10
322.571334
 20
342.483036
  0
ARC
  5
194
100
AcDbEntity
  8
0
  6
Continuous
 62
   174
100
AcDbCircle
 10
317.571363
 20
337.633847
 30
0.0
 40
11.75
100
AcDbArc
 50
0.0
 51
180.0
  0
ARC
  5
195
100
AcDbEntity
  8
0
  6
Continuous
 62
   174
100
AcDbCircle
 10
406.571363
 20
337.633847
 30
0.0
 40
13.16
100
AcDbArc
 50
-180.0
 51
0.0
  0
LWPOLYLINE
  5
196
100
AcDbEntity
  8
0
  6
Continuous
 62
   174
100
AcDbPolyline
 90
       10
 70
   128
 10
201.571392
 20
293.483037
 10
201.588416
 20
292.245596
 10
201.623234
 20
291.095724
 10
201.656032
 20
290.066804
 10
201.675263
 20
289.105763
 10
201.675264
 20
288.161974
 10
201.656033
 20
287.200909
 10
201.623234
 20
286.171962
 10
201.588416
 20
285.022126
 10
201.571392
 20
283.784657
  0
ARC
  5
197
100
AcDbEntity
  8
0
  6
Continuous
 62
   174
100
AcDbCircle
 10
384.571363
 20
288.633847
 30
0.0
 40
11.75
100
AcDbArc
 50
-180.0
 51
0.0
  0
ARC
  5
198
100
AcDbEntity
  8
0
  6
Continuous
 62
   174
100
AcDbCircle
 10
317.571363
 20
337.633847
 30
0.0
 40
7.0
100
AcDbArc
 50
0.0
 51
180.0
  0
ARC
  5
199
100
AcDbEntity
  8
0
  6
Continuous
 62
   174
100
AcDbCircle
 10
228.571363
 20
337.633847
 30
0.0
 40
7.0
100
AcDbArc
 50
0.0
 51
180.0
  0
ARC
  5
19A
100
AcDbEntity
  8
0
  6
Continuous
 62
   174
100
AcDbCircle
 10
340.071363
 20
288.633847
 30
0.0
 40
7.0
100
AcDbArc
 50
0.0
 51
180.0
  0
ARC
  5
19B
100
AcDbEntity
  8
0
  6
Continuous
 62
   174
100
AcDbCircle
 10
206.571363
 20
288.633847
 30
0.0
 40
7.0
100
AcDbArc
 50
0.0
 51
180.0
  0
LINE
  5
19C
100
AcDbEntity
  8
0
  6
Continuous
 62
   174
100
AcDbLine
 10
322.571363
 20
332.734867
 30
0.0
 11
322.571334
 21
332.784656
 31
0.0
  0
ARC
  5
19D
100
AcDbEntity
  8
0
  6
Continuous
 62
   174
100
AcDbCircle
 10
362.071363
 20
337.633847
 30
0.0
 40
13.16
100
AcDbArc
 50
-180.0
 51
0.0
  0
ARC
  5
19E
100
AcDbEntity
  8
0
  6
Continuous
 62
   174
100
AcDbCircle
 10
228.571363
 20
337.633847
 30
0.0
 40
13.16
100
AcDbArc
 50
0.0
 51
118.802641
  0
LINE
  5
19F
100
AcDbEntity
  8
0
  6
Continuous
 62
   174
100
AcDbLine
 10
290.571363
 20
293.532826
 30
0.0
 11
290.571392
 21
293.483037
 31
0.0
  0
ARC
  5
1A0
100
AcDbEntity
  8
0
  6
Continuous
 62
   174
100
AcDbCircle
 10
317.571363
 20
337.633847
 30
0.0
 40
7.0
100
AcDbArc
 50
-180.0
 51
0.0
  0
ARC
  5
1A1
100
AcDbEntity
  8
0
  6
Continuous
 62
   174
100
AcDbCircle
 10
273.071363
 20
337.633847
 30
0.0
 40
7.0
100
AcDbArc
 50
0.0
 51
180.0
  0
LINE
  5
1A2
100
AcDbEntity
  8
0
  6
Continuous
 62
   174
100
AcDbLine
 10
379.571363
 20
293.532826
 30
0.0
 11
379.571392
 21
293.483037
 31
0.0
  0
LWPOLYLINE
  5
1A3
100
AcDbEntity
  8
0
  6
Continuous
 62
   174
100
AcDbPolyline
 90
       10
 70
   128
 10
335.071392
 20
293.483037
 10
335.088416
 20
292.245596
 10
335.123234
 20
291.095724
 10
335.156032
 20
290.066804
 10
335.175263
 20
289.105763
 10
335.175264
 20
288.161974
 10
335.156033
 20
287.200909
 10
335.123234
 20
286.171962
 10
335.088416
 20
285.022126
 10
335.071392
 20
283.784657
  0
LINE
  5
1A4
100
AcDbEntity
  8
0
  6
Continuous
 62
   174
100
AcDbLine
 10
246.071363
 20
293.532826
 30
0.0
 11
246.071392
 21
293.483037
 31
0.0
  0
LINE
  5
1A5
100
AcDbEntity
  8
0
  6
Continuous
 62
   174
100
AcDbLine
 10
201.571363
 20
293.532826
 30
0.0
 11
201.571392
 21
293.483037
 31
0.0
  0
ARC
  5
1A6
100
AcDbEntity
  8
0
  6
Continuous
 62
   174
100
AcDbCircle
 10
406.571363
 20
337.633847
 30
0.0
 40
7.0
100
AcDbArc
 50
0.0
 51
180.0
  0
ARC
  5
1A7
100
AcDbEntity
  8
0
  6
Continuous
 62
   174
100
AcDbCircle
 10
406.571363
 20
337.633847
 30
0.0
 40
7.0
100
AcDbArc
 50
-180.0
 51
0.0
  0
ARC
  5
1A8
100
AcDbEntity
  8
0
  6
Continuous
 62
   174
100
AcDbCircle
 10
362.071363
 20
337.633847
 30
0.0
 40
7.0
100
AcDbArc
 50
-180.0
 51
0.0
  0
ARC
  5
1A9
100
AcDbEntity
  8
0
  6
Continuous
 62
   174
100
AcDbCircle
 10
251.071363
 20
288.633847
 30
0.0
 40
11.75
100
AcDbArc
 50
-180.0
 51
0.0
  0
ARC
  5
1AA
100
AcDbEntity
  8
0
  6
Continuous
 62
   174
100
AcDbCircle
 10
317.571363
 20
337.633847
 30
0.0
 40
13.16
100
AcDbArc
 50
-180.0
 51
0.0
  0
ARC
  5
1AB
100
AcDbEntity
  8
0
  6
Continuous
 62
   174
100
AcDbCircle
 10
384.571363
 20
288.633847
 30
0.0
 40
13.16
100
AcDbArc
 50
0.0
 51
118.802641
  0
ARC
  5
1AC
100
AcDbEntity
  8
0
  6
Continuous
 62
   174
100
AcDbCircle
 10
384.571363
 20
288.633847
 30
0.0
 40
7.0
100
AcDbArc
 50
-180.0
 51
0.0
  0
ENDBLK
  5
1AD
100
AcDbEntity
  8
0
100
AcDbBlockEnd
  0
BLOCK
  5
1B0
100
AcDbEntity
  8
0
100
AcDbBlockBegin
  2
*B4
 70
     0
 10
0.0
 20
0.0
 30
0.0
  3
*B4
  1

  0
LINE
  5
1B1
100
AcDbEntity
  8
0
  6
HIDDEN
 62
   172
100
AcDbLine
 10
373.571363
 20
401.633847
 30
0.0
 11
373.571363
 21
357.633847
 31
0.0
  0
LINE
  5
1B2
100
AcDbEntity
  8
0
  6
HIDDEN
 62
   172
100
AcDbLine
 10
373.571363
 20
357.633847
 30
0.0
 11
417.571363
 21
357.633847
 31
0.0
  0
LINE
  5
1B3
100
AcDbEntity
  8
0
  6
HIDDEN
 62
   172
100
AcDbLine
 10
329.071363
 20
357.633847
 30
0.0
 11
373.071363
 21
357.633847
 31
0.0
  0
LINE
  5
1B4
100
AcDbEntity
  8
0
  6
HIDDEN
 62
   172
100
AcDbLine
 10
373.071363
 20
357.633847
 30
0.0
 11
373.071363
 21
401.633847
 31
0.0
  0
LINE
  5
1B5
100
AcDbEntity
  8
0
  6
HIDDEN
 62
   172
100
AcDbLine
 10
373.071363
 20
401.633847
 30
0.0
 11
329.071363
 21
401.633847
 31
0.0
  0
LINE
  5
1B6
100
AcDbEntity
  8
0
  6
HIDDEN
 62
   172
100
AcDbLine
 10
417.571363
 20
357.633847
 30
0.0
 11
417.571363
 21
401.633847
 31
0.0
  0
LINE
  5
1B7
100
AcDbEntity
  8
0
  6
HIDDEN
 62
   172
100
AcDbLine
 10
417.571363
 20
401.633847
 30
0.0
 11
373.571363
 21
401.633847
 31
0.0
  0
LINE
  5
1B8
100
AcDbEntity
  8
0
  6
HIDDEN
 62
   172
100
AcDbLine
 10
329.071363
 20
401.633847
 30
0.0
 11
329.071363
 21
357.633847
 31
0.0
  0
LINE
  5
1B9
100
AcDbEntity
  8
0
  6
HIDDEN
 62
   172
100
AcDbLine
 10
284.571363
 20
357.633847
 30
0.0
 11
328.571363
 21
357.633847
 31
0.0
  0
LINE
  5
1BA
100
AcDbEntity
  8
0
  6
HIDDEN
 62
   172
100
AcDbLine
 10
328.571363
 20
357.633847
 30
0.0
 11
328.571363
 21
401.633847
 31
0.0
  0
LINE
  5
1BB
100
AcDbEntity
  8
0
  6
HIDDEN
 62
   172
100
AcDbLine
 10
328.571363
 20
401.633847
 30
0.0
 11
284.571363
 21
401.633847
 31
0.0
  0
LINE
  5
1BC
100
AcDbEntity
  8
0
  6
HIDDEN
 62
   172
100
AcDbLine
 10
284.571363
 20
401.633847
 30
0.0
 11
284.571363
 21
357.633847
 31
0.0
  0
LINE
  5
1BD
100
AcDbEntity
  8
0
  6
HIDDEN
 62
   172
100
AcDbLine
 10
240.071363
 20
357.633847
 30
0.0
 11
284.071363
 21
357.633847
 31
0.0
  0
LINE
  5
1BE
100
AcDbEntity
  8
0
  6
HIDDEN
 62
   172
100
AcDbLine
 10
284.071363
 20
357.633847
 30
0.0
 11
284.071363
 21
401.633847
 31
0.0
  0
LINE
  5
1BF
100
AcDbEntity
  8
0
  6
HIDDEN
 62
   172
100
AcDbLine
 10
240.071363
 20
401.633847
 30
0.0
 11
240.071363
 21
357.633847
 31
0.0
  0
LINE
  5
1C0
100
AcDbEntity
  8
0
  6
HIDDEN
 62
   172
100
AcDbLine
 10
284.071363
 20
401.633847
 30
0.0
 11
240.071363
 21
401.633847
 31
0.0
  0
LINE
  5
1C1
100
AcDbEntity
  8
0
  6
HIDDEN
 62
   172
100
AcDbLine
 10
195.571363
 20
401.633847
 30
0.0
 11
195.571363
 21
357.633847
 31
0.0
  0
LINE
  5
1C2
100
AcDbEntity
  8
0
  6
HIDDEN
 62
   172
100
AcDbLine
 10
239.571363
 20
401.633847
 30
0.0
 11
195.571363
 21
401.633847
 31
0.0
  0
LINE
  5
1C3
100
AcDbEntity
  8
0
  6
HIDDEN
 62
   172
100
AcDbLine
 10
195.571363
 20
357.633847
 30
0.0
 11
239.571363
 21
357.633847
 31
0.0
  0
LINE
  5
1C4
100
AcDbEntity
  8
0
  6
HIDDEN
 62
   172
100
AcDbLine
 10
239.571363
 20
357.633847
 30
0.0
 11
239.571363
 21
401.633847
 31
0.0
  0
ENDBLK
  5
1C5
100
AcDbEntity
  8
0
100
AcDbBlockEnd
  0
BLOCK
  5
1C8
100
AcDbEntity
  8
0
100
AcDbBlockBegin
  2
*B5
 70
     0
 10
0.0
 20
0.0
 30
0.0
  3
*B5
  1

  0
LINE
  5
1C9
100
AcDbEntity
  8
0
  6
Continuous
 62
     0
100
AcDbLine
 10
144.32343
 20
302.629198
 30
0.0
 11
144.32343
 21
253.629946
 31
0.0
  0
SOLID
  5
1CA
100
AcDbEntity
  8
0
  6
Continuous
 62
     0
100
AcDbTrace
 10
142.823696
 20
295.629305
 30
0.0
 11
144.32343
 21
288.629411
 31
0.0
 12
145.82359
 22
295.629305
 32
0.0
 13
145.82359
 23
295.629305
 33
0.0
  0
SOLID
  5
1CB
100
AcDbEntity
  8
0
  6
Continuous
 62
     0
100
AcDbTrace
 10
145.82359
 20
260.629839
 30
0.0
 11
144.32343
 21
267.629732
 31
0.0
 12
142.823696
 22
260.629839
 32
0.0
 13
142.823696
 23
260.629839
 33
0.0
  0
ENDBLK
  5
1CC
100
AcDbEntity
  8
0
100
AcDbBlockEnd
  0
BLOCK
  5
1CF
100
AcDbEntity
  8
0
100
AcDbBlockBegin
  2
*B6
 70
     0
 10
0.0
 20
0.0
 30
0.0
  3
*B6
  1

  0
LINE
  5
1D0
100
AcDbEntity
  8
0
  6
Continuous
 62
     0
100
AcDbLine
 10
144.32343
 20
337.628664
 30
0.0
 11
144.32343
 21
288.629411
 31
0.0
  0
SOLID
  5
1D1
100
AcDbEntity
  8
0
  6
Continuous
 62
     0
100
AcDbTrace
 10
145.82359
 20
330.628771
 30
0.0
 11
144.32343
 21
337.628664
 31
0.0
 12
142.823696
 22
330.628771
 32
0.0
 13
142.823696
 23
330.628771
 33
0.0
  0
SOLID
  5
1D2
100
AcDbEntity
  8
0
  6
Continuous
 62
     0
100
AcDbTrace
 10
142.823696
 20
295.629305
 30
0.0
 11
144.32343
 21
288.629411
 31
0.0
 12
145.82359
 22
295.629305
 32
0.0
 13
145.82359
 23
295.629305
 33
0.0
  0
ENDBLK
  5
1D3
100
AcDbEntity
  8
0
100
AcDbBlockEnd
  0
BLOCK
  5
1D6
100
AcDbEntity
  8
0
100
AcDbBlockBegin
  2
*B7
 70
     0
 10
0.0
 20
0.0
 30
0.0
  3
*B7
  1

  0
LINE
  5
1D7
100
AcDbEntity
  8
0
  6
Continuous
 62
     0
100
AcDbLine
 10
105.536327
 20
357.628237
 30
0.0
 11
105.536327
 21
267.629732
 31
0.0
  0
SOLID
  5
1D8
100
AcDbEntity
  8
0
  6
Continuous
 62
     0
100
AcDbTrace
 10
107.036487
 20
350.628344
 30
0.0
 11
105.536327
 21
357.628237
 31
0.0
 12
104.036593
 22
350.628344
 32
0.0
 13
104.036593
 23
350.628344
 33
0.0
  0
SOLID
  5
1D9
100
AcDbEntity
  8
0
  6
Continuous
 62
     0
100
AcDbTrace
 10
104.036593
 20
274.629625
 30
0.0
 11
105.536327
 21
267.629732
 31
0.0
 12
107.036487
 22
274.629625
 32
0.0
 13
107.036487
 23
274.629625
 33
0.0
  0
ENDBLK
  5
1DA
100
AcDbEntity
  8
0
100
AcDbBlockEnd
  0
BLOCK
  5
1DD
100
AcDbEntity
  8
0
100
AcDbBlockBegin
  2
*B8
 70
     0
 10
0.0
 20
0.0
 30
0.0
  3
*B8
  1

  0
LINE
  5
1DE
100
AcDbEntity
  8
0
  6
Continuous
 62
     0
100
AcDbLine
 10
206.607925
 20
225.996369
 30
0.0
 11
163.107555
 21
225.996369
 31
0.0
  0
SOLID
  5
1DF
100
AcDbEntity
  8
0
  6
Continuous
 62
     0
100
AcDbTrace
 10
199.607606
 20
224.496635
 30
0.0
 11
206.607925
 21
225.996369
 31
0.0
 12
199.607606
 22
227.496529
 32
0.0
 13
199.607606
 23
227.496529
 33
0.0
  0
SOLID
  5
1E0
100
AcDbEntity
  8
0
  6
Continuous
 62
     0
100
AcDbTrace
 10
170.107874
 20
227.496529
 30
0.0
 11
163.107555
 21
225.996369
 31
0.0
 12
170.107874
 22
224.496635
 32
0.0
 13
170.107874
 23
224.496635
 33
0.0
  0
ENDBLK
  5
1E1
100
AcDbEntity
  8
0
100
AcDbBlockEnd
  0
BLOCK
  5
1E4
100
AcDbEntity
  8
0
100
AcDbBlockBegin
  2
*B9
 70
     0
 10
0.0
 20
0.0
 30
0.0
  3
*B9
  1

  0
LINE
  5
1E5
100
AcDbEntity
  8
0
  6
Continuous
 62
     0
100
AcDbLine
 10
251.10755
 20
225.996369
 30
0.0
 11
206.607925
 21
225.996369
 31
0.0
  0
SOLID
  5
1E6
100
AcDbEntity
  8
0
  6
Continuous
 62
     0
100
AcDbTrace
 10
244.107656
 20
224.496635
 30
0.0
 11
251.10755
 21
225.996369
 31
0.0
 12
244.107656
 22
227.496529
 32
0.0
 13
244.107656
 23
227.496529
 33
0.0
  0
SOLID
  5
1E7
100
AcDbEntity
  8
0
  6
Continuous
 62
     0
100
AcDbTrace
 10
213.607818
 20
227.496529
 30
0.0
 11
206.607925
 21
225.996369
 31
0.0
 12
213.607818
 22
224.496635
 32
0.0
 13
213.607818
 23
224.496635
 33
0.0
  0
ENDBLK
  5
1E8
100
AcDbEntity
  8
0
100
AcDbBlockEnd
  0
BLOCK
  5
1EB
100
AcDbEntity
  8
0
100
AcDbBlockBegin
  2
*B10
 70
     0
 10
0.0
 20
0.0
 30
0.0
  3
*B10
  1

  0
LINE
  5
1EC
100
AcDbEntity
  8
0
  6
Continuous
 62
     0
100
AcDbLine
 10
295.6076
 20
225.996369
 30
0.0
 11
251.10755
 21
225.996369
 31
0.0
  0
SOLID
  5
1ED
100
AcDbEntity
  8
0
  6
Continuous
 62
     0
100
AcDbTrace
 10
288.607707
 20
224.496635
 30
0.0
 11
295.6076
 21
225.996369
 31
0.0
 12
288.607707
 22
227.496529
 32
0.0
 13
288.607707
 23
227.496529
 33
0.0
  0
SOLID
  5
1EE
100
AcDbEntity
  8
0
  6
Continuous
 62
     0
100
AcDbTrace
 10
258.107868
 20
227.496529
 30
0.0
 11
251.10755
 21
225.996369
 31
0.0
 12
258.107868
 22
224.496635
 32
0.0
 13
258.107868
 23
224.496635
 33
0.0
  0
ENDBLK
  5
1EF
100
AcDbEntity
  8
0
100
AcDbBlockEnd
  0
BLOCK
  5
1F2
100
AcDbEntity
  8
0
100
AcDbBlockBegin
  2
*B11
 70
     0
 10
0.0
 20
0.0
 30
0.0
  3
*B11
  1

  0
LINE
  5
1F3
100
AcDbEntity
  8
0
  6
Continuous
 62
     0
100
AcDbLine
 10
340.107651
 20
225.996369
 30
0.0
 11
295.6076
 21
225.996369
 31
0.0
  0
SOLID
  5
1F4
100
AcDbEntity
  8
0
  6
Continuous
 62
     0
100
AcDbTrace
 10
333.107758
 20
224.496635
 30
0.0
 11
340.107651
 21
225.996369
 31
0.0
 12
333.107758
 22
227.496529
 32
0.0
 13
333.107758
 23
227.496529
 33
0.0
  0
SOLID
  5
1F5
100
AcDbEntity
  8
0
  6
Continuous
 62
     0
100
AcDbTrace
 10
302.607493
 20
227.496529
 30
0.0
 11
295.6076
 21
225.996369
 31
0.0
 12
302.607493
 22
224.496635
 32
0.0
 13
302.607493
 23
224.496635
 33
0.0
  0
ENDBLK
  5
1F6
100
AcDbEntity
  8
0
100
AcDbBlockEnd
  0
BLOCK
  5
1F9
100
AcDbEntity
  8
0
100
AcDbBlockBegin
  2
*B12
 70
     0
 10
0.0
 20
0.0
 30
0.0
  3
*B12
  1

  0
LINE
  5
1FA
100
AcDbEntity
  8
0
  6
Continuous
 62
     0
100
AcDbLine
 10
384.607701
 20
225.996369
 30
0.0
 11
340.107651
 21
225.996369
 31
0.0
  0
SOLID
  5
1FB
100
AcDbEntity
  8
0
  6
Continuous
 62
     0
100
AcDbTrace
 10
377.607808
 20
224.496635
 30
0.0
 11
384.607701
 21
225.996369
 31
0.0
 12
377.607808
 22
227.496529
 32
0.0
 13
377.607808
 23
227.496529
 33
0.0
  0
SOLID
  5
1FC
100
AcDbEntity
  8
0
  6
Continuous
 62
     0
100
AcDbTrace
 10
347.107544
 20
227.496529
 30
0.0
 11
340.107651
 21
225.996369
 31
0.0
 12
347.107544
 22
224.496635
 32
0.0
 13
347.107544
 23
224.496635
 33
0.0
  0
ENDBLK
  5
1FD
100
AcDbEntity
  8
0
100
AcDbBlockEnd
  0
BLOCK
  5
200
100
AcDbEntity
  8
0
100
AcDbBlockBegin
  2
*B13
 70
     0
 10
0.0
 20
0.0
 30
0.0
  3
*B13
  1

  0
LINE
  5
201
100
AcDbEntity
  8
0
  6
Continuous
 62
     0
100
AcDbLine
 10
450.107431
 20
225.996369
 30
0.0
 11
384.607701
 21
225.996369
 31
0.0
  0
SOLID
  5
202
100
AcDbEntity
  8
0
  6
Continuous
 62
     0
100
AcDbTrace
 10
443.107538
 20
224.496635
 30
0.0
 11
450.107431
 21
225.996369
 31
0.0
 12
443.107538
 22
227.496529
 32
0.0
 13
443.107538
 23
227.496529
 33
0.0
  0
SOLID
  5
203
100
AcDbEntity
  8
0
  6
Continuous
 62
     0
100
AcDbTrace
 10
391.607594
 20
227.496529
 30
0.0
 11
384.607701
 21
225.996369
 31
0.0
 12
391.607594
 22
224.496635
 32
0.0
 13
391.607594
 23
224.496635
 33
0.0
  0
ENDBLK
  5
204
100
AcDbEntity
  8
0
100
AcDbBlockEnd
  0
BLOCK
  5
207
100
AcDbEntity
  8
0
100
AcDbBlockBegin
  2
*B14
 70
     0
 10
0.0
 20
0.0
 30
0.0
  3
*B14
  1

  0
LINE
  5
208
100
AcDbEntity
  8
0
  6
Continuous
 62
     0
100
AcDbLine
 10
242.607923
 20
245.996368
 30
0.0
 11
192.607713
 21
245.996368
 31
0.0
  0
SOLID
  5
209
100
AcDbEntity
  8
0
  6
Continuous
 62
     0
100
AcDbTrace
 10
235.607604
 20
247.496102
 30
0.0
 11
228.607711
 21
245.996368
 31
0.0
 12
235.607604
 22
244.496208
 32
0.0
 13
235.607604
 23
244.496208
 33
0.0
  0
SOLID
  5
20A
100
AcDbEntity
  8
0
  6
Continuous
 62
     0
100
AcDbTrace
 10
199.607606
 20
244.496208
 30
0.0
 11
206.607925
 21
245.996368
 31
0.0
 12
199.607606
 22
247.496102
 32
0.0
 13
199.607606
 23
247.496102
 33
0.0
  0
ENDBLK
  5
20B
100
AcDbEntity
  8
0
100
AcDbBlockEnd
  0
BLOCK
  5
20E
100
AcDbEntity
  8
0
100
AcDbBlockBegin
  2
*B15
 70
     0
 10
0.0
 20
0.0
 30
0.0
  3
*B15
  1

  0
LINE
  5
20F
100
AcDbEntity
  8
0
  6
Continuous
 62
     0
100
AcDbLine
 10
269.857628
 20
245.996368
 30
0.0
 11
344.332355
 21
245.996368
 31
0.0
  0
SOLID
  5
210
100
AcDbEntity
  8
0
  6
Continuous
 62
     0
100
AcDbTrace
 10
276.857522
 20
244.496208
 30
0.0
 11
283.85784
 21
245.996368
 31
0.0
 12
276.857522
 22
247.496102
 32
0.0
 13
276.857522
 23
247.496102
 33
0.0
  0
SOLID
  5
211
100
AcDbEntity
  8
0
  6
Continuous
 62
     0
100
AcDbTrace
 10
314.357679
 20
247.496102
 30
0.0
 11
307.357786
 21
245.996368
 31
0.0
 12
314.357679
 22
244.496208
 32
0.0
 13
314.357679
 23
244.496208
 33
0.0
  0
ENDBLK
  5
212
100
AcDbEntity
  8
0
100
AcDbBlockEnd
  0
BLOCK
  5
215
100
AcDbEntity
  8
0
100
AcDbBlockBegin
  2
*B16
 70
     0
 10
0.0
 20
0.0
 30
0.0
  3
*B16
  1

  0
LINE
  5
216
100
AcDbEntity
  8
0
  6
Continuous
 62
     0
100
AcDbLine
 10
189.107766
 20
22.861154
 30
0.0
 11
149.107769
 21
22.861154
 31
0.0
  0
SOLID
  5
217
100
AcDbEntity
  8
0
  6
Continuous
 62
     0
100
AcDbTrace
 10
182.107873
 20
24.361314
 30
0.0
 11
175.107554
 21
22.861154
 31
0.0
 12
182.107873
 22
21.36142
 32
0.0
 13
182.107873
 23
21.36142
 33
0.0
  0
SOLID
  5
218
100
AcDbEntity
  8
0
  6
Continuous
 62
     0
100
AcDbTrace
 10
156.107662
 20
21.36142
 30
0.0
 11
163.107555
 21
22.861154
 31
0.0
 12
156.107662
 22
24.361314
 32
0.0
 13
156.107662
 23
24.361314
 33
0.0
  0
ENDBLK
  5
219
100
AcDbEntity
  8
0
100
AcDbBlockEnd
  0
BLOCK
  5
21C
100
AcDbEntity
  8
0
100
AcDbBlockBegin
  2
*B17
 70
     0
 10
0.0
 20
0.0
 30
0.0
  3
*B17
  1

  0
LINE
  5
21D
100
AcDbEntity
  8
0
  6
Continuous
 62
     0
100
AcDbLine
 10
424.107646
 20
22.861154
 30
0.0
 11
464.107643
 21
22.861154
 31
0.0
  0
SOLID
  5
21E
100
AcDbEntity
  8
0
  6
Continuous
 62
     0
100
AcDbTrace
 10
431.107539
 20
21.36142
 30
0.0
 11
438.107432
 21
22.861154
 31
0.0
 12
431.107539
 22
24.361314
 32
0.0
 13
431.107539
 23
24.361314
 33
0.0
  0
SOLID
  5
21F
100
AcDbEntity
  8
0
  6
Continuous
 62
     0
100
AcDbTrace
 10
457.10775
 20
24.361314
 30
0.0
 11
450.107431
 21
22.861154
 31
0.0
 12
457.10775
 22
21.36142
 32
0.0
 13
457.10775
 23
21.36142
 33
0.0
  0
ENDBLK
  5
220
100
AcDbEntity
  8
0
100
AcDbBlockEnd
  0
BLOCK
  5
223
100
AcDbEntity
  8
0
100
AcDbBlockBegin
  2
*B18
 70
     0
 10
0.0
 20
0.0
 30
0.0
  3
*B18
  1

  0
LINE
  5
224
100
AcDbEntity
  8
0
  6
Continuous
 62
     0
100
AcDbLine
 10
105.536327
 20
357.628237
 30
0.0
 11
105.536327
 21
401.627383
 31
0.0
  0
SOLID
  5
225
100
AcDbEntity
  8
0
  6
Continuous
 62
     0
100
AcDbTrace
 10
104.036593
 20
364.62813
 30
0.0
 11
105.536327
 21
357.628237
 31
0.0
 12
107.036487
 22
364.62813
 32
0.0
 13
107.036487
 23
364.62813
 33
0.0
  0
SOLID
  5
226
100
AcDbEntity
  8
0
  6
Continuous
 62
     0
100
AcDbTrace
 10
107.036487
 20
394.627916
 30
0.0
 11
105.536327
 21
401.627383
 31
0.0
 12
104.036593
 22
394.627916
 32
0.0
 13
104.036593
 23
394.627916
 33
0.0
  0
ENDBLK
  5
227
100
AcDbEntity
  8
0
100
AcDbBlockEnd
  0
BLOCK
  5
22A
100
AcDbEntity
  8
0
100
AcDbBlockBegin
  2
*B19
 70
     0
 10
0.0
 20
0.0
 30
0.0
  3
*B19
  1

  0
LINE
  5
22B
100
AcDbEntity
  8
0
  6
Continuous
 62
     0
100
AcDbLine
 10
107.465469
 20
44.59538
 30
0.0
 11
107.465469
 21
184.593244
 31
0.0
  0
SOLID
  5
22C
100
AcDbEntity
  8
0
  6
Continuous
 62
     0
100
AcDbTrace
 10
105.965309
 20
51.595273
 30
0.0
 11
107.465469
 21
44.59538
 31
0.0
 12
108.965628
 22
51.595273
 32
0.0
 13
108.965628
 23
51.595273
 33
0.0
  0
SOLID
  5
22D
100
AcDbEntity
  8
0
  6
Continuous
 62
     0
100
AcDbTrace
 10
108.965628
 20
177.59335
 30
0.0
 11
107.465469
 21
184.593244
 31
0.0
 12
105.965309
 22
177.59335
 32
0.0
 13
105.965309
 23
177.59335
 33
0.0
  0
ENDBLK
  5
22E
100
AcDbEntity
  8
0
100
AcDbBlockEnd
  0
BLOCK
  5
231
100
AcDbEntity
  8
0
100
AcDbBlockBegin
  2
*B20
 70
     0
 10
0.0
 20
0.0
 30
0.0
  3
*B20
  1

  0
LINE
  5
232
100
AcDbEntity
  8
0
  6
Continuous
 62
     0
100
AcDbLine
 10
240.03616
 20
144.593672
 30
0.0
 11
240.03616
 21
84.594526
 31
0.0
  0
SOLID
  5
233
100
AcDbEntity
  8
0
  6
Continuous
 62
     0
100
AcDbTrace
 10
241.536319
 20
137.593778
 30
0.0
 11
240.03616
 21
144.593672
 31
0.0
 12
238.536426
 22
137.593778
 32
0.0
 13
238.536426
 23
137.593778
 33
0.0
  0
SOLID
  5
234
100
AcDbEntity
  8
0
  6
Continuous
 62
     0
100
AcDbTrace
 10
238.536426
 20
91.594419
 30
0.0
 11
240.03616
 21
84.594526
 31
0.0
 12
241.536319
 22
91.594419
 32
0.0
 13
241.536319
 23
91.594419
 33
0.0
  0
ENDBLK
  5
235
100
AcDbEntity
  8
0
100
AcDbBlockEnd
  0
BLOCK
  5
238
100
AcDbEntity
  8
0
100
AcDbBlockBegin
  2
*B21
 70
     0
 10
0.0
 20
0.0
 30
0.0
  3
*B21
  1

  0
LINE
  5
239
100
AcDbEntity
  8
0
  6
Continuous
 62
     0
100
AcDbLine
 10
487.465446
 20
158.593458
 30
0.0
 11
487.465446
 21
70.59474
 31
0.0
  0
SOLID
  5
23A
100
AcDbEntity
  8
0
  6
Continuous
 62
     0
100
AcDbTrace
 10
488.96518
 20
151.593565
 30
0.0
 11
487.465446
 21
158.593458
 31
0.0
 12
485.965286
 22
151.593565
 32
0.0
 13
485.965286
 23
151.593565
 33
0.0
  0
SOLID
  5
23B
100
AcDbEntity
  8
0
  6
Continuous
 62
     0
100
AcDbTrace
 10
485.965286
 20
77.594633
 30
0.0
 11
487.465446
 21
70.59474
 31
0.0
 12
488.96518
 22
77.594633
 32
0.0
 13
488.96518
 23
77.594633
 33
0.0
  0
ENDBLK
  5
23C
100
AcDbEntity
  8
0
100
AcDbBlockEnd
  0
BLOCK
  5
23F
100
AcDbEntity
  8
0
100
AcDbBlockBegin
  2
*B22
 70
     0
 10
0.0
 20
0.0
 30
0.0
  3
*B22
  1

  0
LINE
  5
240
100
AcDbEntity
  8
0
  6
Continuous
 62
     0
100
AcDbLine
 10
329.465243
 20
136.593672
 30
0.0
 11
329.465243
 21
92.594526
 31
0.0
  0
SOLID
  5
241
100
AcDbEntity
  8
0
  6
Continuous
 62
     0
100
AcDbTrace
 10
330.965402
 20
129.593779
 30
0.0
 11
329.465243
 21
136.593672
 31
0.0
 12
327.965509
 22
129.593779
 32
0.0
 13
327.965509
 23
129.593779
 33
0.0
  0
SOLID
  5
242
100
AcDbEntity
  8
0
  6
Continuous
 62
     0
100
AcDbTrace
 10
327.965509
 20
99.594419
 30
0.0
 11
329.465243
 21
92.594526
 31
0.0
 12
330.965402
 22
99.594419
 32
0.0
 13
330.965402
 23
99.594419
 33
0.0
  0
ENDBLK
  5
243
100
AcDbEntity
  8
0
100
AcDbBlockEnd
  0
BLOCK
  5
246
100
AcDbEntity
  8
0
100
AcDbBlockBegin
  2
*B23
 70
     0
 10
0.0
 20
0.0
 30
0.0
  3
*B23
  1

  0
LINE
  5
247
100
AcDbEntity
  8
0
  6
Continuous
 62
     0
100
AcDbLine
 10
201.107765
 20
22.999892
 30
0.0
 11
234.10787
 21
22.999892
 31
0.0
  0
SOLID
  5
248
100
AcDbEntity
  8
0
  6
Continuous
 62
     0
100
AcDbTrace
 10
208.107659
 20
24.499626
 30
0.0
 11
201.107765
 21
22.999892
 31
0.0
 12
208.107659
 22
21.499733
 32
0.0
 13
208.107659
 23
21.499733
 33
0.0
  0
SOLID
  5
249
100
AcDbEntity
  8
0
  6
Continuous
 62
     0
100
AcDbTrace
 10
227.107551
 20
21.499733
 30
0.0
 11
234.10787
 21
22.999892
 31
0.0
 12
227.107551
 22
24.499626
 32
0.0
 13
227.107551
 23
24.499626
 33
0.0
  0
ENDBLK
  5
24A
100
AcDbEntity
  8
0
100
AcDbBlockEnd
  0
BLOCK
  5
24D
100
AcDbEntity
  8
0
100
AcDbBlockBegin
  2
*B24
 70
     0
 10
0.0
 20
0.0
 30
0.0
  3
*B24
  1

  0
LINE
  5
24E
100
AcDbEntity
  8
0
  6
Continuous
 62
     0
100
AcDbLine
 10
145.465254
 20
80.594527
 30
0.0
 11
145.465254
 21
30.595593
 31
0.0
  0
SOLID
  5
24F
100
AcDbEntity
  8
0
  6
Continuous
 62
     0
100
AcDbTrace
 10
143.96552
 20
73.594633
 30
0.0
 11
145.465254
 21
66.595166
 31
0.0
 12
146.965413
 22
73.594633
 32
0.0
 13
146.965413
 23
73.594633
 33
0.0
  0
SOLID
  5
250
100
AcDbEntity
  8
0
  6
Continuous
 62
     0
100
AcDbTrace
 10
146.965413
 20
37.595487
 30
0.0
 11
145.465254
 21
44.59538
 31
0.0
 12
143.96552
 22
37.595487
 32
0.0
 13
143.96552
 23
37.595487
 33
0.0
  0
ENDBLK
  5
251
100
AcDbEntity
  8
0
100
AcDbBlockEnd
  0
BLOCK
  5
254
100
AcDbEntity
  8
0
100
AcDbBlockBegin
  2
*B25
 70
     0
 10
0.0
 20
0.0
 30
0.0
  3
*B25
  1

  0
LINE
  5
255
100
AcDbEntity
  8
0
  6
Continuous
 62
     0
100
AcDbLine
 10
306.607493
 20
202.85859
 30
0.0
 11
262.107868
 21
202.85859
 31
0.0
  0
SOLID
  5
256
100
AcDbEntity
  8
0
  6
Continuous
 62
     0
100
AcDbTrace
 10
299.6076
 20
201.35843
 30
0.0
 11
306.607493
 21
202.85859
 31
0.0
 12
299.6076
 22
204.358324
 32
0.0
 13
299.6076
 23
204.358324
 33
0.0
  0
SOLID
  5
257
100
AcDbEntity
  8
0
  6
Continuous
 62
     0
100
AcDbTrace
 10
269.107761
 20
204.358324
 30
0.0
 11
262.107868
 21
202.85859
 31
0.0
 12
269.107761
 22
201.35843
 32
0.0
 13
269.107761
 23
201.35843
 33
0.0
  0
ENDBLK
  5
258
100
AcDbEntity
  8
0
100
AcDbBlockEnd
  0
BLOCK
  5
25B
100
AcDbEntity
  8
0
100
AcDbBlockBegin
  2
*B26
 70
     0
 10
0.0
 20
0.0
 30
0.0
  3
*B26
  1

  0
LINE
  5
25C
100
AcDbEntity
  8
0
  6
Continuous
 62
     0
100
AcDbLine
 10
306.607493
 20
202.85859
 30
0.0
 11
351.107544
 21
202.85859
 31
0.0
  0
SOLID
  5
25D
100
AcDbEntity
  8
0
  6
Continuous
 62
     0
100
AcDbTrace
 10
313.607812
 20
204.358324
 30
0.0
 11
306.607493
 21
202.85859
 31
0.0
 12
313.607812
 22
201.35843
 32
0.0
 13
313.607812
 23
201.35843
 33
0.0
  0
SOLID
  5
25E
100
AcDbEntity
  8
0
  6
Continuous
 62
     0
100
AcDbTrace
 10
344.107651
 20
201.35843
 30
0.0
 11
351.107544
 21
202.85859
 31
0.0
 12
344.107651
 22
204.358324
 32
0.0
 13
344.107651
 23
204.358324
 33
0.0
  0
ENDBLK
  5
25F
100
AcDbEntity
  8
0
100
AcDbBlockEnd
  0
BLOCK
  5
262
100
AcDbEntity
  8
0
100
AcDbBlockBegin
  2
*B27
 70
     0
 10
0.0
 20
0.0
 30
0.0
  3
*B27
  1

  0
LINE
  5
263
100
AcDbEntity
  8
0
  6
Continuous
 62
     0
100
AcDbLine
 10
145.465254
 20
114.594312
 30
0.0
 11
145.465254
 21
66.595166
 31
0.0
  0
SOLID
  5
264
100
AcDbEntity
  8
0
  6
Continuous
 62
     0
100
AcDbTrace
 10
146.965413
 20
107.594419
 30
0.0
 11
145.465254
 21
114.594312
 31
0.0
 12
143.96552
 22
107.594419
 32
0.0
 13
143.96552
 23
107.594419
 33
0.0
  0
SOLID
  5
265
100
AcDbEntity
  8
0
  6
Continuous
 62
     0
100
AcDbTrace
 10
143.96552
 20
73.594633
 30
0.0
 11
145.465254
 21
66.595166
 31
0.0
 12
146.965413
 22
73.594633
 32
0.0
 13
146.965413
 23
73.594633
 33
0.0
  0
ENDBLK
  5
266
100
AcDbEntity
  8
0
100
AcDbBlockEnd
  0
BLOCK
  5
269
100
AcDbEntity
  8
0
100
AcDbBlockBegin
  2
*B28
 70
     0
 10
0.0
 20
0.0
 30
0.0
  3
*B28
  1

  0
LINE
  5
26A
100
AcDbEntity
  8
0
  6
Continuous
 62
     0
100
AcDbLine
 10
284.51025
 20
23.138205
 30
0.0
 11
239.10755
 21
23.138205
 31
0.0
  0
SOLID
  5
26B
100
AcDbEntity
  8
0
  6
Continuous
 62
     0
100
AcDbTrace
 10
269.107761
 20
24.638364
 30
0.0
 11
262.107868
 21
23.138205
 31
0.0
 12
269.107761
 22
21.638045
 32
0.0
 13
269.107761
 23
21.638045
 33
0.0
  0
SOLID
  5
26C
100
AcDbEntity
  8
0
  6
Continuous
 62
     0
100
AcDbTrace
 10
246.107869
 20
21.638045
 30
0.0
 11
253.107762
 21
23.138205
 31
0.0
 12
246.107869
 22
24.638364
 32
0.0
 13
246.107869
 23
24.638364
 33
0.0
  0
ENDBLK
  5
26D
100
AcDbEntity
  8
0
100
AcDbBlockEnd
  0
BLOCK
  5
270
100
AcDbEntity
  8
0
100
AcDbBlockBegin
  2
*B29
 70
     0
 10
0.0
 20
0.0
 30
0.0
  3
*B29
  1

  0
LINE
  5
271
100
AcDbEntity
  8
0
  6
Continuous
 62
     0
100
AcDbLine
 10
469.465234
 20
90.594739
 30
0.0
 11
469.465234
 21
138.593885
 31
0.0
  0
SOLID
  5
272
100
AcDbEntity
  8
0
  6
Continuous
 62
     0
100
AcDbTrace
 10
467.9655
 20
97.594632
 30
0.0
 11
469.465234
 21
90.594739
 31
0.0
 12
470.965394
 22
97.594632
 32
0.0
 13
470.965394
 23
97.594632
 33
0.0
  0
SOLID
  5
273
100
AcDbEntity
  8
0
  6
Continuous
 62
     0
100
AcDbTrace
 10
470.965394
 20
131.593992
 30
0.0
 11
469.465234
 21
138.593885
 31
0.0
 12
467.9655
 22
131.593992
 32
0.0
 13
467.9655
 23
131.593992
 33
0.0
  0
ENDBLK
  5
274
100
AcDbEntity
  8
0
100
AcDbBlockEnd
  0
BLOCK
  5
277
100
AcDbEntity
  8
0
100
AcDbBlockBegin
  2
*B30
 70
     0
 10
0.0
 20
0.0
 30
0.0
  3
*B30
  1

  0
LINE
  5
278
100
AcDbEntity
  8
0
  6
Continuous
 62
     0
100
AcDbLine
 10
395.607594
 20
202.85859
 30
0.0
 11
450.107431
 21
202.85859
 31
0.0
  0
SOLID
  5
279
100
AcDbEntity
  8
0
  6
Continuous
 62
     0
100
AcDbTrace
 10
402.607487
 20
204.358324
 30
0.0
 11
395.607594
 21
202.85859
 31
0.0
 12
402.607487
 22
201.35843
 32
0.0
 13
402.607487
 23
201.35843
 33
0.0
  0
SOLID
  5
27A
100
AcDbEntity
  8
0
  6
Continuous
 62
     0
100
AcDbTrace
 10
443.107538
 20
201.35843
 30
0.0
 11
450.107431
 21
202.85859
 31
0.0
 12
443.107538
 22
204.358324
 32
0.0
 13
443.107538
 23
204.358324
 33
0.0
  0
ENDBLK
  5
27B
100
AcDbEntity
  8
0
100
AcDbBlockEnd
  0
BLOCK
  5
27E
100
AcDbEntity
  8
0
100
AcDbBlockBegin
  2
*B31
 70
     0
 10
0.0
 20
0.0
 30
0.0
  3
*B31
  1

  0
LINE
  5
27F
100
AcDbEntity
  8
0
  6
Continuous
 62
     0
100
AcDbLine
 10
351.107544
 20
202.85859
 30
0.0
 11
395.607594
 21
202.85859
 31
0.0
  0
SOLID
  5
280
100
AcDbEntity
  8
0
  6
Continuous
 62
     0
100
AcDbTrace
 10
358.107862
 20
204.358324
 30
0.0
 11
351.107544
 21
202.85859
 31
0.0
 12
358.107862
 22
201.35843
 32
0.0
 13
358.107862
 23
201.35843
 33
0.0
  0
SOLID
  5
281
100
AcDbEntity
  8
0
  6
Continuous
 62
     0
100
AcDbTrace
 10
388.607701
 20
201.35843
 30
0.0
 11
395.607594
 21
202.85859
 31
0.0
 12
388.607701
 22
204.358324
 32
0.0
 13
388.607701
 23
204.358324
 33
0.0
  0
ENDBLK
  5
282
100
AcDbEntity
  8
0
100
AcDbBlockEnd
  0
BLOCK
  5
285
100
AcDbEntity
  8
0
100
AcDbBlockBegin
  2
*B32
 70
     0
 10
0.0
 20
0.0
 30
0.0
  3
*B32
  1

  0
LINE
  5
286
100
AcDbEntity
  8
0
  6
Continuous
 62
     0
100
AcDbLine
 10
145.465254
 20
162.593458
 30
0.0
 11
145.465254
 21
114.594312
 31
0.0
  0
SOLID
  5
287
100
AcDbEntity
  8
0
  6
Continuous
 62
     0
100
AcDbTrace
 10
146.965413
 20
155.593565
 30
0.0
 11
145.465254
 21
162.593458
 31
0.0
 12
143.96552
 22
155.593565
 32
0.0
 13
143.96552
 23
155.593565
 33
0.0
  0
SOLID
  5
288
100
AcDbEntity
  8
0
  6
Continuous
 62
     0
100
AcDbTrace
 10
143.96552
 20
121.594205
 30
0.0
 11
145.465254
 21
114.594312
 31
0.0
 12
146.965413
 22
121.594205
 32
0.0
 13
146.965413
 23
121.594205
 33
0.0
  0
ENDBLK
  5
289
100
AcDbEntity
  8
0
100
AcDbBlockEnd
  0
BLOCK
  5
28C
100
AcDbEntity
  8
0
100
AcDbBlockBegin
  2
*B33
 70
     0
 10
0.0
 20
0.0
 30
0.0
  3
*B33
  1

  0
LINE
  5
28D
100
AcDbEntity
  8
0
  6
Continuous
 62
     0
100
AcDbLine
 10
292.607707
 20
23.138205
 30
0.0
 11
338.510034
 21
23.138205
 31
0.0
  0
SOLID
  5
28E
100
AcDbEntity
  8
0
  6
Continuous
 62
     0
100
AcDbTrace
 10
299.6076
 20
21.638045
 30
0.0
 11
306.607493
 21
23.138205
 31
0.0
 12
299.6076
 22
24.638364
 32
0.0
 13
299.6076
 23
24.638364
 33
0.0
  0
SOLID
  5
28F
100
AcDbEntity
  8
0
  6
Continuous
 62
     0
100
AcDbTrace
 10
322.607492
 20
24.638364
 30
0.0
 11
315.607599
 21
23.138205
 31
0.0
 12
322.607492
 22
21.638045
 32
0.0
 13
322.607492
 23
21.638045
 33
0.0
  0
ENDBLK
  5
290
100
AcDbEntity
  8
0
100
AcDbBlockEnd
  0
BLOCK
  5
293
100
AcDbEntity
  8
0
100
AcDbBlockBegin
  2
*B34
 70
     0
 10
0.0
 20
0.0
 30
0.0
  3
*B34
  1

  0
LINE
  5
294
100
AcDbEntity
  8
0
  6
Continuous
 62
     0
100
AcDbLine
 10
217.607818
 20
202.85859
 30
0.0
 11
163.107555
 21
202.85859
 31
0.0
  0
SOLID
  5
295
100
AcDbEntity
  8
0
  6
Continuous
 62
     0
100
AcDbTrace
 10
210.607924
 20
201.35843
 30
0.0
 11
217.607818
 21
202.85859
 31
0.0
 12
210.607924
 22
204.358324
 32
0.0
 13
210.607924
 23
204.358324
 33
0.0
  0
SOLID
  5
296
100
AcDbEntity
  8
0
  6
Continuous
 62
     0
100
AcDbTrace
 10
170.107874
 20
204.358324
 30
0.0
 11
163.107555
 21
202.85859
 31
0.0
 12
170.107874
 22
201.35843
 32
0.0
 13
170.107874
 23
201.35843
 33
0.0
  0
ENDBLK
  5
297
100
AcDbEntity
  8
0
100
AcDbBlockEnd
  0
BLOCK
  5
29A
100
AcDbEntity
  8
0
100
AcDbBlockBegin
  2
*B35
 70
     0
 10
0.0
 20
0.0
 30
0.0
  3
*B35
  1

  0
LINE
  5
29B
100
AcDbEntity
  8
0
  6
Continuous
 62
     0
100
AcDbLine
 10
217.607818
 20
202.85859
 30
0.0
 11
262.107868
 21
202.85859
 31
0.0
  0
SOLID
  5
29C
100
AcDbEntity
  8
0
  6
Continuous
 62
     0
100
AcDbTrace
 10
224.607711
 20
204.358324
 30
0.0
 11
217.607818
 21
202.85859
 31
0.0
 12
224.607711
 22
201.35843
 32
0.0
 13
224.607711
 23
201.35843
 33
0.0
  0
SOLID
  5
29D
100
AcDbEntity
  8
0
  6
Continuous
 62
     0
100
AcDbTrace
 10
255.107549
 20
201.35843
 30
0.0
 11
262.107868
 21
202.85859
 31
0.0
 12
255.107549
 22
204.358324
 32
0.0
 13
255.107549
 23
204.358324
 33
0.0
  0
ENDBLK
  5
29E
100
AcDbEntity
  8
0
100
AcDbBlockEnd
  0
BLOCK
  5
2A1
100
AcDbEntity
  8
0
100
AcDbBlockBegin
  2
*B36
 70
     0
 10
0.0
 20
0.0
 30
0.0
  3
*B36
  1

  0
LINE
  5
2A2
100
AcDbEntity
  8
0
  6
Continuous
 62
     0
100
AcDbLine
 10
127.465467
 20
85.594633
 30
0.0
 11
127.465467
 21
143.593565
 31
0.0
  0
SOLID
  5
2A3
100
AcDbEntity
  8
0
  6
Continuous
 62
     0
100
AcDbTrace
 10
128.965627
 20
92.594526
 30
0.0
 11
127.465467
 21
99.594419
 31
0.0
 12
125.965308
 22
92.594526
 32
0.0
 13
125.965308
 23
92.594526
 33
0.0
  0
SOLID
  5
2A4
100
AcDbEntity
  8
0
  6
Continuous
 62
     0
100
AcDbTrace
 10
125.965308
 20
136.593672
 30
0.0
 11
127.465467
 21
129.593779
 31
0.0
 12
128.965627
 22
136.593672
 32
0.0
 13
128.965627
 23
136.593672
 33
0.0
  0
ENDBLK
  5
2A5
100
AcDbEntity
  8
0
100
AcDbBlockEnd
  0
BLOCK
  5
2A8
100
AcDbEntity
  8
0
100
AcDbBlockBegin
  2
*B37
 70
     0
 10
0.0
 20
0.0
 30
0.0
  3
*B37
  1

  0
LINE
  5
2A9
100
AcDbEntity
  8
0
  6
Continuous
 62
     0
100
AcDbLine
 10
365.607809
 20
23.138205
 30
0.0
 11
417.016679
 21
23.138205
 31
0.0
  0
SOLID
  5
2AA
100
AcDbEntity
  8
0
  6
Continuous
 62
     0
100
AcDbTrace
 10
372.607702
 20
21.638045
 30
0.0
 11
379.607595
 21
23.138205
 31
0.0
 12
372.607702
 22
24.638364
 32
0.0
 13
372.607702
 23
24.638364
 33
0.0
  0
SOLID
  5
2AB
100
AcDbEntity
  8
0
  6
Continuous
 62
     0
100
AcDbTrace
 10
400.6077
 20
24.638364
 30
0.0
 11
393.607807
 21
23.138205
 31
0.0
 12
400.6077
 22
21.638045
 32
0.0
 13
400.6077
 23
21.638045
 33
0.0
  0
ENDBLK
  5
2AC
100
AcDbEntity
  8
0
100
AcDbBlockEnd
  0
BLOCK
  5
2AF
100
AcDbEntity
  8
0
100
AcDbBlockBegin
  2
*B38
 70
     0
 10
0.0
 20
0.0
 30
0.0
  3
*B38
  1

  0
LINE
  5
2B0
100
AcDbEntity
  8
0
  6
Continuous
 62
     8
100
AcDbLine
 10
290.107867
 20
79.094793
 30
0.0
 11
290.107867
 21
81.594633
 31
0.0
  0
LINE
  5
2B1
100
AcDbEntity
  8
0
  6
Continuous
 62
     8
100
AcDbLine
 10
290.107867
 20
87.59442
 30
0.0
 11
290.107867
 21
90.094686
 31
0.0
  0
ENDBLK
  5
2B2
100
AcDbEntity
  8
0
100
AcDbBlockEnd
  0
BLOCK
  5
2B5
100
AcDbEntity
  8
0
100
AcDbBlockBegin
  2
*B39
 70
     0
 10
0.0
 20
0.0
 30
0.0
  3
*B39
  1

  0
LINE
  5
2B6
100
AcDbEntity
  8
0
  6
Continuous
 62
     8
100
AcDbLine
 10
340.107651
 20
223.996582
 30
0.0
 11
340.107651
 21
227.996582
 31
0.0
  0
LINE
  5
2B7
100
AcDbEntity
  8
0
  6
Continuous
 62
     8
100
AcDbLine
 10
340.107651
 20
227.996582
 30
0.0
 11
340.107651
 21
238.654736
 31
0.0
  0
LINE
  5
2B8
100
AcDbEntity
  8
0
  6
Continuous
 62
     8
100
AcDbLine
 10
340.107651
 20
240.654949
 30
0.0
 11
340.107651
 21
241.65463
 31
0.0
  0
LINE
  5
2B9
100
AcDbEntity
  8
0
  6
Continuous
 62
     8
100
AcDbLine
 10
340.107651
 20
243.654842
 30
0.0
 11
340.107651
 21
254.312997
 31
0.0
  0
LINE
  5
2BA
100
AcDbEntity
  8
0
  6
Continuous
 62
     8
100
AcDbLine
 10
340.107651
 20
256.312784
 30
0.0
 11
340.107651
 21
257.31289
 31
0.0
  0
LINE
  5
2BB
100
AcDbEntity
  8
0
  6
Continuous
 62
     8
100
AcDbLine
 10
340.107651
 20
259.313103
 30
0.0
 11
340.107651
 21
269.971257
 31
0.0
  0
LINE
  5
2BC
100
AcDbEntity
  8
0
  6
Continuous
 62
     8
100
AcDbLine
 10
340.107651
 20
271.971045
 30
0.0
 11
340.107651
 21
272.971151
 31
0.0
  0
LINE
  5
2BD
100
AcDbEntity
  8
0
  6
Continuous
 62
     8
100
AcDbLine
 10
340.107651
 20
274.970938
 30
0.0
 11
340.107651
 21
285.629518
 31
0.0
  0
LINE
  5
2BE
100
AcDbEntity
  8
0
  6
Continuous
 62
     8
100
AcDbLine
 10
340.107651
 20
291.629305
 30
0.0
 11
340.107651
 21
303.379065
 31
0.0
  0
ENDBLK
  5
2BF
100
AcDbEntity
  8
0
100
AcDbBlockEnd
  0
BLOCK
  5
2C2
100
AcDbEntity
  8
0
100
AcDbBlockBegin
  2
*B40
 70
     0
 10
0.0
 20
0.0
 30
0.0
  3
*B40
  1

  0
LINE
  5
2C3
100
AcDbEntity
  8
0
  6
Continuous
 62
     8
100
AcDbLine
 10
208.607712
 20
126.593885
 30
0.0
 11
208.607712
 21
133.593779
 31
0.0
  0
LINE
  5
2C4
100
AcDbEntity
  8
0
  6
Continuous
 62
     8
100
AcDbLine
 10
208.607712
 20
139.593991
 30
0.0
 11
208.607712
 21
146.593884
 31
0.0
  0
ENDBLK
  5
2C5
100
AcDbEntity
  8
0
100
AcDbBlockEnd
  0
BLOCK
  5
2C8
100
AcDbEntity
  8
0
100
AcDbBlockBegin
  2
*B41
 70
     0
 10
0.0
 20
0.0
 30
0.0
  3
*B41
  1

  0
LINE
  5
2C9
100
AcDbEntity
  8
0
  6
Continuous
 62
     8
100
AcDbLine
 10
208.607712
 20
60.594953
 30
0.0
 11
208.607712
 21
67.594846
 31
0.0
  0
LINE
  5
2CA
100
AcDbEntity
  8
0
  6
Continuous
 62
     8
100
AcDbLine
 10
208.607712
 20
73.594633
 30
0.0
 11
208.607712
 21
80.594527
 31
0.0
  0
ENDBLK
  5
2CB
100
AcDbEntity
  8
0
100
AcDbBlockEnd
  0
BLOCK
  5
2CE
100
AcDbEntity
  8
0
100
AcDbBlockBegin
  2
*B42
 70
     0
 10
0.0
 20
0.0
 30
0.0
  3
*B42
  1

  0
LINE
  5
2CF
100
AcDbEntity
  8
0
  6
Continuous
 62
     8
100
AcDbLine
 10
360.10765
 20
148.593671
 30
0.0
 11
360.10765
 21
155.593565
 31
0.0
  0
LINE
  5
2D0
100
AcDbEntity
  8
0
  6
Continuous
 62
     8
100
AcDbLine
 10
360.10765
 20
161.593351
 30
0.0
 11
360.10765
 21
168.593245
 31
0.0
  0
ENDBLK
  5
2D1
100
AcDbEntity
  8
0
100
AcDbBlockEnd
  0
BLOCK
  5
2D4
100
AcDbEntity
  8
0
100
AcDbBlockBegin
  2
*B43
 70
     0
 10
0.0
 20
0.0
 30
0.0
  3
*B43
  1

  0
LINE
  5
2D5
100
AcDbEntity
  8
0
  6
Continuous
 62
     8
100
AcDbLine
 10
360.10765
 20
82.594739
 30
0.0
 11
360.10765
 21
89.594632
 31
0.0
  0
LINE
  5
2D6
100
AcDbEntity
  8
0
  6
Continuous
 62
     8
100
AcDbLine
 10
360.10765
 20
95.594419
 30
0.0
 11
360.10765
 21
102.594312
 31
0.0
  0
ENDBLK
  5
2D7
100
AcDbEntity
  8
0
100
AcDbBlockEnd
  0
BLOCK
  5
2DA
100
AcDbEntity
  8
0
100
AcDbBlockBegin
  2
*B44
 70
     0
 10
0.0
 20
0.0
 30
0.0
  3
*B44
  1

  0
LINE
  5
2DB
100
AcDbEntity
  8
0
  6
Continuous
 62
     8
100
AcDbLine
 10
228.607711
 20
243.996155
 30
0.0
 11
228.607711
 21
247.996155
 31
0.0
  0
LINE
  5
2DC
100
AcDbEntity
  8
0
  6
Continuous
 62
     8
100
AcDbLine
 10
228.607711
 20
247.996155
 30
0.0
 11
228.607711
 21
258.268311
 31
0.0
  0
LINE
  5
2DD
100
AcDbEntity
  8
0
  6
Continuous
 62
     8
100
AcDbLine
 10
228.607711
 20
260.268098
 30
0.0
 11
228.607711
 21
261.268204
 31
0.0
  0
LINE
  5
2DE
100
AcDbEntity
  8
0
  6
Continuous
 62
     8
100
AcDbLine
 10
228.607711
 20
263.268417
 30
0.0
 11
228.607711
 21
273.540573
 31
0.0
  0
LINE
  5
2DF
100
AcDbEntity
  8
0
  6
Continuous
 62
     8
100
AcDbLine
 10
228.607711
 20
275.54036
 30
0.0
 11
228.607711
 21
276.540467
 31
0.0
  0
LINE
  5
2E0
100
AcDbEntity
  8
0
  6
Continuous
 62
     8
100
AcDbLine
 10
228.607711
 20
278.540254
 30
0.0
 11
228.607711
 21
288.81241
 31
0.0
  0
LINE
  5
2E1
100
AcDbEntity
  8
0
  6
Continuous
 62
     8
100
AcDbLine
 10
228.607711
 20
290.812622
 30
0.0
 11
228.607711
 21
291.812303
 31
0.0
  0
LINE
  5
2E2
100
AcDbEntity
  8
0
  6
Continuous
 62
     8
100
AcDbLine
 10
228.607711
 20
293.812516
 30
0.0
 11
228.607711
 21
304.084672
 31
0.0
  0
LINE
  5
2E3
100
AcDbEntity
  8
0
  6
Continuous
 62
     8
100
AcDbLine
 10
228.607711
 20
306.084459
 30
0.0
 11
228.607711
 21
307.084565
 31
0.0
  0
LINE
  5
2E4
100
AcDbEntity
  8
0
  6
Continuous
 62
     8
100
AcDbLine
 10
228.607711
 20
309.084352
 30
0.0
 11
228.607711
 21
319.356508
 31
0.0
  0
LINE
  5
2E5
100
AcDbEntity
  8
0
  6
Continuous
 62
     8
100
AcDbLine
 10
228.607711
 20
321.356721
 30
0.0
 11
228.607711
 21
322.356402
 31
0.0
  0
LINE
  5
2E6
100
AcDbEntity
  8
0
  6
Continuous
 62
     8
100
AcDbLine
 10
228.607711
 20
324.356614
 30
0.0
 11
228.607711
 21
334.62877
 31
0.0
  0
LINE
  5
2E7
100
AcDbEntity
  8
0
  6
Continuous
 62
     8
100
AcDbLine
 10
228.607711
 20
340.628557
 30
0.0
 11
228.607711
 21
352.378317
 31
0.0
  0
ENDBLK
  5
2E8
100
AcDbEntity
  8
0
100
AcDbBlockEnd
  0
BLOCK
  5
2EB
100
AcDbEntity
  8
0
100
AcDbBlockBegin
  2
*B45
 70
     0
 10
0.0
 20
0.0
 30
0.0
  3
*B45
  1

  0
LINE
  5
2EC
100
AcDbEntity
  8
0
  6
Continuous
 62
     8
100
AcDbLine
 10
125.465255
 20
99.594419
 30
0.0
 11
161.107768
 21
99.594419
 31
0.0
  0
ENDBLK
  5
2ED
100
AcDbEntity
  8
0
100
AcDbBlockEnd
  0
BLOCK
  5
2F0
100
AcDbEntity
  8
0
100
AcDbBlockBegin
  2
*B46
 70
     0
 10
0.0
 20
0.0
 30
0.0
  3
*B46
  1

  0
LINE
  5
2F1
100
AcDbEntity
  8
0
  6
Continuous
 62
     8
100
AcDbLine
 10
283.85784
 20
243.996155
 30
0.0
 11
283.85784
 21
286.629624
 31
0.0
  0
ENDBLK
  5
2F2
100
AcDbEntity
  8
0
100
AcDbBlockEnd
  0
BLOCK
  5
2F5
100
AcDbEntity
  8
0
100
AcDbBlockBegin
  2
*B47
 70
     0
 10
0.0
 20
0.0
 30
0.0
  3
*B47
  1

  0
LINE
  5
2F6
100
AcDbEntity
  8
0
  6
Continuous
 62
     8
100
AcDbLine
 10
125.465255
 20
129.593779
 30
0.0
 11
161.107768
 21
129.593779
 31
0.0
  0
ENDBLK
  5
2F7
100
AcDbEntity
  8
0
100
AcDbBlockEnd
  0
BLOCK
  5
2FA
100
AcDbEntity
  8
0
100
AcDbBlockBegin
  2
*B48
 70
     0
 10
0.0
 20
0.0
 30
0.0
  3
*B48
  1

  0
LINE
  5
2FB
100
AcDbEntity
  8
0
  6
Continuous
 62
     8
100
AcDbLine
 10
379.607595
 20
21.138418
 30
0.0
 11
379.607595
 21
68.594953
 31
0.0
  0
ENDBLK
  5
2FC
100
AcDbEntity
  8
0
100
AcDbBlockEnd
  0
BLOCK
  5
2FF
100
AcDbEntity
  8
0
100
AcDbBlockBegin
  2
*B49
 70
     0
 10
0.0
 20
0.0
 30
0.0
  3
*B49
  1

  0
LINE
  5
300
100
AcDbEntity
  8
0
  6
Continuous
 62
     8
100
AcDbLine
 10
278.607495
 20
139.093938
 30
0.0
 11
278.607495
 21
141.593778
 31
0.0
  0
LINE
  5
301
100
AcDbEntity
  8
0
  6
Continuous
 62
     8
100
AcDbLine
 10
278.607495
 20
147.593565
 30
0.0
 11
278.607495
 21
150.093831
 31
0.0
  0
ENDBLK
  5
302
100
AcDbEntity
  8
0
100
AcDbBlockEnd
  0
BLOCK
  5
305
100
AcDbEntity
  8
0
100
AcDbBlockBegin
  2
*B50
 70
     0
 10
0.0
 20
0.0
 30
0.0
  3
*B50
  1

  0
LINE
  5
306
100
AcDbEntity
  8
0
  6
Continuous
 62
     8
100
AcDbLine
 10
450.107431
 20
20.861367
 30
0.0
 11
450.107431
 21
42.595167
 31
0.0
  0
LINE
  5
307
100
AcDbEntity
  8
0
  6
Continuous
 62
     8
100
AcDbLine
 10
450.107431
 20
186.593031
 30
0.0
 11
450.107431
 21
204.858377
 31
0.0
  0
ENDBLK
  5
308
100
AcDbEntity
  8
0
100
AcDbBlockEnd
  0
BLOCK
  5
30B
100
AcDbEntity
  8
0
100
AcDbBlockBegin
  2
*B51
 70
     0
 10
0.0
 20
0.0
 30
0.0
  3
*B51
  1

  0
LINE
  5
30C
100
AcDbEntity
  8
0
  6
Continuous
 62
     8
100
AcDbLine
 10
450.107431
 20
223.996582
 30
0.0
 11
450.107431
 21
265.629945
 31
0.0
  0
ENDBLK
  5
30D
100
AcDbEntity
  8
0
100
AcDbBlockEnd
  0
BLOCK
  5
310
100
AcDbEntity
  8
0
100
AcDbBlockBegin
  2
*B52
 70
     0
 10
0.0
 20
0.0
 30
0.0
  3
*B52
  1

  0
LINE
  5
311
100
AcDbEntity
  8
0
  6
Continuous
 62
     8
100
AcDbLine
 10
217.607818
 20
354.628344
 30
0.0
 11
217.607818
 21
367.961676
 31
0.0
  0
LINE
  5
312
100
AcDbEntity
  8
0
  6
Continuous
 62
     8
100
AcDbLine
 10
217.607818
 20
369.961463
 30
0.0
 11
217.607818
 21
370.96157
 31
0.0
  0
LINE
  5
313
100
AcDbEntity
  8
0
  6
Continuous
 62
     8
100
AcDbLine
 10
217.607818
 20
372.961357
 30
0.0
 11
217.607818
 21
386.294689
 31
0.0
  0
LINE
  5
314
100
AcDbEntity
  8
0
  6
Continuous
 62
     8
100
AcDbLine
 10
217.607818
 20
388.294476
 30
0.0
 11
217.607818
 21
389.294583
 31
0.0
  0
LINE
  5
315
100
AcDbEntity
  8
0
  6
Continuous
 62
     8
100
AcDbLine
 10
217.607818
 20
391.29437
 30
0.0
 11
217.607818
 21
404.627702
 31
0.0
  0
ENDBLK
  5
316
100
AcDbEntity
  8
0
100
AcDbBlockEnd
  0
BLOCK
  5
319
100
AcDbEntity
  8
0
100
AcDbBlockBegin
  2
*B53
 70
     0
 10
0.0
 20
0.0
 30
0.0
  3
*B53
  1

  0
LINE
  5
31A
100
AcDbEntity
  8
0
  6
Continuous
 62
     8
100
AcDbLine
 10
167.607608
 20
138.593885
 30
0.0
 11
172.107661
 21
138.593885
 31
0.0
  0
LINE
  5
31B
100
AcDbEntity
  8
0
  6
Continuous
 62
     8
100
AcDbLine
 10
178.107873
 20
138.593885
 30
0.0
 11
182.607926
 21
138.593885
 31
0.0
  0
ENDBLK
  5
31C
100
AcDbEntity
  8
0
100
AcDbBlockEnd
  0
BLOCK
  5
31F
100
AcDbEntity
  8
0
100
AcDbBlockBegin
  2
*B54
 70
     0
 10
0.0
 20
0.0
 30
0.0
  3
*B54
  1

  0
LINE
  5
320
100
AcDbEntity
  8
0
  6
Continuous
 62
     8
100
AcDbLine
 10
297.607813
 20
60.594953
 30
0.0
 11
297.607813
 21
67.594846
 31
0.0
  0
LINE
  5
321
100
AcDbEntity
  8
0
  6
Continuous
 62
     8
100
AcDbLine
 10
297.607813
 20
73.594633
 30
0.0
 11
297.607813
 21
80.594527
 31
0.0
  0
ENDBLK
  5
322
100
AcDbEntity
  8
0
100
AcDbBlockEnd
  0
BLOCK
  5
325
100
AcDbEntity
  8
0
100
AcDbBlockBegin
  2
*B55
 70
     0
 10
0.0
 20
0.0
 30
0.0
  3
*B55
  1

  0
LINE
  5
326
100
AcDbEntity
  8
0
  6
Continuous
 62
     8
100
AcDbLine
 10
317.607812
 20
322.87901
 30
0.0
 11
317.607812
 21
334.62877
 31
0.0
  0
LINE
  5
327
100
AcDbEntity
  8
0
  6
Continuous
 62
     8
100
AcDbLine
 10
317.607812
 20
340.628557
 30
0.0
 11
317.607812
 21
352.378317
 31
0.0
  0
ENDBLK
  5
328
100
AcDbEntity
  8
0
100
AcDbBlockEnd
  0
BLOCK
  5
32B
100
AcDbEntity
  8
0
100
AcDbBlockBegin
  2
*B56
 70
     0
 10
0.0
 20
0.0
 30
0.0
  3
*B56
  1

  0
LINE
  5
32C
100
AcDbEntity
  8
0
  6
Continuous
 62
     8
100
AcDbLine
 10
386.607488
 20
126.593885
 30
0.0
 11
386.607488
 21
133.593779
 31
0.0
  0
LINE
  5
32D
100
AcDbEntity
  8
0
  6
Continuous
 62
     8
100
AcDbLine
 10
386.607488
 20
139.593991
 30
0.0
 11
386.607488
 21
146.593884
 31
0.0
  0
ENDBLK
  5
32E
100
AcDbEntity
  8
0
100
AcDbBlockEnd
  0
BLOCK
  5
331
100
AcDbEntity
  8
0
100
AcDbBlockBegin
  2
*B57
 70
     0
 10
0.0
 20
0.0
 30
0.0
  3
*B57
  1

  0
LINE
  5
332
100
AcDbEntity
  8
0
  6
Continuous
 62
     8
100
AcDbLine
 10
334.607491
 20
79.094793
 30
0.0
 11
334.607491
 21
81.594633
 31
0.0
  0
LINE
  5
333
100
AcDbEntity
  8
0
  6
Continuous
 62
     8
100
AcDbLine
 10
334.607491
 20
87.59442
 30
0.0
 11
334.607491
 21
90.094686
 31
0.0
  0
ENDBLK
  5
334
100
AcDbEntity
  8
0
100
AcDbBlockEnd
  0
BLOCK
  5
337
100
AcDbEntity
  8
0
100
AcDbBlockBegin
  2
*B58
 70
     0
 10
0.0
 20
0.0
 30
0.0
  3
*B58
  1

  0
LINE
  5
338
100
AcDbEntity
  8
0
  6
Continuous
 62
     8
100
AcDbLine
 10
317.607812
 20
144.593672
 30
0.0
 11
320.107652
 21
144.593672
 31
0.0
  0
LINE
  5
339
100
AcDbEntity
  8
0
  6
Continuous
 62
     8
100
AcDbLine
 10
326.107864
 20
144.593672
 30
0.0
 11
328.607705
 21
144.593672
 31
0.0
  0
ENDBLK
  5
33A
100
AcDbEntity
  8
0
100
AcDbBlockEnd
  0
BLOCK
  5
33D
100
AcDbEntity
  8
0
100
AcDbBlockBegin
  2
*B59
 70
     0
 10
0.0
 20
0.0
 30
0.0
  3
*B59
  1

  0
LINE
  5
33E
100
AcDbEntity
  8
0
  6
Continuous
 62
     8
100
AcDbLine
 10
262.107868
 20
354.628344
 30
0.0
 11
262.107868
 21
367.961676
 31
0.0
  0
LINE
  5
33F
100
AcDbEntity
  8
0
  6
Continuous
 62
     8
100
AcDbLine
 10
262.107868
 20
369.961463
 30
0.0
 11
262.107868
 21
370.96157
 31
0.0
  0
LINE
  5
340
100
AcDbEntity
  8
0
  6
Continuous
 62
     8
100
AcDbLine
 10
262.107868
 20
372.961357
 30
0.0
 11
262.107868
 21
386.294689
 31
0.0
  0
LINE
  5
341
100
AcDbEntity
  8
0
  6
Continuous
 62
     8
100
AcDbLine
 10
262.107868
 20
388.294476
 30
0.0
 11
262.107868
 21
389.294583
 31
0.0
  0
LINE
  5
342
100
AcDbEntity
  8
0
  6
Continuous
 62
     8
100
AcDbLine
 10
262.107868
 20
391.29437
 30
0.0
 11
262.107868
 21
404.627702
 31
0.0
  0
ENDBLK
  5
343
100
AcDbEntity
  8
0
100
AcDbBlockEnd
  0
BLOCK
  5
346
100
AcDbEntity
  8
0
100
AcDbBlockBegin
  2
*B60
 70
     0
 10
0.0
 20
0.0
 30
0.0
  3
*B60
  1

  0
LINE
  5
347
100
AcDbEntity
  8
0
  6
Continuous
 62
     8
100
AcDbLine
 10
305.607812
 20
92.594526
 30
0.0
 11
308.607706
 21
92.594526
 31
0.0
  0
LINE
  5
348
100
AcDbEntity
  8
0
  6
Continuous
 62
     8
100
AcDbLine
 10
327.465456
 20
92.594526
 30
0.0
 11
331.465455
 21
92.594526
 31
0.0
  0
LINE
  5
349
100
AcDbEntity
  8
0
  6
Continuous
 62
     8
100
AcDbLine
 10
326.607492
 20
92.594526
 30
0.0
 11
327.465456
 21
92.594526
 31
0.0
  0
ENDBLK
  5
34A
100
AcDbEntity
  8
0
100
AcDbBlockEnd
  0
BLOCK
  5
34D
100
AcDbEntity
  8
0
100
AcDbBlockBegin
  2
*B61
 70
     0
 10
0.0
 20
0.0
 30
0.0
  3
*B61
  1

  0
LINE
  5
34E
100
AcDbEntity
  8
0
  6
Continuous
 62
     8
100
AcDbLine
 10
216.607711
 20
92.594526
 30
0.0
 11
223.607605
 21
92.594526
 31
0.0
  0
LINE
  5
34F
100
AcDbEntity
  8
0
  6
Continuous
 62
     8
100
AcDbLine
 10
229.607817
 20
92.594526
 30
0.0
 11
236.60771
 21
92.594526
 31
0.0
  0
ENDBLK
  5
350
100
AcDbEntity
  8
0
100
AcDbBlockEnd
  0
BLOCK
  5
353
100
AcDbEntity
  8
0
100
AcDbBlockBegin
  2
*B62
 70
     0
 10
0.0
 20
0.0
 30
0.0
  3
*B62
  1

  0
LINE
  5
354
100
AcDbEntity
  8
0
  6
Continuous
 62
     8
100
AcDbLine
 10
412.107646
 20
139.093938
 30
0.0
 11
412.107646
 21
141.593778
 31
0.0
  0
LINE
  5
355
100
AcDbEntity
  8
0
  6
Continuous
 62
     8
100
AcDbLine
 10
412.107646
 20
147.593565
 30
0.0
 11
412.107646
 21
150.093831
 31
0.0
  0
ENDBLK
  5
356
100
AcDbEntity
  8
0
100
AcDbBlockEnd
  0
BLOCK
  5
359
100
AcDbEntity
  8
0
100
AcDbBlockBegin
  2
*B63
 70
     0
 10
0.0
 20
0.0
 30
0.0
  3
*B63
  1

  0
LINE
  5
35A
100
AcDbEntity
  8
0
  6
Continuous
 62
     8
100
AcDbLine
 10
198.607925
 20
70.59474
 30
0.0
 11
205.607818
 21
70.59474
 31
0.0
  0
LINE
  5
35B
100
AcDbEntity
  8
0
  6
Continuous
 62
     8
100
AcDbLine
 10
211.607605
 20
70.59474
 30
0.0
 11
218.607924
 21
70.59474
 31
0.0
  0
ENDBLK
  5
35C
100
AcDbEntity
  8
0
100
AcDbBlockEnd
  0
BLOCK
  5
35F
100
AcDbEntity
  8
0
100
AcDbBlockBegin
  2
*B64
 70
     0
 10
0.0
 20
0.0
 30
0.0
  3
*B64
  1

  0
LINE
  5
360
100
AcDbEntity
  8
0
  6
Continuous
 62
     8
100
AcDbLine
 10
261.107762
 20
158.593458
 30
0.0
 11
268.107655
 21
158.593458
 31
0.0
  0
LINE
  5
361
100
AcDbEntity
  8
0
  6
Continuous
 62
     8
100
AcDbLine
 10
274.107867
 20
158.593458
 30
0.0
 11
281.107761
 21
158.593458
 31
0.0
  0
ENDBLK
  5
362
100
AcDbEntity
  8
0
100
AcDbBlockEnd
  0
BLOCK
  5
365
100
AcDbEntity
  8
0
100
AcDbBlockBegin
  2
*B65
 70
     0
 10
0.0
 20
0.0
 30
0.0
  3
*B65
  1

  0
LINE
  5
366
100
AcDbEntity
  8
0
  6
Continuous
 62
     8
100
AcDbLine
 10
216.607711
 20
158.593458
 30
0.0
 11
223.607605
 21
158.593458
 31
0.0
  0
LINE
  5
367
100
AcDbEntity
  8
0
  6
Continuous
 62
     8
100
AcDbLine
 10
229.607817
 20
158.593458
 30
0.0
 11
236.60771
 21
158.593458
 31
0.0
  0
ENDBLK
  5
368
100
AcDbEntity
  8
0
100
AcDbBlockEnd
  0
BLOCK
  5
36B
100
AcDbEntity
  8
0
100
AcDbBlockBegin
  2
*B66
 70
     0
 10
0.0
 20
0.0
 30
0.0
  3
*B66
  1

  0
LINE
  5
36C
100
AcDbEntity
  8
0
  6
Continuous
 62
     8
100
AcDbLine
 10
243.10755
 20
136.593672
 30
0.0
 11
250.107869
 21
136.593672
 31
0.0
  0
LINE
  5
36D
100
AcDbEntity
  8
0
  6
Continuous
 62
     8
100
AcDbLine
 10
256.107656
 20
136.593672
 30
0.0
 11
263.107549
 21
136.593672
 31
0.0
  0
ENDBLK
  5
36E
100
AcDbEntity
  8
0
100
AcDbBlockEnd
  0
BLOCK
  5
371
100
AcDbEntity
  8
0
100
AcDbBlockBegin
  2
*B67
 70
     0
 10
0.0
 20
0.0
 30
0.0
  3
*B67
  1

  0
LINE
  5
372
100
AcDbEntity
  8
0
  6
Continuous
 62
     8
100
AcDbLine
 10
332.107651
 20
136.593672
 30
0.0
 11
339.107544
 21
136.593672
 31
0.0
  0
LINE
  5
373
100
AcDbEntity
  8
0
  6
Continuous
 62
     8
100
AcDbLine
 10
345.107757
 20
136.593672
 30
0.0
 11
352.10765
 21
136.593672
 31
0.0
  0
ENDBLK
  5
374
100
AcDbEntity
  8
0
100
AcDbBlockEnd
  0
BLOCK
  5
377
100
AcDbEntity
  8
0
100
AcDbBlockBegin
  2
*B68
 70
     0
 10
0.0
 20
0.0
 30
0.0
  3
*B68
  1

  0
LINE
  5
378
100
AcDbEntity
  8
0
  6
Continuous
 62
     8
100
AcDbLine
 10
315.607599
 20
21.138418
 30
0.0
 11
315.607599
 21
25.137992
 31
0.0
  0
LINE
  5
379
100
AcDbEntity
  8
0
  6
Continuous
 62
     8
100
AcDbLine
 10
315.607599
 20
25.137992
 30
0.0
 11
315.607599
 21
37.502285
 31
0.0
  0
LINE
  5
37A
100
AcDbEntity
  8
0
  6
Continuous
 62
     8
100
AcDbLine
 10
315.607599
 20
39.502498
 30
0.0
 11
315.607599
 21
40.502179
 31
0.0
  0
LINE
  5
37B
100
AcDbEntity
  8
0
  6
Continuous
 62
     8
100
AcDbLine
 10
315.607599
 20
42.502391
 30
0.0
 11
315.607599
 21
54.866259
 31
0.0
  0
LINE
  5
37C
100
AcDbEntity
  8
0
  6
Continuous
 62
     8
100
AcDbLine
 10
315.607599
 20
56.866472
 30
0.0
 11
315.607599
 21
57.866153
 31
0.0
  0
LINE
  5
37D
100
AcDbEntity
  8
0
  6
Continuous
 62
     8
100
AcDbLine
 10
315.607599
 20
59.866365
 30
0.0
 11
315.607599
 21
72.230659
 31
0.0
  0
LINE
  5
37E
100
AcDbEntity
  8
0
  6
Continuous
 62
     8
100
AcDbLine
 10
315.607599
 20
74.230446
 30
0.0
 11
315.607599
 21
75.230552
 31
0.0
  0
LINE
  5
37F
100
AcDbEntity
  8
0
  6
Continuous
 62
     8
100
AcDbLine
 10
315.607599
 20
77.230339
 30
0.0
 11
315.607599
 21
89.594632
 31
0.0
  0
LINE
  5
380
100
AcDbEntity
  8
0
  6
Continuous
 62
     8
100
AcDbLine
 10
315.607599
 20
95.594419
 30
0.0
 11
315.607599
 21
102.594312
 31
0.0
  0
ENDBLK
  5
381
100
AcDbEntity
  8
0
100
AcDbBlockEnd
  0
BLOCK
  5
384
100
AcDbEntity
  8
0
100
AcDbBlockBegin
  2
*B69
 70
     0
 10
0.0
 20
0.0
 30
0.0
  3
*B69
  1

  0
LINE
  5
385
100
AcDbEntity
  8
0
  6
Continuous
 62
     8
100
AcDbLine
 10
395.607594
 20
200.858377
 30
0.0
 11
395.607594
 21
204.858377
 31
0.0
  0
LINE
  5
386
100
AcDbEntity
  8
0
  6
Continuous
 62
     8
100
AcDbLine
 10
395.607594
 20
104.594525
 30
0.0
 11
395.607594
 21
111.594418
 31
0.0
  0
LINE
  5
387
100
AcDbEntity
  8
0
  6
Continuous
 62
     8
100
AcDbLine
 10
395.607594
 20
117.594205
 30
0.0
 11
395.607594
 21
127.305025
 31
0.0
  0
LINE
  5
388
100
AcDbEntity
  8
0
  6
Continuous
 62
     8
100
AcDbLine
 10
395.607594
 20
129.304812
 30
0.0
 11
395.607594
 21
130.304918
 31
0.0
  0
LINE
  5
389
100
AcDbEntity
  8
0
  6
Continuous
 62
     8
100
AcDbLine
 10
395.607594
 20
132.304705
 30
0.0
 11
395.607594
 21
142.015525
 31
0.0
  0
LINE
  5
38A
100
AcDbEntity
  8
0
  6
Continuous
 62
     8
100
AcDbLine
 10
395.607594
 20
144.015738
 30
0.0
 11
395.607594
 21
145.015419
 31
0.0
  0
LINE
  5
38B
100
AcDbEntity
  8
0
  6
Continuous
 62
     8
100
AcDbLine
 10
395.607594
 20
147.015631
 30
0.0
 11
395.607594
 21
156.726451
 31
0.0
  0
LINE
  5
38C
100
AcDbEntity
  8
0
  6
Continuous
 62
     8
100
AcDbLine
 10
395.607594
 20
158.726238
 30
0.0
 11
395.607594
 21
159.726344
 31
0.0
  0
LINE
  5
38D
100
AcDbEntity
  8
0
  6
Continuous
 62
     8
100
AcDbLine
 10
395.607594
 20
161.726131
 30
0.0
 11
395.607594
 21
171.436951
 31
0.0
  0
LINE
  5
38E
100
AcDbEntity
  8
0
  6
Continuous
 62
     8
100
AcDbLine
 10
395.607594
 20
173.437164
 30
0.0
 11
395.607594
 21
174.436845
 31
0.0
  0
LINE
  5
38F
100
AcDbEntity
  8
0
  6
Continuous
 62
     8
100
AcDbLine
 10
395.607594
 20
176.437057
 30
0.0
 11
395.607594
 21
186.147877
 31
0.0
  0
LINE
  5
390
100
AcDbEntity
  8
0
  6
Continuous
 62
     8
100
AcDbLine
 10
395.607594
 20
188.147664
 30
0.0
 11
395.607594
 21
189.14777
 31
0.0
  0
LINE
  5
391
100
AcDbEntity
  8
0
  6
Continuous
 62
     8
100
AcDbLine
 10
395.607594
 20
191.147557
 30
0.0
 11
395.607594
 21
200.858377
 31
0.0
  0
ENDBLK
  5
392
100
AcDbEntity
  8
0
100
AcDbBlockEnd
  0
BLOCK
  5
395
100
AcDbEntity
  8
0
100
AcDbBlockBegin
  2
*B70
 70
     0
 10
0.0
 20
0.0
 30
0.0
  3
*B70
  1

  0
LINE
  5
396
100
AcDbEntity
  8
0
  6
Continuous
 62
     8
100
AcDbLine
 10
406.607487
 20
144.593672
 30
0.0
 11
409.107753
 21
144.593672
 31
0.0
  0
LINE
  5
397
100
AcDbEntity
  8
0
  6
Continuous
 62
     8
100
AcDbLine
 10
415.10754
 20
144.593672
 30
0.0
 11
417.607806
 21
144.593672
 31
0.0
  0
ENDBLK
  5
398
100
AcDbEntity
  8
0
100
AcDbBlockEnd
  0
BLOCK
  5
39B
100
AcDbEntity
  8
0
100
AcDbBlockBegin
  2
*B71
 70
     0
 10
0.0
 20
0.0
 30
0.0
  3
*B71
  1

  0
LINE
  5
39C
100
AcDbEntity
  8
0
  6
Continuous
 62
     8
100
AcDbLine
 10
404.6077
 20
82.594739
 30
0.0
 11
404.6077
 21
89.594632
 31
0.0
  0
LINE
  5
39D
100
AcDbEntity
  8
0
  6
Continuous
 62
     8
100
AcDbLine
 10
404.6077
 20
95.594419
 30
0.0
 11
404.6077
 21
102.594312
 31
0.0
  0
ENDBLK
  5
39E
100
AcDbEntity
  8
0
100
AcDbBlockEnd
  0
BLOCK
  5
3A1
100
AcDbEntity
  8
0
100
AcDbBlockBegin
  2
*B72
 70
     0
 10
0.0
 20
0.0
 30
0.0
  3
*B72
  1

  0
LINE
  5
3A2
100
AcDbEntity
  8
0
  6
Continuous
 62
     8
100
AcDbLine
 10
273.107761
 20
322.87901
 30
0.0
 11
273.107761
 21
334.62877
 31
0.0
  0
LINE
  5
3A3
100
AcDbEntity
  8
0
  6
Continuous
 62
     8
100
AcDbLine
 10
273.107761
 20
340.628557
 30
0.0
 11
273.107761
 21
352.378317
 31
0.0
  0
ENDBLK
  5
3A4
100
AcDbEntity
  8
0
100
AcDbBlockEnd
  0
BLOCK
  5
3A7
100
AcDbEntity
  8
0
100
AcDbBlockBegin
  2
*B73
 70
     0
 10
0.0
 20
0.0
 30
0.0
  3
*B73
  1

  0
LINE
  5
3A8
100
AcDbEntity
  8
0
  6
Continuous
 62
     8
100
AcDbLine
 10
393.607807
 20
21.138418
 30
0.0
 11
393.607807
 21
68.594953
 31
0.0
  0
ENDBLK
  5
3A9
100
AcDbEntity
  8
0
100
AcDbBlockEnd
  0
BLOCK
  5
3AC
100
AcDbEntity
  8
0
100
AcDbBlockBegin
  2
*B74
 70
     0
 10
0.0
 20
0.0
 30
0.0
  3
*B74
  1

  0
LINE
  5
3AD
100
AcDbEntity
  8
0
  6
Continuous
 62
     8
100
AcDbLine
 10
362.107437
 20
322.87901
 30
0.0
 11
362.107437
 21
334.62877
 31
0.0
  0
LINE
  5
3AE
100
AcDbEntity
  8
0
  6
Continuous
 62
     8
100
AcDbLine
 10
362.107437
 20
340.628557
 30
0.0
 11
362.107437
 21
352.378317
 31
0.0
  0
ENDBLK
  5
3AF
100
AcDbEntity
  8
0
100
AcDbBlockEnd
  0
BLOCK
  5
3B2
100
AcDbEntity
  8
0
100
AcDbBlockBegin
  2
*B75
 70
     0
 10
0.0
 20
0.0
 30
0.0
  3
*B75
  1

  0
LINE
  5
3B3
100
AcDbEntity
  8
0
  6
Continuous
 62
     8
100
AcDbLine
 10
351.107544
 20
354.628344
 30
0.0
 11
351.107544
 21
367.961676
 31
0.0
  0
LINE
  5
3B4
100
AcDbEntity
  8
0
  6
Continuous
 62
     8
100
AcDbLine
 10
351.107544
 20
369.961463
 30
0.0
 11
351.107544
 21
370.96157
 31
0.0
  0
LINE
  5
3B5
100
AcDbEntity
  8
0
  6
Continuous
 62
     8
100
AcDbLine
 10
351.107544
 20
372.961357
 30
0.0
 11
351.107544
 21
386.294689
 31
0.0
  0
LINE
  5
3B6
100
AcDbEntity
  8
0
  6
Continuous
 62
     8
100
AcDbLine
 10
351.107544
 20
388.294476
 30
0.0
 11
351.107544
 21
389.294583
 31
0.0
  0
LINE
  5
3B7
100
AcDbEntity
  8
0
  6
Continuous
 62
     8
100
AcDbLine
 10
351.107544
 20
391.29437
 30
0.0
 11
351.107544
 21
404.627702
 31
0.0
  0
ENDBLK
  5
3B8
100
AcDbEntity
  8
0
100
AcDbBlockEnd
  0
BLOCK
  5
3BB
100
AcDbEntity
  8
0
100
AcDbBlockBegin
  2
*B76
 70
     0
 10
0.0
 20
0.0
 30
0.0
  3
*B76
  1

  0
LINE
  5
3BC
100
AcDbEntity
  8
0
  6
Continuous
 62
     8
100
AcDbLine
 10
485.465233
 20
70.59474
 30
0.0
 11
489.465233
 21
70.59474
 31
0.0
  0
LINE
  5
3BD
100
AcDbEntity
  8
0
  6
Continuous
 62
     8
100
AcDbLine
 10
376.607702
 20
70.59474
 30
0.0
 11
383.607595
 21
70.59474
 31
0.0
  0
LINE
  5
3BE
100
AcDbEntity
  8
0
  6
Continuous
 62
     8
100
AcDbLine
 10
389.607807
 20
70.59474
 30
0.0
 11
401.417148
 21
70.59474
 31
0.0
  0
LINE
  5
3BF
100
AcDbEntity
  8
0
  6
Continuous
 62
     8
100
AcDbLine
 10
403.417361
 20
70.59474
 30
0.0
 11
404.417467
 21
70.59474
 31
0.0
  0
LINE
  5
3C0
100
AcDbEntity
  8
0
  6
Continuous
 62
     8
100
AcDbLine
 10
406.417254
 20
70.59474
 30
0.0
 11
418.227021
 21
70.59474
 31
0.0
  0
LINE
  5
3C1
100
AcDbEntity
  8
0
  6
Continuous
 62
     8
100
AcDbLine
 10
420.226808
 20
70.59474
 30
0.0
 11
421.226914
 21
70.59474
 31
0.0
  0
LINE
  5
3C2
100
AcDbEntity
  8
0
  6
Continuous
 62
     8
100
AcDbLine
 10
423.226701
 20
70.59474
 30
0.0
 11
435.036467
 21
70.59474
 31
0.0
  0
LINE
  5
3C3
100
AcDbEntity
  8
0
  6
Continuous
 62
     8
100
AcDbLine
 10
437.03668
 20
70.59474
 30
0.0
 11
438.036361
 21
70.59474
 31
0.0
  0
LINE
  5
3C4
100
AcDbEntity
  8
0
  6
Continuous
 62
     8
100
AcDbLine
 10
440.036573
 20
70.59474
 30
0.0
 11
451.845914
 21
70.59474
 31
0.0
  0
LINE
  5
3C5
100
AcDbEntity
  8
0
  6
Continuous
 62
     8
100
AcDbLine
 10
453.846127
 20
70.59474
 30
0.0
 11
454.846233
 21
70.59474
 31
0.0
  0
LINE
  5
3C6
100
AcDbEntity
  8
0
  6
Continuous
 62
     8
100
AcDbLine
 10
456.84602
 20
70.59474
 30
0.0
 11
468.655787
 21
70.59474
 31
0.0
  0
LINE
  5
3C7
100
AcDbEntity
  8
0
  6
Continuous
 62
     8
100
AcDbLine
 10
470.655574
 20
70.59474
 30
0.0
 11
471.65568
 21
70.59474
 31
0.0
  0
LINE
  5
3C8
100
AcDbEntity
  8
0
  6
Continuous
 62
     8
100
AcDbLine
 10
473.655893
 20
70.59474
 30
0.0
 11
485.465233
 21
70.59474
 31
0.0
  0
ENDBLK
  5
3C9
100
AcDbEntity
  8
0
100
AcDbBlockEnd
  0
BLOCK
  5
3CC
100
AcDbEntity
  8
0
100
AcDbBlockBegin
  2
*B77
 70
     0
 10
0.0
 20
0.0
 30
0.0
  3
*B77
  1

  0
LINE
  5
3CD
100
AcDbEntity
  8
0
  6
Continuous
 62
     8
100
AcDbLine
 10
379.107542
 20
79.094793
 30
0.0
 11
379.107542
 21
81.594633
 31
0.0
  0
LINE
  5
3CE
100
AcDbEntity
  8
0
  6
Continuous
 62
     8
100
AcDbLine
 10
379.107542
 20
87.59442
 30
0.0
 11
379.107542
 21
90.094686
 31
0.0
  0
ENDBLK
  5
3CF
100
AcDbEntity
  8
0
100
AcDbBlockEnd
  0
BLOCK
  5
3D2
100
AcDbEntity
  8
0
100
AcDbBlockBegin
  2
*B78
 70
     0
 10
0.0
 20
0.0
 30
0.0
  3
*B78
  1

  0
LINE
  5
3D3
100
AcDbEntity
  8
0
  6
Continuous
 62
     8
100
AcDbLine
 10
350.107863
 20
158.593458
 30
0.0
 11
357.107756
 21
158.593458
 31
0.0
  0
LINE
  5
3D4
100
AcDbEntity
  8
0
  6
Continuous
 62
     8
100
AcDbLine
 10
363.107543
 20
158.593458
 30
0.0
 11
370.107436
 21
158.593458
 31
0.0
  0
ENDBLK
  5
3D5
100
AcDbEntity
  8
0
100
AcDbBlockEnd
  0
BLOCK
  5
3D8
100
AcDbEntity
  8
0
100
AcDbBlockBegin
  2
*B79
 70
     0
 10
0.0
 20
0.0
 30
0.0
  3
*B79
  1

  0
LINE
  5
3D9
100
AcDbEntity
  8
0
  6
Continuous
 62
     8
100
AcDbLine
 10
226.607924
 20
148.593671
 30
0.0
 11
226.607924
 21
155.593565
 31
0.0
  0
LINE
  5
3DA
100
AcDbEntity
  8
0
  6
Continuous
 62
     8
100
AcDbLine
 10
226.607924
 20
161.593351
 30
0.0
 11
226.607924
 21
168.593245
 31
0.0
  0
ENDBLK
  5
3DB
100
AcDbEntity
  8
0
100
AcDbBlockEnd
  0
BLOCK
  5
3DE
100
AcDbEntity
  8
0
100
AcDbBlockBegin
  2
*B80
 70
     0
 10
0.0
 20
0.0
 30
0.0
  3
*B80
  1

  0
LINE
  5
3DF
100
AcDbEntity
  8
0
  6
Continuous
 62
     8
100
AcDbLine
 10
367.607596
 20
139.093938
 30
0.0
 11
367.607596
 21
141.593778
 31
0.0
  0
LINE
  5
3E0
100
AcDbEntity
  8
0
  6
Continuous
 62
     8
100
AcDbLine
 10
367.607596
 20
147.593565
 30
0.0
 11
367.607596
 21
150.093831
 31
0.0
  0
ENDBLK
  5
3E1
100
AcDbEntity
  8
0
100
AcDbBlockEnd
  0
BLOCK
  5
3E4
100
AcDbEntity
  8
0
100
AcDbBlockBegin
  2
*B81
 70
     0
 10
0.0
 20
0.0
 30
0.0
  3
*B81
  1

  0
LINE
  5
3E5
100
AcDbEntity
  8
0
  6
Continuous
 62
     8
100
AcDbLine
 10
295.6076
 20
223.996582
 30
0.0
 11
295.6076
 21
227.996582
 31
0.0
  0
LINE
  5
3E6
100
AcDbEntity
  8
0
  6
Continuous
 62
     8
100
AcDbLine
 10
295.6076
 20
227.996582
 30
0.0
 11
295.6076
 21
238.654736
 31
0.0
  0
LINE
  5
3E7
100
AcDbEntity
  8
0
  6
Continuous
 62
     8
100
AcDbLine
 10
295.6076
 20
240.654949
 30
0.0
 11
295.6076
 21
241.65463
 31
0.0
  0
LINE
  5
3E8
100
AcDbEntity
  8
0
  6
Continuous
 62
     8
100
AcDbLine
 10
295.6076
 20
243.654842
 30
0.0
 11
295.6076
 21
254.312997
 31
0.0
  0
LINE
  5
3E9
100
AcDbEntity
  8
0
  6
Continuous
 62
     8
100
AcDbLine
 10
295.6076
 20
256.312784
 30
0.0
 11
295.6076
 21
257.31289
 31
0.0
  0
LINE
  5
3EA
100
AcDbEntity
  8
0
  6
Continuous
 62
     8
100
AcDbLine
 10
295.6076
 20
259.313103
 30
0.0
 11
295.6076
 21
269.971257
 31
0.0
  0
LINE
  5
3EB
100
AcDbEntity
  8
0
  6
Continuous
 62
     8
100
AcDbLine
 10
295.6076
 20
271.971045
 30
0.0
 11
295.6076
 21
272.971151
 31
0.0
  0
LINE
  5
3EC
100
AcDbEntity
  8
0
  6
Continuous
 62
     8
100
AcDbLine
 10
295.6076
 20
274.970938
 30
0.0
 11
295.6076
 21
285.629518
 31
0.0
  0
LINE
  5
3ED
100
AcDbEntity
  8
0
  6
Continuous
 62
     8
100
AcDbLine
 10
295.6076
 20
291.629305
 30
0.0
 11
295.6076
 21
303.379065
 31
0.0
  0
ENDBLK
  5
3EE
100
AcDbEntity
  8
0
100
AcDbBlockEnd
  0
BLOCK
  5
3F1
100
AcDbEntity
  8
0
100
AcDbBlockBegin
  2
*B82
 70
     0
 10
0.0
 20
0.0
 30
0.0
  3
*B82
  1

  0
LINE
  5
3F2
100
AcDbEntity
  8
0
  6
Continuous
 62
     8
100
AcDbLine
 10
195.607606
 20
84.594526
 30
0.0
 11
198.107872
 21
84.594526
 31
0.0
  0
LINE
  5
3F3
100
AcDbEntity
  8
0
  6
Continuous
 62
     8
100
AcDbLine
 10
204.107659
 20
84.594526
 30
0.0
 11
213.607818
 21
84.594526
 31
0.0
  0
LINE
  5
3F4
100
AcDbEntity
  8
0
  6
Continuous
 62
     8
100
AcDbLine
 10
215.607605
 20
84.594526
 30
0.0
 11
216.607711
 21
84.594526
 31
0.0
  0
LINE
  5
3F5
100
AcDbEntity
  8
0
  6
Continuous
 62
     8
100
AcDbLine
 10
218.607924
 20
84.594526
 30
0.0
 11
228.107657
 21
84.594526
 31
0.0
  0
LINE
  5
3F6
100
AcDbEntity
  8
0
  6
Continuous
 62
     8
100
AcDbLine
 10
230.10787
 20
84.594526
 30
0.0
 11
231.107551
 21
84.594526
 31
0.0
  0
LINE
  5
3F7
100
AcDbEntity
  8
0
  6
Continuous
 62
     8
100
AcDbLine
 10
233.107764
 20
84.594526
 30
0.0
 11
242.607923
 21
84.594526
 31
0.0
  0
LINE
  5
3F8
100
AcDbEntity
  8
0
  6
Continuous
 62
     8
100
AcDbLine
 10
248.607709
 20
84.594526
 30
0.0
 11
251.10755
 21
84.594526
 31
0.0
  0
ENDBLK
  5
3F9
100
AcDbEntity
  8
0
100
AcDbBlockEnd
  0
BLOCK
  5
3FC
100
AcDbEntity
  8
0
100
AcDbBlockBegin
  2
*B83
 70
     0
 10
0.0
 20
0.0
 30
0.0
  3
*B83
  1

  0
LINE
  5
3FD
100
AcDbEntity
  8
0
  6
Continuous
 62
     8
100
AcDbLine
 10
253.107762
 20
21.138418
 30
0.0
 11
253.107762
 21
25.137992
 31
0.0
  0
LINE
  5
3FE
100
AcDbEntity
  8
0
  6
Continuous
 62
     8
100
AcDbLine
 10
253.107762
 20
25.137992
 30
0.0
 11
253.107762
 21
35.957015
 31
0.0
  0
LINE
  5
3FF
100
AcDbEntity
  8
0
  6
Continuous
 62
     8
100
AcDbLine
 10
253.107762
 20
37.957227
 30
0.0
 11
253.107762
 21
38.956908
 31
0.0
  0
LINE
  5
400
100
AcDbEntity
  8
0
  6
Continuous
 62
     8
100
AcDbLine
 10
253.107762
 20
40.957121
 30
0.0
 11
253.107762
 21
51.776143
 31
0.0
  0
LINE
  5
401
100
AcDbEntity
  8
0
  6
Continuous
 62
     8
100
AcDbLine
 10
253.107762
 20
53.77593
 30
0.0
 11
253.107762
 21
54.776037
 31
0.0
  0
LINE
  5
402
100
AcDbEntity
  8
0
  6
Continuous
 62
     8
100
AcDbLine
 10
253.107762
 20
56.775824
 30
0.0
 11
253.107762
 21
67.594846
 31
0.0
  0
LINE
  5
403
100
AcDbEntity
  8
0
  6
Continuous
 62
     8
100
AcDbLine
 10
253.107762
 20
73.594633
 30
0.0
 11
253.107762
 21
80.594527
 31
0.0
  0
ENDBLK
  5
404
100
AcDbEntity
  8
0
100
AcDbBlockEnd
  0
BLOCK
  5
407
100
AcDbEntity
  8
0
100
AcDbBlockBegin
  2
*B84
 70
     0
 10
0.0
 20
0.0
 30
0.0
  3
*B84
  1

  0
LINE
  5
408
100
AcDbEntity
  8
0
  6
Continuous
 62
     8
100
AcDbLine
 10
342.107863
 20
126.593885
 30
0.0
 11
342.107863
 21
133.593779
 31
0.0
  0
LINE
  5
409
100
AcDbEntity
  8
0
  6
Continuous
 62
     8
100
AcDbLine
 10
342.107863
 20
139.593991
 30
0.0
 11
342.107863
 21
146.593884
 31
0.0
  0
ENDBLK
  5
40A
100
AcDbEntity
  8
0
100
AcDbBlockEnd
  0
BLOCK
  5
40D
100
AcDbEntity
  8
0
100
AcDbBlockBegin
  2
*B85
 70
     0
 10
0.0
 20
0.0
 30
0.0
  3
*B85
  1

  0
LINE
  5
40E
100
AcDbEntity
  8
0
  6
Continuous
 62
     8
100
AcDbLine
 10
351.107544
 20
200.858377
 30
0.0
 11
351.107544
 21
204.858377
 31
0.0
  0
LINE
  5
40F
100
AcDbEntity
  8
0
  6
Continuous
 62
     8
100
AcDbLine
 10
351.107544
 20
104.594525
 30
0.0
 11
351.107544
 21
111.594418
 31
0.0
  0
LINE
  5
410
100
AcDbEntity
  8
0
  6
Continuous
 62
     8
100
AcDbLine
 10
351.107544
 20
117.594205
 30
0.0
 11
351.107544
 21
127.305025
 31
0.0
  0
LINE
  5
411
100
AcDbEntity
  8
0
  6
Continuous
 62
     8
100
AcDbLine
 10
351.107544
 20
129.304812
 30
0.0
 11
351.107544
 21
130.304918
 31
0.0
  0
LINE
  5
412
100
AcDbEntity
  8
0
  6
Continuous
 62
     8
100
AcDbLine
 10
351.107544
 20
132.304705
 30
0.0
 11
351.107544
 21
142.015525
 31
0.0
  0
LINE
  5
413
100
AcDbEntity
  8
0
  6
Continuous
 62
     8
100
AcDbLine
 10
351.107544
 20
144.015738
 30
0.0
 11
351.107544
 21
145.015419
 31
0.0
  0
LINE
  5
414
100
AcDbEntity
  8
0
  6
Continuous
 62
     8
100
AcDbLine
 10
351.107544
 20
147.015631
 30
0.0
 11
351.107544
 21
156.726451
 31
0.0
  0
LINE
  5
415
100
AcDbEntity
  8
0
  6
Continuous
 62
     8
100
AcDbLine
 10
351.107544
 20
158.726238
 30
0.0
 11
351.107544
 21
159.726344
 31
0.0
  0
LINE
  5
416
100
AcDbEntity
  8
0
  6
Continuous
 62
     8
100
AcDbLine
 10
351.107544
 20
161.726131
 30
0.0
 11
351.107544
 21
171.436951
 31
0.0
  0
LINE
  5
417
100
AcDbEntity
  8
0
  6
Continuous
 62
     8
100
AcDbLine
 10
351.107544
 20
173.437164
 30
0.0
 11
351.107544
 21
174.436845
 31
0.0
  0
LINE
  5
418
100
AcDbEntity
  8
0
  6
Continuous
 62
     8
100
AcDbLine
 10
351.107544
 20
176.437057
 30
0.0
 11
351.107544
 21
186.147877
 31
0.0
  0
LINE
  5
419
100
AcDbEntity
  8
0
  6
Continuous
 62
     8
100
AcDbLine
 10
351.107544
 20
188.147664
 30
0.0
 11
351.107544
 21
189.14777
 31
0.0
  0
LINE
  5
41A
100
AcDbEntity
  8
0
  6
Continuous
 62
     8
100
AcDbLine
 10
351.107544
 20
191.147557
 30
0.0
 11
351.107544
 21
200.858377
 31
0.0
  0
ENDBLK
  5
41B
100
AcDbEntity
  8
0
100
AcDbBlockEnd
  0
BLOCK
  5
41E
100
AcDbEntity
  8
0
100
AcDbBlockBegin
  2
*B86
 70
     0
 10
0.0
 20
0.0
 30
0.0
  3
*B86
  1

  0
LINE
  5
41F
100
AcDbEntity
  8
0
  6
Continuous
 62
     8
100
AcDbLine
 10
217.607818
 20
200.858377
 30
0.0
 11
217.607818
 21
204.858377
 31
0.0
  0
LINE
  5
420
100
AcDbEntity
  8
0
  6
Continuous
 62
     8
100
AcDbLine
 10
217.607818
 20
104.594525
 30
0.0
 11
217.607818
 21
111.594418
 31
0.0
  0
LINE
  5
421
100
AcDbEntity
  8
0
  6
Continuous
 62
     8
100
AcDbLine
 10
217.607818
 20
117.594205
 30
0.0
 11
217.607818
 21
127.305025
 31
0.0
  0
LINE
  5
422
100
AcDbEntity
  8
0
  6
Continuous
 62
     8
100
AcDbLine
 10
217.607818
 20
129.304812
 30
0.0
 11
217.607818
 21
130.304918
 31
0.0
  0
LINE
  5
423
100
AcDbEntity
  8
0
  6
Continuous
 62
     8
100
AcDbLine
 10
217.607818
 20
132.304705
 30
0.0
 11
217.607818
 21
142.015525
 31
0.0
  0
LINE
  5
424
100
AcDbEntity
  8
0
  6
Continuous
 62
     8
100
AcDbLine
 10
217.607818
 20
144.015738
 30
0.0
 11
217.607818
 21
145.015419
 31
0.0
  0
LINE
  5
425
100
AcDbEntity
  8
0
  6
Continuous
 62
     8
100
AcDbLine
 10
217.607818
 20
147.015631
 30
0.0
 11
217.607818
 21
156.726451
 31
0.0
  0
LINE
  5
426
100
AcDbEntity
  8
0
  6
Continuous
 62
     8
100
AcDbLine
 10
217.607818
 20
158.726238
 30
0.0
 11
217.607818
 21
159.726344
 31
0.0
  0
LINE
  5
427
100
AcDbEntity
  8
0
  6
Continuous
 62
     8
100
AcDbLine
 10
217.607818
 20
161.726131
 30
0.0
 11
217.607818
 21
171.436951
 31
0.0
  0
LINE
  5
428
100
AcDbEntity
  8
0
  6
Continuous
 62
     8
100
AcDbLine
 10
217.607818
 20
173.437164
 30
0.0
 11
217.607818
 21
174.436845
 31
0.0
  0
LINE
  5
429
100
AcDbEntity
  8
0
  6
Continuous
 62
     8
100
AcDbLine
 10
217.607818
 20
176.437057
 30
0.0
 11
217.607818
 21
186.147877
 31
0.0
  0
LINE
  5
42A
100
AcDbEntity
  8
0
  6
Continuous
 62
     8
100
AcDbLine
 10
217.607818
 20
188.147664
 30
0.0
 11
217.607818
 21
189.14777
 31
0.0
  0
LINE
  5
42B
100
AcDbEntity
  8
0
  6
Continuous
 62
     8
100
AcDbLine
 10
217.607818
 20
191.147557
 30
0.0
 11
217.607818
 21
200.858377
 31
0.0
  0
ENDBLK
  5
42C
100
AcDbEntity
  8
0
100
AcDbBlockEnd
  0
BLOCK
  5
42F
100
AcDbEntity
  8
0
100
AcDbBlockBegin
  2
*B87
 70
     0
 10
0.0
 20
0.0
 30
0.0
  3
*B87
  1

  0
LINE
  5
430
100
AcDbEntity
  8
0
  6
Continuous
 62
     8
100
AcDbLine
 10
438.107432
 20
131.093938
 30
0.0
 11
438.107432
 21
135.593991
 31
0.0
  0
LINE
  5
431
100
AcDbEntity
  8
0
  6
Continuous
 62
     8
100
AcDbLine
 10
438.107432
 20
141.593778
 30
0.0
 11
438.107432
 21
146.093831
 31
0.0
  0
ENDBLK
  5
432
100
AcDbEntity
  8
0
100
AcDbBlockEnd
  0
BLOCK
  5
435
100
AcDbEntity
  8
0
100
AcDbBlockBegin
  2
*B88
 70
     0
 10
0.0
 20
0.0
 30
0.0
  3
*B88
  1

  0
LINE
  5
436
100
AcDbEntity
  8
0
  6
Continuous
 62
     8
100
AcDbLine
 10
245.607816
 20
79.094793
 30
0.0
 11
245.607816
 21
81.594633
 31
0.0
  0
LINE
  5
437
100
AcDbEntity
  8
0
  6
Continuous
 62
     8
100
AcDbLine
 10
245.607816
 20
87.59442
 30
0.0
 11
245.607816
 21
90.094686
 31
0.0
  0
ENDBLK
  5
438
100
AcDbEntity
  8
0
100
AcDbBlockEnd
  0
BLOCK
  5
43B
100
AcDbEntity
  8
0
100
AcDbBlockBegin
  2
*B89
 70
     0
 10
0.0
 20
0.0
 30
0.0
  3
*B89
  1

  0
LINE
  5
43C
100
AcDbEntity
  8
0
  6
Continuous
 62
     8
100
AcDbLine
 10
198.607925
 20
136.593672
 30
0.0
 11
205.607818
 21
136.593672
 31
0.0
  0
LINE
  5
43D
100
AcDbEntity
  8
0
  6
Continuous
 62
     8
100
AcDbLine
 10
211.607605
 20
136.593672
 30
0.0
 11
218.607924
 21
136.593672
 31
0.0
  0
ENDBLK
  5
43E
100
AcDbEntity
  8
0
100
AcDbBlockEnd
  0
BLOCK
  5
441
100
AcDbEntity
  8
0
100
AcDbBlockBegin
  2
*B90
 70
     0
 10
0.0
 20
0.0
 30
0.0
  3
*B90
  1

  0
LINE
  5
442
100
AcDbEntity
  8
0
  6
Continuous
 62
     8
100
AcDbLine
 10
315.607599
 20
148.593671
 30
0.0
 11
315.607599
 21
155.593565
 31
0.0
  0
LINE
  5
443
100
AcDbEntity
  8
0
  6
Continuous
 62
     8
100
AcDbLine
 10
315.607599
 20
161.593351
 30
0.0
 11
315.607599
 21
168.593245
 31
0.0
  0
ENDBLK
  5
444
100
AcDbEntity
  8
0
100
AcDbBlockEnd
  0
BLOCK
  5
447
100
AcDbEntity
  8
0
100
AcDbBlockBegin
  2
*B91
 70
     0
 10
0.0
 20
0.0
 30
0.0
  3
*B91
  1

  0
LINE
  5
448
100
AcDbEntity
  8
0
  6
Continuous
 62
     8
100
AcDbLine
 10
395.607594
 20
354.628344
 30
0.0
 11
395.607594
 21
367.961676
 31
0.0
  0
LINE
  5
449
100
AcDbEntity
  8
0
  6
Continuous
 62
     8
100
AcDbLine
 10
395.607594
 20
369.961463
 30
0.0
 11
395.607594
 21
370.96157
 31
0.0
  0
LINE
  5
44A
100
AcDbEntity
  8
0
  6
Continuous
 62
     8
100
AcDbLine
 10
395.607594
 20
372.961357
 30
0.0
 11
395.607594
 21
386.294689
 31
0.0
  0
LINE
  5
44B
100
AcDbEntity
  8
0
  6
Continuous
 62
     8
100
AcDbLine
 10
395.607594
 20
388.294476
 30
0.0
 11
395.607594
 21
389.294583
 31
0.0
  0
LINE
  5
44C
100
AcDbEntity
  8
0
  6
Continuous
 62
     8
100
AcDbLine
 10
395.607594
 20
391.29437
 30
0.0
 11
395.607594
 21
404.627702
 31
0.0
  0
ENDBLK
  5
44D
100
AcDbEntity
  8
0
100
AcDbBlockEnd
  0
BLOCK
  5
450
100
AcDbEntity
  8
0
100
AcDbBlockBegin
  2
*B92
 70
     0
 10
0.0
 20
0.0
 30
0.0
  3
*B92
  1

  0
LINE
  5
451
100
AcDbEntity
  8
0
  6
Continuous
 62
     8
100
AcDbLine
 10
103.53654
 20
401.627383
 30
0.0
 11
193.607819
 21
401.627383
 31
0.0
  0
ENDBLK
  5
452
100
AcDbEntity
  8
0
100
AcDbBlockEnd
  0
BLOCK
  5
455
100
AcDbEntity
  8
0
100
AcDbBlockBegin
  2
*B93
 70
     0
 10
0.0
 20
0.0
 30
0.0
  3
*B93
  1

  0
LINE
  5
456
100
AcDbEntity
  8
0
  6
Continuous
 62
     8
100
AcDbLine
 10
329.107758
 20
84.594526
 30
0.0
 11
331.607598
 21
84.594526
 31
0.0
  0
LINE
  5
457
100
AcDbEntity
  8
0
  6
Continuous
 62
     8
100
AcDbLine
 10
337.60781
 20
84.594526
 30
0.0
 11
340.107651
 21
84.594526
 31
0.0
  0
ENDBLK
  5
458
100
AcDbEntity
  8
0
100
AcDbBlockEnd
  0
BLOCK
  5
45B
100
AcDbEntity
  8
0
100
AcDbBlockBegin
  2
*B94
 70
     0
 10
0.0
 20
0.0
 30
0.0
  3
*B94
  1

  0
LINE
  5
45C
100
AcDbEntity
  8
0
  6
Continuous
 62
     8
100
AcDbLine
 10
323.107545
 20
139.093938
 30
0.0
 11
323.107545
 21
141.593778
 31
0.0
  0
LINE
  5
45D
100
AcDbEntity
  8
0
  6
Continuous
 62
     8
100
AcDbLine
 10
323.107545
 20
147.593565
 30
0.0
 11
323.107545
 21
150.093831
 31
0.0
  0
ENDBLK
  5
45E
100
AcDbEntity
  8
0
100
AcDbBlockEnd
  0
BLOCK
  5
461
100
AcDbEntity
  8
0
100
AcDbBlockBegin
  2
*B95
 70
     0
 10
0.0
 20
0.0
 30
0.0
  3
*B95
  1

  0
LINE
  5
462
100
AcDbEntity
  8
0
  6
Continuous
 62
     8
100
AcDbLine
 10
394.607488
 20
92.594526
 30
0.0
 11
401.607807
 21
92.594526
 31
0.0
  0
LINE
  5
463
100
AcDbEntity
  8
0
  6
Continuous
 62
     8
100
AcDbLine
 10
407.607594
 20
92.594526
 30
0.0
 11
414.607487
 21
92.594526
 31
0.0
  0
ENDBLK
  5
464
100
AcDbEntity
  8
0
100
AcDbBlockEnd
  0
BLOCK
  5
467
100
AcDbEntity
  8
0
100
AcDbBlockBegin
  2
*B96
 70
     0
 10
0.0
 20
0.0
 30
0.0
  3
*B96
  1

  0
LINE
  5
468
100
AcDbEntity
  8
0
  6
Continuous
 62
     8
100
AcDbLine
 10
201.107765
 20
20.99968
 30
0.0
 11
201.107765
 21
24.999679
 31
0.0
  0
LINE
  5
469
100
AcDbEntity
  8
0
  6
Continuous
 62
     8
100
AcDbLine
 10
201.107765
 20
24.999679
 30
0.0
 11
201.107765
 21
35.398657
 31
0.0
  0
LINE
  5
46A
100
AcDbEntity
  8
0
  6
Continuous
 62
     8
100
AcDbLine
 10
201.107765
 20
37.398444
 30
0.0
 11
201.107765
 21
38.398551
 31
0.0
  0
LINE
  5
46B
100
AcDbEntity
  8
0
  6
Continuous
 62
     8
100
AcDbLine
 10
201.107765
 20
40.398338
 30
0.0
 11
201.107765
 21
50.797316
 31
0.0
  0
LINE
  5
46C
100
AcDbEntity
  8
0
  6
Continuous
 62
     8
100
AcDbLine
 10
201.107765
 20
52.797103
 30
0.0
 11
201.107765
 21
53.797209
 31
0.0
  0
LINE
  5
46D
100
AcDbEntity
  8
0
  6
Continuous
 62
     8
100
AcDbLine
 10
201.107765
 20
55.796996
 30
0.0
 11
201.107765
 21
66.195974
 31
0.0
  0
LINE
  5
46E
100
AcDbEntity
  8
0
  6
Continuous
 62
     8
100
AcDbLine
 10
201.107765
 20
68.195761
 30
0.0
 11
201.107765
 21
69.195868
 31
0.0
  0
LINE
  5
46F
100
AcDbEntity
  8
0
  6
Continuous
 62
     8
100
AcDbLine
 10
201.107765
 20
71.19608
 30
0.0
 11
201.107765
 21
81.594633
 31
0.0
  0
LINE
  5
470
100
AcDbEntity
  8
0
  6
Continuous
 62
     8
100
AcDbLine
 10
201.107765
 20
87.59442
 30
0.0
 11
201.107765
 21
90.094686
 31
0.0
  0
ENDBLK
  5
471
100
AcDbEntity
  8
0
100
AcDbBlockEnd
  0
BLOCK
  5
474
100
AcDbEntity
  8
0
100
AcDbBlockBegin
  2
*B97
 70
     0
 10
0.0
 20
0.0
 30
0.0
  3
*B97
  1

  0
LINE
  5
475
100
AcDbEntity
  8
0
  6
Continuous
 62
     8
100
AcDbLine
 10
342.107863
 20
60.594953
 30
0.0
 11
342.107863
 21
67.594846
 31
0.0
  0
LINE
  5
476
100
AcDbEntity
  8
0
  6
Continuous
 62
     8
100
AcDbLine
 10
342.107863
 20
73.594633
 30
0.0
 11
342.107863
 21
80.594527
 31
0.0
  0
ENDBLK
  5
477
100
AcDbEntity
  8
0
100
AcDbBlockEnd
  0
BLOCK
  5
47A
100
AcDbEntity
  8
0
100
AcDbBlockBegin
  2
*B98
 70
     0
 10
0.0
 20
0.0
 30
0.0
  3
*B98
  1

  0
LINE
  5
47B
100
AcDbEntity
  8
0
  6
Continuous
 62
     8
100
AcDbLine
 10
287.607601
 20
70.59474
 30
0.0
 11
294.607494
 21
70.59474
 31
0.0
  0
LINE
  5
47C
100
AcDbEntity
  8
0
  6
Continuous
 62
     8
100
AcDbLine
 10
300.607706
 20
70.59474
 30
0.0
 11
307.607599
 21
70.59474
 31
0.0
  0
ENDBLK
  5
47D
100
AcDbEntity
  8
0
100
AcDbBlockEnd
  0
BLOCK
  5
480
100
AcDbEntity
  8
0
100
AcDbBlockBegin
  2
*B99
 70
     0
 10
0.0
 20
0.0
 30
0.0
  3
*B99
  1

  0
LINE
  5
481
100
AcDbEntity
  8
0
  6
Continuous
 62
     8
100
AcDbLine
 10
297.607813
 20
126.593885
 30
0.0
 11
297.607813
 21
133.593779
 31
0.0
  0
LINE
  5
482
100
AcDbEntity
  8
0
  6
Continuous
 62
     8
100
AcDbLine
 10
297.607813
 20
139.593991
 30
0.0
 11
297.607813
 21
146.593884
 31
0.0
  0
ENDBLK
  5
483
100
AcDbEntity
  8
0
100
AcDbBlockEnd
  0
BLOCK
  5
486
100
AcDbEntity
  8
0
100
AcDbBlockBegin
  2
*B100
 70
     0
 10
0.0
 20
0.0
 30
0.0
  3
*B100
  1

  0
LINE
  5
487
100
AcDbEntity
  8
0
  6
Continuous
 62
     8
100
AcDbLine
 10
206.607925
 20
223.996582
 30
0.0
 11
206.607925
 21
247.996155
 31
0.0
  0
LINE
  5
488
100
AcDbEntity
  8
0
  6
Continuous
 62
     8
100
AcDbLine
 10
206.607925
 20
247.996155
 30
0.0
 11
206.607925
 21
257.207347
 31
0.0
  0
LINE
  5
489
100
AcDbEntity
  8
0
  6
Continuous
 62
     8
100
AcDbLine
 10
206.607925
 20
259.207134
 30
0.0
 11
206.607925
 21
260.207241
 31
0.0
  0
LINE
  5
48A
100
AcDbEntity
  8
0
  6
Continuous
 62
     8
100
AcDbLine
 10
206.607925
 20
262.207453
 30
0.0
 11
206.607925
 21
271.41822
 31
0.0
  0
LINE
  5
48B
100
AcDbEntity
  8
0
  6
Continuous
 62
     8
100
AcDbLine
 10
206.607925
 20
273.418432
 30
0.0
 11
206.607925
 21
274.418113
 31
0.0
  0
LINE
  5
48C
100
AcDbEntity
  8
0
  6
Continuous
 62
     8
100
AcDbLine
 10
206.607925
 20
276.418326
 30
0.0
 11
206.607925
 21
285.629518
 31
0.0
  0
LINE
  5
48D
100
AcDbEntity
  8
0
  6
Continuous
 62
     8
100
AcDbLine
 10
206.607925
 20
291.629305
 30
0.0
 11
206.607925
 21
303.379065
 31
0.0
  0
ENDBLK
  5
48E
100
AcDbEntity
  8
0
100
AcDbBlockEnd
  0
BLOCK
  5
491
100
AcDbEntity
  8
0
100
AcDbBlockBegin
  2
*B101
 70
     0
 10
0.0
 20
0.0
 30
0.0
  3
*B101
  1

  0
LINE
  5
492
100
AcDbEntity
  8
0
  6
Continuous
 62
     8
100
AcDbLine
 10
175.107554
 20
20.861367
 30
0.0
 11
175.107554
 21
24.861367
 31
0.0
  0
LINE
  5
493
100
AcDbEntity
  8
0
  6
Continuous
 62
     8
100
AcDbLine
 10
175.107554
 20
24.861367
 30
0.0
 11
175.107554
 21
36.79455
 31
0.0
  0
LINE
  5
494
100
AcDbEntity
  8
0
  6
Continuous
 62
     8
100
AcDbLine
 10
175.107554
 20
38.794763
 30
0.0
 11
175.107554
 21
39.794869
 31
0.0
  0
LINE
  5
495
100
AcDbEntity
  8
0
  6
Continuous
 62
     8
100
AcDbLine
 10
175.107554
 20
41.794657
 30
0.0
 11
175.107554
 21
53.72784
 31
0.0
  0
LINE
  5
496
100
AcDbEntity
  8
0
  6
Continuous
 62
     8
100
AcDbLine
 10
175.107554
 20
55.728053
 30
0.0
 11
175.107554
 21
56.728159
 31
0.0
  0
LINE
  5
497
100
AcDbEntity
  8
0
  6
Continuous
 62
     8
100
AcDbLine
 10
175.107554
 20
58.727946
 30
0.0
 11
175.107554
 21
70.66113
 31
0.0
  0
LINE
  5
498
100
AcDbEntity
  8
0
  6
Continuous
 62
     8
100
AcDbLine
 10
175.107554
 20
72.661343
 30
0.0
 11
175.107554
 21
73.661449
 31
0.0
  0
LINE
  5
499
100
AcDbEntity
  8
0
  6
Continuous
 62
     8
100
AcDbLine
 10
175.107554
 20
75.661236
 30
0.0
 11
175.107554
 21
87.59442
 31
0.0
  0
LINE
  5
49A
100
AcDbEntity
  8
0
  6
Continuous
 62
     8
100
AcDbLine
 10
175.107554
 20
93.594632
 30
0.0
 11
175.107554
 21
98.09426
 31
0.0
  0
ENDBLK
  5
49B
100
AcDbEntity
  8
0
100
AcDbBlockEnd
  0
BLOCK
  5
49E
100
AcDbEntity
  8
0
100
AcDbBlockBegin
  2
*B102
 70
     0
 10
0.0
 20
0.0
 30
0.0
  3
*B102
  1

  0
LINE
  5
49F
100
AcDbEntity
  8
0
  6
Continuous
 62
     8
100
AcDbLine
 10
163.107555
 20
20.861367
 30
0.0
 11
163.107555
 21
42.595167
 31
0.0
  0
LINE
  5
4A0
100
AcDbEntity
  8
0
  6
Continuous
 62
     8
100
AcDbLine
 10
163.107555
 20
186.593031
 30
0.0
 11
163.107555
 21
204.858377
 31
0.0
  0
ENDBLK
  5
4A1
100
AcDbEntity
  8
0
100
AcDbBlockEnd
  0
BLOCK
  5
4A4
100
AcDbEntity
  8
0
100
AcDbBlockBegin
  2
*B103
 70
     0
 10
0.0
 20
0.0
 30
0.0
  3
*B103
  1

  0
LINE
  5
4A5
100
AcDbEntity
  8
0
  6
Continuous
 62
     8
100
AcDbLine
 10
228.607711
 20
144.593672
 30
0.0
 11
231.107551
 21
144.593672
 31
0.0
  0
LINE
  5
4A6
100
AcDbEntity
  8
0
  6
Continuous
 62
     8
100
AcDbLine
 10
237.107763
 20
144.593672
 30
0.0
 11
242.036372
 21
144.593672
 31
0.0
  0
ENDBLK
  5
4A7
100
AcDbEntity
  8
0
100
AcDbBlockEnd
  0
BLOCK
  5
4AA
100
AcDbEntity
  8
0
100
AcDbBlockBegin
  2
*B104
 70
     0
 10
0.0
 20
0.0
 30
0.0
  3
*B104
  1

  0
LINE
  5
4AB
100
AcDbEntity
  8
0
  6
Continuous
 62
     8
100
AcDbLine
 10
362.107437
 20
144.593672
 30
0.0
 11
364.607702
 21
144.593672
 31
0.0
  0
LINE
  5
4AC
100
AcDbEntity
  8
0
  6
Continuous
 62
     8
100
AcDbLine
 10
370.607489
 20
144.593672
 30
0.0
 11
373.107755
 21
144.593672
 31
0.0
  0
ENDBLK
  5
4AD
100
AcDbEntity
  8
0
100
AcDbBlockEnd
  0
BLOCK
  5
4B0
100
AcDbEntity
  8
0
100
AcDbBlockBegin
  2
*B105
 70
     0
 10
0.0
 20
0.0
 30
0.0
  3
*B105
  1

  0
LINE
  5
4B1
100
AcDbEntity
  8
0
  6
Continuous
 62
     8
100
AcDbLine
 10
261.107762
 20
92.594526
 30
0.0
 11
268.107655
 21
92.594526
 31
0.0
  0
LINE
  5
4B2
100
AcDbEntity
  8
0
  6
Continuous
 62
     8
100
AcDbLine
 10
274.107867
 20
92.594526
 30
0.0
 11
281.107761
 21
92.594526
 31
0.0
  0
ENDBLK
  5
4B3
100
AcDbEntity
  8
0
100
AcDbBlockEnd
  0
BLOCK
  5
4B6
100
AcDbEntity
  8
0
100
AcDbBlockBegin
  2
*B106
 70
     0
 10
0.0
 20
0.0
 30
0.0
  3
*B106
  1

  0
LINE
  5
4B7
100
AcDbEntity
  8
0
  6
Continuous
 62
     8
100
AcDbLine
 10
103.53654
 20
357.628237
 30
0.0
 11
161.107768
 21
357.628237
 31
0.0
  0
ENDBLK
  5
4B8
100
AcDbEntity
  8
0
100
AcDbBlockEnd
  0
BLOCK
  5
4BB
100
AcDbEntity
  8
0
100
AcDbBlockBegin
  2
*B107
 70
     0
 10
0.0
 20
0.0
 30
0.0
  3
*B107
  1

  0
LINE
  5
4BC
100
AcDbEntity
  8
0
  6
Continuous
 62
     8
100
AcDbLine
 10
243.10755
 20
70.59474
 30
0.0
 11
250.107869
 21
70.59474
 31
0.0
  0
LINE
  5
4BD
100
AcDbEntity
  8
0
  6
Continuous
 62
     8
100
AcDbLine
 10
256.107656
 20
70.59474
 30
0.0
 11
263.107549
 21
70.59474
 31
0.0
  0
ENDBLK
  5
4BE
100
AcDbEntity
  8
0
100
AcDbBlockEnd
  0
BLOCK
  5
4C1
100
AcDbEntity
  8
0
100
AcDbBlockBegin
  2
*B108
 70
     0
 10
0.0
 20
0.0
 30
0.0
  3
*B108
  1

  0
LINE
  5
4C2
100
AcDbEntity
  8
0
  6
Continuous
 62
     8
100
AcDbLine
 10
175.107554
 20
131.093938
 30
0.0
 11
175.107554
 21
135.593991
 31
0.0
  0
LINE
  5
4C3
100
AcDbEntity
  8
0
  6
Continuous
 62
     8
100
AcDbLine
 10
175.107554
 20
141.593778
 30
0.0
 11
175.107554
 21
146.093831
 31
0.0
  0
ENDBLK
  5
4C4
100
AcDbEntity
  8
0
100
AcDbBlockEnd
  0
BLOCK
  5
4C7
100
AcDbEntity
  8
0
100
AcDbBlockBegin
  2
*B109
 70
     0
 10
0.0
 20
0.0
 30
0.0
  3
*B109
  1

  0
LINE
  5
4C8
100
AcDbEntity
  8
0
  6
Continuous
 62
     8
100
AcDbLine
 10
327.465456
 20
136.593672
 30
0.0
 11
331.465455
 21
136.593672
 31
0.0
  0
LINE
  5
4C9
100
AcDbEntity
  8
0
  6
Continuous
 62
     8
100
AcDbLine
 10
287.607601
 20
136.593672
 30
0.0
 11
294.607494
 21
136.593672
 31
0.0
  0
LINE
  5
4CA
100
AcDbEntity
  8
0
  6
Continuous
 62
     8
100
AcDbLine
 10
300.607706
 20
136.593672
 30
0.0
 11
311.536528
 21
136.593672
 31
0.0
  0
LINE
  5
4CB
100
AcDbEntity
  8
0
  6
Continuous
 62
     8
100
AcDbLine
 10
313.536741
 20
136.593672
 30
0.0
 11
314.536421
 21
136.593672
 31
0.0
  0
LINE
  5
4CC
100
AcDbEntity
  8
0
  6
Continuous
 62
     8
100
AcDbLine
 10
316.536634
 20
136.593672
 30
0.0
 11
327.465456
 21
136.593672
 31
0.0
  0
ENDBLK
  5
4CD
100
AcDbEntity
  8
0
100
AcDbBlockEnd
  0
BLOCK
  5
4D0
100
AcDbEntity
  8
0
100
AcDbBlockBegin
  2
*B110
 70
     0
 10
0.0
 20
0.0
 30
0.0
  3
*B110
  1

  0
LINE
  5
4D1
100
AcDbEntity
  8
0
  6
Continuous
 62
     8
100
AcDbLine
 10
105.465682
 20
44.59538
 30
0.0
 11
161.107768
 21
44.59538
 31
0.0
  0
ENDBLK
  5
4D2
100
AcDbEntity
  8
0
100
AcDbBlockEnd
  0
BLOCK
  5
4D5
100
AcDbEntity
  8
0
100
AcDbBlockBegin
  2
*B111
 70
     0
 10
0.0
 20
0.0
 30
0.0
  3
*B111
  1

  0
LINE
  5
4D6
100
AcDbEntity
  8
0
  6
Continuous
 62
     8
100
AcDbLine
 10
273.107761
 20
144.593672
 30
0.0
 11
275.607601
 21
144.593672
 31
0.0
  0
LINE
  5
4D7
100
AcDbEntity
  8
0
  6
Continuous
 62
     8
100
AcDbLine
 10
281.607814
 20
144.593672
 30
0.0
 11
284.107654
 21
144.593672
 31
0.0
  0
ENDBLK
  5
4D8
100
AcDbEntity
  8
0
100
AcDbBlockEnd
  0
BLOCK
  5
4DB
100
AcDbEntity
  8
0
100
AcDbBlockBegin
  2
*B112
 70
     0
 10
0.0
 20
0.0
 30
0.0
  3
*B112
  1

  0
LINE
  5
4DC
100
AcDbEntity
  8
0
  6
Continuous
 62
     8
100
AcDbLine
 10
253.107762
 20
126.593885
 30
0.0
 11
253.107762
 21
133.593779
 31
0.0
  0
LINE
  5
4DD
100
AcDbEntity
  8
0
  6
Continuous
 62
     8
100
AcDbLine
 10
253.107762
 20
139.593991
 30
0.0
 11
253.107762
 21
146.593884
 31
0.0
  0
ENDBLK
  5
4DE
100
AcDbEntity
  8
0
100
AcDbBlockEnd
  0
BLOCK
  5
4E1
100
AcDbEntity
  8
0
100
AcDbBlockBegin
  2
*B113
 70
     0
 10
0.0
 20
0.0
 30
0.0
  3
*B113
  1

  0
LINE
  5
4E2
100
AcDbEntity
  8
0
  6
Continuous
 62
     8
100
AcDbLine
 10
142.323643
 20
288.629411
 30
0.0
 11
146.323643
 21
288.629411
 31
0.0
  0
LINE
  5
4E3
100
AcDbEntity
  8
0
  6
Continuous
 62
     8
100
AcDbLine
 10
146.323643
 20
288.629411
 30
0.0
 11
156.894554
 21
288.629411
 31
0.0
  0
LINE
  5
4E4
100
AcDbEntity
  8
0
  6
Continuous
 62
     8
100
AcDbLine
 10
158.894767
 20
288.629411
 30
0.0
 11
159.894447
 21
288.629411
 31
0.0
  0
LINE
  5
4E5
100
AcDbEntity
  8
0
  6
Continuous
 62
     8
100
AcDbLine
 10
161.89466
 20
288.629411
 30
0.0
 11
172.465571
 21
288.629411
 31
0.0
  0
LINE
  5
4E6
100
AcDbEntity
  8
0
  6
Continuous
 62
     8
100
AcDbLine
 10
174.465784
 20
288.629411
 30
0.0
 11
175.465465
 21
288.629411
 31
0.0
  0
LINE
  5
4E7
100
AcDbEntity
  8
0
  6
Continuous
 62
     8
100
AcDbLine
 10
177.465677
 20
288.629411
 30
0.0
 11
188.036588
 21
288.629411
 31
0.0
  0
LINE
  5
4E8
100
AcDbEntity
  8
0
  6
Continuous
 62
     8
100
AcDbLine
 10
190.036801
 20
288.629411
 30
0.0
 11
191.036482
 21
288.629411
 31
0.0
  0
LINE
  5
4E9
100
AcDbEntity
  8
0
  6
Continuous
 62
     8
100
AcDbLine
 10
193.036695
 20
288.629411
 30
0.0
 11
203.607606
 21
288.629411
 31
0.0
  0
LINE
  5
4EA
100
AcDbEntity
  8
0
  6
Continuous
 62
     8
100
AcDbLine
 10
209.607818
 20
288.629411
 30
0.0
 11
219.107552
 21
288.629411
 31
0.0
  0
LINE
  5
4EB
100
AcDbEntity
  8
0
  6
Continuous
 62
     8
100
AcDbLine
 10
221.107764
 20
288.629411
 30
0.0
 11
222.107871
 21
288.629411
 31
0.0
  0
LINE
  5
4EC
100
AcDbEntity
  8
0
  6
Continuous
 62
     8
100
AcDbLine
 10
224.107658
 20
288.629411
 30
0.0
 11
233.607817
 21
288.629411
 31
0.0
  0
LINE
  5
4ED
100
AcDbEntity
  8
0
  6
Continuous
 62
     8
100
AcDbLine
 10
235.607604
 20
288.629411
 30
0.0
 11
236.60771
 21
288.629411
 31
0.0
  0
LINE
  5
4EE
100
AcDbEntity
  8
0
  6
Continuous
 62
     8
100
AcDbLine
 10
238.607497
 20
288.629411
 30
0.0
 11
248.107656
 21
288.629411
 31
0.0
  0
LINE
  5
4EF
100
AcDbEntity
  8
0
  6
Continuous
 62
     8
100
AcDbLine
 10
254.107869
 20
288.629411
 30
0.0
 11
263.607602
 21
288.629411
 31
0.0
  0
LINE
  5
4F0
100
AcDbEntity
  8
0
  6
Continuous
 62
     8
100
AcDbLine
 10
265.607815
 20
288.629411
 30
0.0
 11
266.607496
 21
288.629411
 31
0.0
  0
LINE
  5
4F1
100
AcDbEntity
  8
0
  6
Continuous
 62
     8
100
AcDbLine
 10
268.607708
 20
288.629411
 30
0.0
 11
278.107867
 21
288.629411
 31
0.0
  0
LINE
  5
4F2
100
AcDbEntity
  8
0
  6
Continuous
 62
     8
100
AcDbLine
 10
280.107654
 20
288.629411
 30
0.0
 11
281.107761
 21
288.629411
 31
0.0
  0
LINE
  5
4F3
100
AcDbEntity
  8
0
  6
Continuous
 62
     8
100
AcDbLine
 10
283.107548
 20
288.629411
 30
0.0
 11
292.607707
 21
288.629411
 31
0.0
  0
LINE
  5
4F4
100
AcDbEntity
  8
0
  6
Continuous
 62
     8
100
AcDbLine
 10
298.607494
 20
288.629411
 30
0.0
 11
308.107653
 21
288.629411
 31
0.0
  0
LINE
  5
4F5
100
AcDbEntity
  8
0
  6
Continuous
 62
     8
100
AcDbLine
 10
310.107865
 20
288.629411
 30
0.0
 11
311.107546
 21
288.629411
 31
0.0
  0
LINE
  5
4F6
100
AcDbEntity
  8
0
  6
Continuous
 62
     8
100
AcDbLine
 10
313.107759
 20
288.629411
 30
0.0
 11
322.607492
 21
288.629411
 31
0.0
  0
LINE
  5
4F7
100
AcDbEntity
  8
0
  6
Continuous
 62
     8
100
AcDbLine
 10
324.607705
 20
288.629411
 30
0.0
 11
325.607811
 21
288.629411
 31
0.0
  0
LINE
  5
4F8
100
AcDbEntity
  8
0
  6
Continuous
 62
     8
100
AcDbLine
 10
327.607598
 20
288.629411
 30
0.0
 11
337.107757
 21
288.629411
 31
0.0
  0
LINE
  5
4F9
100
AcDbEntity
  8
0
  6
Continuous
 62
     8
100
AcDbLine
 10
343.107544
 20
288.629411
 30
0.0
 11
352.607703
 21
288.629411
 31
0.0
  0
LINE
  5
4FA
100
AcDbEntity
  8
0
  6
Continuous
 62
     8
100
AcDbLine
 10
354.60749
 20
288.629411
 30
0.0
 11
355.607597
 21
288.629411
 31
0.0
  0
LINE
  5
4FB
100
AcDbEntity
  8
0
  6
Continuous
 62
     8
100
AcDbLine
 10
357.607809
 20
288.629411
 30
0.0
 11
367.107543
 21
288.629411
 31
0.0
  0
LINE
  5
4FC
100
AcDbEntity
  8
0
  6
Continuous
 62
     8
100
AcDbLine
 10
369.107755
 20
288.629411
 30
0.0
 11
370.107436
 21
288.629411
 31
0.0
  0
LINE
  5
4FD
100
AcDbEntity
  8
0
  6
Continuous
 62
     8
100
AcDbLine
 10
372.107649
 20
288.629411
 30
0.0
 11
381.607808
 21
288.629411
 31
0.0
  0
LINE
  5
4FE
100
AcDbEntity
  8
0
  6
Continuous
 62
     8
100
AcDbLine
 10
387.607595
 20
288.629411
 30
0.0
 11
399.35778
 21
288.629411
 31
0.0
  0
ENDBLK
  5
4FF
100
AcDbEntity
  8
0
100
AcDbBlockEnd
  0
BLOCK
  5
502
100
AcDbEntity
  8
0
100
AcDbBlockBegin
  2
*B114
 70
     0
 10
0.0
 20
0.0
 30
0.0
  3
*B114
  1

  0
LINE
  5
503
100
AcDbEntity
  8
0
  6
Continuous
 62
     8
100
AcDbLine
 10
350.107863
 20
92.594526
 30
0.0
 11
357.107756
 21
92.594526
 31
0.0
  0
LINE
  5
504
100
AcDbEntity
  8
0
  6
Continuous
 62
     8
100
AcDbLine
 10
363.107543
 20
92.594526
 30
0.0
 11
370.107436
 21
92.594526
 31
0.0
  0
ENDBLK
  5
505
100
AcDbEntity
  8
0
100
AcDbBlockEnd
  0
BLOCK
  5
508
100
AcDbEntity
  8
0
100
AcDbBlockBegin
  2
*B115
 70
     0
 10
0.0
 20
0.0
 30
0.0
  3
*B115
  1

  0
LINE
  5
509
100
AcDbEntity
  8
0
  6
Continuous
 62
     8
100
AcDbLine
 10
143.465466
 20
162.593458
 30
0.0
 11
147.465466
 21
162.593458
 31
0.0
  0
LINE
  5
50A
100
AcDbEntity
  8
0
  6
Continuous
 62
     8
100
AcDbLine
 10
147.465466
 20
162.593458
 30
0.0
 11
157.99765
 21
162.593458
 31
0.0
  0
LINE
  5
50B
100
AcDbEntity
  8
0
  6
Continuous
 62
     8
100
AcDbLine
 10
159.997437
 20
162.593458
 30
0.0
 11
160.997543
 21
162.593458
 31
0.0
  0
LINE
  5
50C
100
AcDbEntity
  8
0
  6
Continuous
 62
     8
100
AcDbLine
 10
162.997756
 20
162.593458
 30
0.0
 11
173.529514
 21
162.593458
 31
0.0
  0
LINE
  5
50D
100
AcDbEntity
  8
0
  6
Continuous
 62
     8
100
AcDbLine
 10
175.529727
 20
162.593458
 30
0.0
 11
176.529833
 21
162.593458
 31
0.0
  0
LINE
  5
50E
100
AcDbEntity
  8
0
  6
Continuous
 62
     8
100
AcDbLine
 10
178.52962
 20
162.593458
 30
0.0
 11
189.061804
 21
162.593458
 31
0.0
  0
LINE
  5
50F
100
AcDbEntity
  8
0
  6
Continuous
 62
     8
100
AcDbLine
 10
191.061591
 20
162.593458
 30
0.0
 11
192.061697
 21
162.593458
 31
0.0
  0
LINE
  5
510
100
AcDbEntity
  8
0
  6
Continuous
 62
     8
100
AcDbLine
 10
194.06191
 20
162.593458
 30
0.0
 11
204.594094
 21
162.593458
 31
0.0
  0
LINE
  5
511
100
AcDbEntity
  8
0
  6
Continuous
 62
     8
100
AcDbLine
 10
206.593881
 20
162.593458
 30
0.0
 11
207.593987
 21
162.593458
 31
0.0
  0
LINE
  5
512
100
AcDbEntity
  8
0
  6
Continuous
 62
     8
100
AcDbLine
 10
209.593774
 20
162.593458
 30
0.0
 11
220.125958
 21
162.593458
 31
0.0
  0
LINE
  5
513
100
AcDbEntity
  8
0
  6
Continuous
 62
     8
100
AcDbLine
 10
222.12617
 20
162.593458
 30
0.0
 11
223.125851
 21
162.593458
 31
0.0
  0
LINE
  5
514
100
AcDbEntity
  8
0
  6
Continuous
 62
     8
100
AcDbLine
 10
225.126064
 20
162.593458
 30
0.0
 11
235.658247
 21
162.593458
 31
0.0
  0
LINE
  5
515
100
AcDbEntity
  8
0
  6
Continuous
 62
     8
100
AcDbLine
 10
237.658035
 20
162.593458
 30
0.0
 11
238.658141
 21
162.593458
 31
0.0
  0
LINE
  5
516
100
AcDbEntity
  8
0
  6
Continuous
 62
     8
100
AcDbLine
 10
240.657928
 20
162.593458
 30
0.0
 11
251.190112
 21
162.593458
 31
0.0
  0
LINE
  5
517
100
AcDbEntity
  8
0
  6
Continuous
 62
     8
100
AcDbLine
 10
253.190324
 20
162.593458
 30
0.0
 11
254.190005
 21
162.593458
 31
0.0
  0
LINE
  5
518
100
AcDbEntity
  8
0
  6
Continuous
 62
     8
100
AcDbLine
 10
256.190218
 20
162.593458
 30
0.0
 11
266.722401
 21
162.593458
 31
0.0
  0
LINE
  5
519
100
AcDbEntity
  8
0
  6
Continuous
 62
     8
100
AcDbLine
 10
268.722188
 20
162.593458
 30
0.0
 11
269.722295
 21
162.593458
 31
0.0
  0
LINE
  5
51A
100
AcDbEntity
  8
0
  6
Continuous
 62
     8
100
AcDbLine
 10
271.722507
 20
162.593458
 30
0.0
 11
282.254266
 21
162.593458
 31
0.0
  0
LINE
  5
51B
100
AcDbEntity
  8
0
  6
Continuous
 62
     8
100
AcDbLine
 10
284.254478
 20
162.593458
 30
0.0
 11
285.254585
 21
162.593458
 31
0.0
  0
LINE
  5
51C
100
AcDbEntity
  8
0
  6
Continuous
 62
     8
100
AcDbLine
 10
287.254372
 20
162.593458
 30
0.0
 11
297.786555
 21
162.593458
 31
0.0
  0
LINE
  5
51D
100
AcDbEntity
  8
0
  6
Continuous
 62
     8
100
AcDbLine
 10
299.786342
 20
162.593458
 30
0.0
 11
300.786449
 21
162.593458
 31
0.0
  0
LINE
  5
51E
100
AcDbEntity
  8
0
  6
Continuous
 62
     8
100
AcDbLine
 10
302.786661
 20
162.593458
 30
0.0
 11
313.318845
 21
162.593458
 31
0.0
  0
LINE
  5
51F
100
AcDbEntity
  8
0
  6
Continuous
 62
     8
100
AcDbLine
 10
315.318632
 20
162.593458
 30
0.0
 11
316.318738
 21
162.593458
 31
0.0
  0
LINE
  5
520
100
AcDbEntity
  8
0
  6
Continuous
 62
     8
100
AcDbLine
 10
318.318526
 20
162.593458
 30
0.0
 11
328.850709
 21
162.593458
 31
0.0
  0
LINE
  5
521
100
AcDbEntity
  8
0
  6
Continuous
 62
     8
100
AcDbLine
 10
330.850922
 20
162.593458
 30
0.0
 11
331.850603
 21
162.593458
 31
0.0
  0
LINE
  5
522
100
AcDbEntity
  8
0
  6
Continuous
 62
     8
100
AcDbLine
 10
333.850815
 20
162.593458
 30
0.0
 11
344.382999
 21
162.593458
 31
0.0
  0
LINE
  5
523
100
AcDbEntity
  8
0
  6
Continuous
 62
     8
100
AcDbLine
 10
346.382786
 20
162.593458
 30
0.0
 11
347.382892
 21
162.593458
 31
0.0
  0
LINE
  5
524
100
AcDbEntity
  8
0
  6
Continuous
 62
     8
100
AcDbLine
 10
349.382679
 20
162.593458
 30
0.0
 11
359.914863
 21
162.593458
 31
0.0
  0
LINE
  5
525
100
AcDbEntity
  8
0
  6
Continuous
 62
     8
100
AcDbLine
 10
361.915076
 20
162.593458
 30
0.0
 11
362.914757
 21
162.593458
 31
0.0
  0
LINE
  5
526
100
AcDbEntity
  8
0
  6
Continuous
 62
     8
100
AcDbLine
 10
364.914969
 20
162.593458
 30
0.0
 11
375.447153
 21
162.593458
 31
0.0
  0
LINE
  5
527
100
AcDbEntity
  8
0
  6
Continuous
 62
     8
100
AcDbLine
 10
377.44694
 20
162.593458
 30
0.0
 11
378.447046
 21
162.593458
 31
0.0
  0
LINE
  5
528
100
AcDbEntity
  8
0
  6
Continuous
 62
     8
100
AcDbLine
 10
380.447259
 20
162.593458
 30
0.0
 11
390.979017
 21
162.593458
 31
0.0
  0
LINE
  5
529
100
AcDbEntity
  8
0
  6
Continuous
 62
     8
100
AcDbLine
 10
392.97923
 20
162.593458
 30
0.0
 11
393.979336
 21
162.593458
 31
0.0
  0
LINE
  5
52A
100
AcDbEntity
  8
0
  6
Continuous
 62
     8
100
AcDbLine
 10
395.979123
 20
162.593458
 30
0.0
 11
406.511307
 21
162.593458
 31
0.0
  0
LINE
  5
52B
100
AcDbEntity
  8
0
  6
Continuous
 62
     8
100
AcDbLine
 10
408.511094
 20
162.593458
 30
0.0
 11
409.5112
 21
162.593458
 31
0.0
  0
LINE
  5
52C
100
AcDbEntity
  8
0
  6
Continuous
 62
     8
100
AcDbLine
 10
411.511413
 20
162.593458
 30
0.0
 11
422.043597
 21
162.593458
 31
0.0
  0
LINE
  5
52D
100
AcDbEntity
  8
0
  6
Continuous
 62
     8
100
AcDbLine
 10
424.043384
 20
162.593458
 30
0.0
 11
425.04349
 21
162.593458
 31
0.0
  0
LINE
  5
52E
100
AcDbEntity
  8
0
  6
Continuous
 62
     8
100
AcDbLine
 10
427.043277
 20
162.593458
 30
0.0
 11
437.575461
 21
162.593458
 31
0.0
  0
LINE
  5
52F
100
AcDbEntity
  8
0
  6
Continuous
 62
     8
100
AcDbLine
 10
439.575673
 20
162.593458
 30
0.0
 11
440.575354
 21
162.593458
 31
0.0
  0
LINE
  5
530
100
AcDbEntity
  8
0
  6
Continuous
 62
     8
100
AcDbLine
 10
442.575567
 20
162.593458
 30
0.0
 11
453.10775
 21
162.593458
 31
0.0
  0
ENDBLK
  5
531
100
AcDbEntity
  8
0
100
AcDbBlockEnd
  0
BLOCK
  5
534
100
AcDbEntity
  8
0
100
AcDbBlockBegin
  2
*B116
 70
     0
 10
0.0
 20
0.0
 30
0.0
  3
*B116
  1

  0
LINE
  5
535
100
AcDbEntity
  8
0
  6
Continuous
 62
     8
100
AcDbLine
 10
251.10755
 20
223.996582
 30
0.0
 11
251.10755
 21
227.996582
 31
0.0
  0
LINE
  5
536
100
AcDbEntity
  8
0
  6
Continuous
 62
     8
100
AcDbLine
 10
251.10755
 20
227.996582
 30
0.0
 11
251.10755
 21
238.654736
 31
0.0
  0
LINE
  5
537
100
AcDbEntity
  8
0
  6
Continuous
 62
     8
100
AcDbLine
 10
251.10755
 20
240.654949
 30
0.0
 11
251.10755
 21
241.65463
 31
0.0
  0
LINE
  5
538
100
AcDbEntity
  8
0
  6
Continuous
 62
     8
100
AcDbLine
 10
251.10755
 20
243.654842
 30
0.0
 11
251.10755
 21
254.312997
 31
0.0
  0
LINE
  5
539
100
AcDbEntity
  8
0
  6
Continuous
 62
     8
100
AcDbLine
 10
251.10755
 20
256.312784
 30
0.0
 11
251.10755
 21
257.31289
 31
0.0
  0
LINE
  5
53A
100
AcDbEntity
  8
0
  6
Continuous
 62
     8
100
AcDbLine
 10
251.10755
 20
259.313103
 30
0.0
 11
251.10755
 21
269.971257
 31
0.0
  0
LINE
  5
53B
100
AcDbEntity
  8
0
  6
Continuous
 62
     8
100
AcDbLine
 10
251.10755
 20
271.971045
 30
0.0
 11
251.10755
 21
272.971151
 31
0.0
  0
LINE
  5
53C
100
AcDbEntity
  8
0
  6
Continuous
 62
     8
100
AcDbLine
 10
251.10755
 20
274.970938
 30
0.0
 11
251.10755
 21
285.629518
 31
0.0
  0
LINE
  5
53D
100
AcDbEntity
  8
0
  6
Continuous
 62
     8
100
AcDbLine
 10
251.10755
 20
291.629305
 30
0.0
 11
251.10755
 21
303.379065
 31
0.0
  0
ENDBLK
  5
53E
100
AcDbEntity
  8
0
100
AcDbBlockEnd
  0
BLOCK
  5
541
100
AcDbEntity
  8
0
100
AcDbBlockBegin
  2
*B117
 70
     0
 10
0.0
 20
0.0
 30
0.0
  3
*B117
  1

  0
LINE
  5
542
100
AcDbEntity
  8
0
  6
Continuous
 62
     8
100
AcDbLine
 10
142.323643
 20
337.628664
 30
0.0
 11
146.323643
 21
337.628664
 31
0.0
  0
LINE
  5
543
100
AcDbEntity
  8
0
  6
Continuous
 62
     8
100
AcDbLine
 10
146.323643
 20
337.628664
 30
0.0
 11
158.180223
 21
337.628664
 31
0.0
  0
LINE
  5
544
100
AcDbEntity
  8
0
  6
Continuous
 62
     8
100
AcDbLine
 10
160.180435
 20
337.628664
 30
0.0
 11
161.180542
 21
337.628664
 31
0.0
  0
LINE
  5
545
100
AcDbEntity
  8
0
  6
Continuous
 62
     8
100
AcDbLine
 10
163.180329
 20
337.628664
 30
0.0
 11
175.037334
 21
337.628664
 31
0.0
  0
LINE
  5
546
100
AcDbEntity
  8
0
  6
Continuous
 62
     8
100
AcDbLine
 10
177.037121
 20
337.628664
 30
0.0
 11
178.037227
 21
337.628664
 31
0.0
  0
LINE
  5
547
100
AcDbEntity
  8
0
  6
Continuous
 62
     8
100
AcDbLine
 10
180.037014
 20
337.628664
 30
0.0
 11
191.89402
 21
337.628664
 31
0.0
  0
LINE
  5
548
100
AcDbEntity
  8
0
  6
Continuous
 62
     8
100
AcDbLine
 10
193.894233
 20
337.628664
 30
0.0
 11
194.893913
 21
337.628664
 31
0.0
  0
LINE
  5
549
100
AcDbEntity
  8
0
  6
Continuous
 62
     8
100
AcDbLine
 10
196.894126
 20
337.628664
 30
0.0
 11
208.750706
 21
337.628664
 31
0.0
  0
LINE
  5
54A
100
AcDbEntity
  8
0
  6
Continuous
 62
     8
100
AcDbLine
 10
210.750918
 20
337.628664
 30
0.0
 11
211.751025
 21
337.628664
 31
0.0
  0
LINE
  5
54B
100
AcDbEntity
  8
0
  6
Continuous
 62
     8
100
AcDbLine
 10
213.750812
 20
337.628664
 30
0.0
 11
225.607817
 21
337.628664
 31
0.0
  0
LINE
  5
54C
100
AcDbEntity
  8
0
  6
Continuous
 62
     8
100
AcDbLine
 10
231.607604
 20
337.628664
 30
0.0
 11
241.107763
 21
337.628664
 31
0.0
  0
LINE
  5
54D
100
AcDbEntity
  8
0
  6
Continuous
 62
     8
100
AcDbLine
 10
243.10755
 20
337.628664
 30
0.0
 11
244.107656
 21
337.628664
 31
0.0
  0
LINE
  5
54E
100
AcDbEntity
  8
0
  6
Continuous
 62
     8
100
AcDbLine
 10
246.107869
 20
337.628664
 30
0.0
 11
255.607603
 21
337.628664
 31
0.0
  0
LINE
  5
54F
100
AcDbEntity
  8
0
  6
Continuous
 62
     8
100
AcDbLine
 10
257.607815
 20
337.628664
 30
0.0
 11
258.607496
 21
337.628664
 31
0.0
  0
LINE
  5
550
100
AcDbEntity
  8
0
  6
Continuous
 62
     8
100
AcDbLine
 10
260.607709
 20
337.628664
 30
0.0
 11
270.107868
 21
337.628664
 31
0.0
  0
LINE
  5
551
100
AcDbEntity
  8
0
  6
Continuous
 62
     8
100
AcDbLine
 10
276.107655
 20
337.628664
 30
0.0
 11
285.607814
 21
337.628664
 31
0.0
  0
LINE
  5
552
100
AcDbEntity
  8
0
  6
Continuous
 62
     8
100
AcDbLine
 10
287.607601
 20
337.628664
 30
0.0
 11
288.607707
 21
337.628664
 31
0.0
  0
LINE
  5
553
100
AcDbEntity
  8
0
  6
Continuous
 62
     8
100
AcDbLine
 10
290.607494
 20
337.628664
 30
0.0
 11
300.107653
 21
337.628664
 31
0.0
  0
LINE
  5
554
100
AcDbEntity
  8
0
  6
Continuous
 62
     8
100
AcDbLine
 10
302.107866
 20
337.628664
 30
0.0
 11
303.107547
 21
337.628664
 31
0.0
  0
LINE
  5
555
100
AcDbEntity
  8
0
  6
Continuous
 62
     8
100
AcDbLine
 10
305.107759
 20
337.628664
 30
0.0
 11
314.607493
 21
337.628664
 31
0.0
  0
LINE
  5
556
100
AcDbEntity
  8
0
  6
Continuous
 62
     8
100
AcDbLine
 10
320.607705
 20
337.628664
 30
0.0
 11
330.107864
 21
337.628664
 31
0.0
  0
LINE
  5
557
100
AcDbEntity
  8
0
  6
Continuous
 62
     8
100
AcDbLine
 10
332.107651
 20
337.628664
 30
0.0
 11
333.107758
 21
337.628664
 31
0.0
  0
LINE
  5
558
100
AcDbEntity
  8
0
  6
Continuous
 62
     8
100
AcDbLine
 10
335.107545
 20
337.628664
 30
0.0
 11
344.607704
 21
337.628664
 31
0.0
  0
LINE
  5
559
100
AcDbEntity
  8
0
  6
Continuous
 62
     8
100
AcDbLine
 10
346.607491
 20
337.628664
 30
0.0
 11
347.607597
 21
337.628664
 31
0.0
  0
LINE
  5
55A
100
AcDbEntity
  8
0
  6
Continuous
 62
     8
100
AcDbLine
 10
349.60781
 20
337.628664
 30
0.0
 11
359.107543
 21
337.628664
 31
0.0
  0
LINE
  5
55B
100
AcDbEntity
  8
0
  6
Continuous
 62
     8
100
AcDbLine
 10
365.107756
 20
337.628664
 30
0.0
 11
374.607489
 21
337.628664
 31
0.0
  0
LINE
  5
55C
100
AcDbEntity
  8
0
  6
Continuous
 62
     8
100
AcDbLine
 10
376.607702
 20
337.628664
 30
0.0
 11
377.607808
 21
337.628664
 31
0.0
  0
LINE
  5
55D
100
AcDbEntity
  8
0
  6
Continuous
 62
     8
100
AcDbLine
 10
379.607595
 20
337.628664
 30
0.0
 11
389.107754
 21
337.628664
 31
0.0
  0
LINE
  5
55E
100
AcDbEntity
  8
0
  6
Continuous
 62
     8
100
AcDbLine
 10
391.107541
 20
337.628664
 30
0.0
 11
392.107648
 21
337.628664
 31
0.0
  0
LINE
  5
55F
100
AcDbEntity
  8
0
  6
Continuous
 62
     8
100
AcDbLine
 10
394.10786
 20
337.628664
 30
0.0
 11
403.607594
 21
337.628664
 31
0.0
  0
LINE
  5
560
100
AcDbEntity
  8
0
  6
Continuous
 62
     8
100
AcDbLine
 10
409.607806
 20
337.628664
 30
0.0
 11
421.357566
 21
337.628664
 31
0.0
  0
ENDBLK
  5
561
100
AcDbEntity
  8
0
100
AcDbBlockEnd
  0
BLOCK
  5
564
100
AcDbEntity
  8
0
100
AcDbBlockBegin
  2
*B118
 70
     0
 10
0.0
 20
0.0
 30
0.0
  3
*B118
  1

  0
LINE
  5
565
100
AcDbEntity
  8
0
  6
Continuous
 62
     8
100
AcDbLine
 10
167.607608
 20
90.594739
 30
0.0
 11
172.107661
 21
90.594739
 31
0.0
  0
LINE
  5
566
100
AcDbEntity
  8
0
  6
Continuous
 62
     8
100
AcDbLine
 10
178.107873
 20
90.594739
 30
0.0
 11
182.607926
 21
90.594739
 31
0.0
  0
ENDBLK
  5
567
100
AcDbEntity
  8
0
100
AcDbBlockEnd
  0
BLOCK
  5
56A
100
AcDbEntity
  8
0
100
AcDbBlockBegin
  2
*B119
 70
     0
 10
0.0
 20
0.0
 30
0.0
  3
*B119
  1

  0
LINE
  5
56B
100
AcDbEntity
  8
0
  6
Continuous
 62
     8
100
AcDbLine
 10
467.465447
 20
138.593885
 30
0.0
 11
471.465447
 21
138.593885
 31
0.0
  0
LINE
  5
56C
100
AcDbEntity
  8
0
  6
Continuous
 62
     8
100
AcDbLine
 10
430.607486
 20
138.593885
 30
0.0
 11
435.107539
 21
138.593885
 31
0.0
  0
LINE
  5
56D
100
AcDbEntity
  8
0
  6
Continuous
 62
     8
100
AcDbLine
 10
441.107751
 20
138.593885
 30
0.0
 11
451.786333
 21
138.593885
 31
0.0
  0
LINE
  5
56E
100
AcDbEntity
  8
0
  6
Continuous
 62
     8
100
AcDbLine
 10
453.786546
 20
138.593885
 30
0.0
 11
454.786227
 21
138.593885
 31
0.0
  0
LINE
  5
56F
100
AcDbEntity
  8
0
  6
Continuous
 62
     8
100
AcDbLine
 10
456.786439
 20
138.593885
 30
0.0
 11
467.465447
 21
138.593885
 31
0.0
  0
ENDBLK
  5
570
100
AcDbEntity
  8
0
100
AcDbBlockEnd
  0
BLOCK
  5
573
100
AcDbEntity
  8
0
100
AcDbBlockBegin
  2
*B120
 70
     0
 10
0.0
 20
0.0
 30
0.0
  3
*B120
  1

  0
LINE
  5
574
100
AcDbEntity
  8
0
  6
Continuous
 62
     8
100
AcDbLine
 10
376.607702
 20
136.593672
 30
0.0
 11
383.607595
 21
136.593672
 31
0.0
  0
LINE
  5
575
100
AcDbEntity
  8
0
  6
Continuous
 62
     8
100
AcDbLine
 10
389.607807
 20
136.593672
 30
0.0
 11
396.607701
 21
136.593672
 31
0.0
  0
ENDBLK
  5
576
100
AcDbEntity
  8
0
100
AcDbBlockEnd
  0
BLOCK
  5
579
100
AcDbEntity
  8
0
100
AcDbBlockBegin
  2
*B121
 70
     0
 10
0.0
 20
0.0
 30
0.0
  3
*B121
  1

  0
LINE
  5
57A
100
AcDbEntity
  8
0
  6
Continuous
 62
     8
100
AcDbLine
 10
406.607487
 20
322.87901
 30
0.0
 11
406.607487
 21
334.62877
 31
0.0
  0
LINE
  5
57B
100
AcDbEntity
  8
0
  6
Continuous
 62
     8
100
AcDbLine
 10
406.607487
 20
340.628557
 30
0.0
 11
406.607487
 21
352.378317
 31
0.0
  0
ENDBLK
  5
57C
100
AcDbEntity
  8
0
100
AcDbBlockEnd
  0
BLOCK
  5
57F
100
AcDbEntity
  8
0
100
AcDbBlockBegin
  2
*B122
 70
     0
 10
0.0
 20
0.0
 30
0.0
  3
*B122
  1

  0
LINE
  5
580
100
AcDbEntity
  8
0
  6
Continuous
 62
     8
100
AcDbLine
 10
234.10787
 20
20.99968
 30
0.0
 11
234.10787
 21
24.999679
 31
0.0
  0
LINE
  5
581
100
AcDbEntity
  8
0
  6
Continuous
 62
     8
100
AcDbLine
 10
234.10787
 20
24.999679
 30
0.0
 11
234.10787
 21
35.199062
 31
0.0
  0
LINE
  5
582
100
AcDbEntity
  8
0
  6
Continuous
 62
     8
100
AcDbLine
 10
234.10787
 20
37.198849
 30
0.0
 11
234.10787
 21
38.198955
 31
0.0
  0
LINE
  5
583
100
AcDbEntity
  8
0
  6
Continuous
 62
     8
100
AcDbLine
 10
234.10787
 20
40.199168
 30
0.0
 11
234.10787
 21
50.398124
 31
0.0
  0
LINE
  5
584
100
AcDbEntity
  8
0
  6
Continuous
 62
     8
100
AcDbLine
 10
234.10787
 20
52.398337
 30
0.0
 11
234.10787
 21
53.398443
 31
0.0
  0
LINE
  5
585
100
AcDbEntity
  8
0
  6
Continuous
 62
     8
100
AcDbLine
 10
234.10787
 20
55.398231
 30
0.0
 11
234.10787
 21
65.597613
 31
0.0
  0
LINE
  5
586
100
AcDbEntity
  8
0
  6
Continuous
 62
     8
100
AcDbLine
 10
234.10787
 20
67.5974
 30
0.0
 11
234.10787
 21
68.597506
 31
0.0
  0
LINE
  5
587
100
AcDbEntity
  8
0
  6
Continuous
 62
     8
100
AcDbLine
 10
234.10787
 20
70.597293
 30
0.0
 11
234.10787
 21
80.796676
 31
0.0
  0
LINE
  5
588
100
AcDbEntity
  8
0
  6
Continuous
 62
     8
100
AcDbLine
 10
234.10787
 20
82.796888
 30
0.0
 11
234.10787
 21
83.796569
 31
0.0
  0
LINE
  5
589
100
AcDbEntity
  8
0
  6
Continuous
 62
     8
100
AcDbLine
 10
234.10787
 20
85.796782
 30
0.0
 11
234.10787
 21
95.996164
 31
0.0
  0
LINE
  5
58A
100
AcDbEntity
  8
0
  6
Continuous
 62
     8
100
AcDbLine
 10
234.10787
 20
97.995951
 30
0.0
 11
234.10787
 21
98.996058
 31
0.0
  0
LINE
  5
58B
100
AcDbEntity
  8
0
  6
Continuous
 62
     8
100
AcDbLine
 10
234.10787
 20
100.995845
 30
0.0
 11
234.10787
 21
111.195227
 31
0.0
  0
LINE
  5
58C
100
AcDbEntity
  8
0
  6
Continuous
 62
     8
100
AcDbLine
 10
234.10787
 20
113.19544
 30
0.0
 11
234.10787
 21
114.19512
 31
0.0
  0
LINE
  5
58D
100
AcDbEntity
  8
0
  6
Continuous
 62
     8
100
AcDbLine
 10
234.10787
 20
116.195333
 30
0.0
 11
234.10787
 21
126.394715
 31
0.0
  0
LINE
  5
58E
100
AcDbEntity
  8
0
  6
Continuous
 62
     8
100
AcDbLine
 10
234.10787
 20
128.394502
 30
0.0
 11
234.10787
 21
129.394609
 31
0.0
  0
LINE
  5
58F
100
AcDbEntity
  8
0
  6
Continuous
 62
     8
100
AcDbLine
 10
234.10787
 20
131.394396
 30
0.0
 11
234.10787
 21
141.593778
 31
0.0
  0
LINE
  5
590
100
AcDbEntity
  8
0
  6
Continuous
 62
     8
100
AcDbLine
 10
234.10787
 20
147.593565
 30
0.0
 11
234.10787
 21
150.093831
 31
0.0
  0
ENDBLK
  5
591
100
AcDbEntity
  8
0
100
AcDbBlockEnd
  0
BLOCK
  5
594
100
AcDbEntity
  8
0
100
AcDbBlockBegin
  2
*B123
 70
     0
 10
0.0
 20
0.0
 30
0.0
  3
*B123
  1

  0
LINE
  5
595
100
AcDbEntity
  8
0
  6
Continuous
 62
     8
100
AcDbLine
 10
163.107555
 20
223.996582
 30
0.0
 11
163.107555
 21
265.629945
 31
0.0
  0
ENDBLK
  5
596
100
AcDbEntity
  8
0
100
AcDbBlockEnd
  0
BLOCK
  5
599
100
AcDbEntity
  8
0
100
AcDbBlockBegin
  2
*B124
 70
     0
 10
0.0
 20
0.0
 30
0.0
  3
*B124
  1

  0
LINE
  5
59A
100
AcDbEntity
  8
0
  6
Continuous
 62
     8
100
AcDbLine
 10
384.607701
 20
223.996582
 30
0.0
 11
384.607701
 21
227.996582
 31
0.0
  0
LINE
  5
59B
100
AcDbEntity
  8
0
  6
Continuous
 62
     8
100
AcDbLine
 10
384.607701
 20
227.996582
 30
0.0
 11
384.607701
 21
238.654736
 31
0.0
  0
LINE
  5
59C
100
AcDbEntity
  8
0
  6
Continuous
 62
     8
100
AcDbLine
 10
384.607701
 20
240.654949
 30
0.0
 11
384.607701
 21
241.65463
 31
0.0
  0
LINE
  5
59D
100
AcDbEntity
  8
0
  6
Continuous
 62
     8
100
AcDbLine
 10
384.607701
 20
243.654842
 30
0.0
 11
384.607701
 21
254.312997
 31
0.0
  0
LINE
  5
59E
100
AcDbEntity
  8
0
  6
Continuous
 62
     8
100
AcDbLine
 10
384.607701
 20
256.312784
 30
0.0
 11
384.607701
 21
257.31289
 31
0.0
  0
LINE
  5
59F
100
AcDbEntity
  8
0
  6
Continuous
 62
     8
100
AcDbLine
 10
384.607701
 20
259.313103
 30
0.0
 11
384.607701
 21
269.971257
 31
0.0
  0
LINE
  5
5A0
100
AcDbEntity
  8
0
  6
Continuous
 62
     8
100
AcDbLine
 10
384.607701
 20
271.971045
 30
0.0
 11
384.607701
 21
272.971151
 31
0.0
  0
LINE
  5
5A1
100
AcDbEntity
  8
0
  6
Continuous
 62
     8
100
AcDbLine
 10
384.607701
 20
274.970938
 30
0.0
 11
384.607701
 21
285.629518
 31
0.0
  0
LINE
  5
5A2
100
AcDbEntity
  8
0
  6
Continuous
 62
     8
100
AcDbLine
 10
384.607701
 20
291.629305
 30
0.0
 11
384.607701
 21
303.379065
 31
0.0
  0
ENDBLK
  5
5A3
100
AcDbEntity
  8
0
100
AcDbBlockEnd
  0
BLOCK
  5
5A6
100
AcDbEntity
  8
0
100
AcDbBlockBegin
  2
*B125
 70
     0
 10
0.0
 20
0.0
 30
0.0
  3
*B125
  1

  0
LINE
  5
5A7
100
AcDbEntity
  8
0
  6
Continuous
 62
     8
100
AcDbLine
 10
404.6077
 20
148.593671
 30
0.0
 11
404.6077
 21
155.593565
 31
0.0
  0
LINE
  5
5A8
100
AcDbEntity
  8
0
  6
Continuous
 62
     8
100
AcDbLine
 10
404.6077
 20
161.593351
 30
0.0
 11
404.6077
 21
168.593245
 31
0.0
  0
ENDBLK
  5
5A9
100
AcDbEntity
  8
0
100
AcDbBlockEnd
  0
BLOCK
  5
5AC
100
AcDbEntity
  8
0
100
AcDbBlockBegin
  2
*B126
 70
     0
 10
0.0
 20
0.0
 30
0.0
  3
*B126
  1

  0
LINE
  5
5AD
100
AcDbEntity
  8
0
  6
Continuous
 62
     8
100
AcDbLine
 10
105.465682
 20
184.593244
 30
0.0
 11
161.107768
 21
184.593244
 31
0.0
  0
ENDBLK
  5
5AE
100
AcDbEntity
  8
0
100
AcDbBlockEnd
  0
BLOCK
  5
5B1
100
AcDbEntity
  8
0
100
AcDbBlockBegin
  2
*B127
 70
     0
 10
0.0
 20
0.0
 30
0.0
  3
*B127
  1

  0
LINE
  5
5B2
100
AcDbEntity
  8
0
  6
Continuous
 62
     8
100
AcDbLine
 10
103.53654
 20
267.629732
 30
0.0
 11
161.107768
 21
267.629732
 31
0.0
  0
ENDBLK
  5
5B3
100
AcDbEntity
  8
0
100
AcDbBlockEnd
  0
BLOCK
  5
5B6
100
AcDbEntity
  8
0
100
AcDbBlockBegin
  2
*B128
 70
     0
 10
0.0
 20
0.0
 30
0.0
  3
*B128
  1

  0
LINE
  5
5B7
100
AcDbEntity
  8
0
  6
Continuous
 62
     8
100
AcDbLine
 10
467.465447
 20
90.594739
 30
0.0
 11
471.465447
 21
90.594739
 31
0.0
  0
LINE
  5
5B8
100
AcDbEntity
  8
0
  6
Continuous
 62
     8
100
AcDbLine
 10
430.607486
 20
90.594739
 30
0.0
 11
435.107539
 21
90.594739
 31
0.0
  0
LINE
  5
5B9
100
AcDbEntity
  8
0
  6
Continuous
 62
     8
100
AcDbLine
 10
441.107751
 20
90.594739
 30
0.0
 11
451.786333
 21
90.594739
 31
0.0
  0
LINE
  5
5BA
100
AcDbEntity
  8
0
  6
Continuous
 62
     8
100
AcDbLine
 10
453.786546
 20
90.594739
 30
0.0
 11
454.786227
 21
90.594739
 31
0.0
  0
LINE
  5
5BB
100
AcDbEntity
  8
0
  6
Continuous
 62
     8
100
AcDbLine
 10
456.786439
 20
90.594739
 30
0.0
 11
467.465447
 21
90.594739
 31
0.0
  0
ENDBLK
  5
5BC
100
AcDbEntity
  8
0
100
AcDbBlockEnd
  0
BLOCK
  5
5BF
100
AcDbEntity
  8
0
100
AcDbBlockBegin
  2
*B129
 70
     0
 10
0.0
 20
0.0
 30
0.0
  3
*B129
  1

  0
LINE
  5
5C0
100
AcDbEntity
  8
0
  6
Continuous
 62
     8
100
AcDbLine
 10
485.465233
 20
158.593458
 30
0.0
 11
489.465233
 21
158.593458
 31
0.0
  0
LINE
  5
5C1
100
AcDbEntity
  8
0
  6
Continuous
 62
     8
100
AcDbLine
 10
394.607488
 20
158.593458
 30
0.0
 11
401.607807
 21
158.593458
 31
0.0
  0
LINE
  5
5C2
100
AcDbEntity
  8
0
  6
Continuous
 62
     8
100
AcDbLine
 10
407.607594
 20
158.593458
 30
0.0
 11
419.179037
 21
158.593458
 31
0.0
  0
LINE
  5
5C3
100
AcDbEntity
  8
0
  6
Continuous
 62
     8
100
AcDbLine
 10
421.179249
 20
158.593458
 30
0.0
 11
422.179356
 21
158.593458
 31
0.0
  0
LINE
  5
5C4
100
AcDbEntity
  8
0
  6
Continuous
 62
     8
100
AcDbLine
 10
424.179143
 20
158.593458
 30
0.0
 11
435.750586
 21
158.593458
 31
0.0
  0
LINE
  5
5C5
100
AcDbEntity
  8
0
  6
Continuous
 62
     8
100
AcDbLine
 10
437.750798
 20
158.593458
 30
0.0
 11
438.750905
 21
158.593458
 31
0.0
  0
LINE
  5
5C6
100
AcDbEntity
  8
0
  6
Continuous
 62
     8
100
AcDbLine
 10
440.750692
 20
158.593458
 30
0.0
 11
452.322135
 21
158.593458
 31
0.0
  0
LINE
  5
5C7
100
AcDbEntity
  8
0
  6
Continuous
 62
     8
100
AcDbLine
 10
454.322348
 20
158.593458
 30
0.0
 11
455.322454
 21
158.593458
 31
0.0
  0
LINE
  5
5C8
100
AcDbEntity
  8
0
  6
Continuous
 62
     8
100
AcDbLine
 10
457.322241
 20
158.593458
 30
0.0
 11
468.893684
 21
158.593458
 31
0.0
  0
LINE
  5
5C9
100
AcDbEntity
  8
0
  6
Continuous
 62
     8
100
AcDbLine
 10
470.893897
 20
158.593458
 30
0.0
 11
471.893578
 21
158.593458
 31
0.0
  0
LINE
  5
5CA
100
AcDbEntity
  8
0
  6
Continuous
 62
     8
100
AcDbLine
 10
473.89379
 20
158.593458
 30
0.0
 11
485.465233
 21
158.593458
 31
0.0
  0
ENDBLK
  5
5CB
100
AcDbEntity
  8
0
100
AcDbBlockEnd
  0
BLOCK
  5
5CE
100
AcDbEntity
  8
0
100
AcDbBlockBegin
  2
*B130
 70
     0
 10
0.0
 20
0.0
 30
0.0
  3
*B130
  1

  0
LINE
  5
5CF
100
AcDbEntity
  8
0
  6
Continuous
 62
     8
100
AcDbLine
 10
305.607812
 20
158.593458
 30
0.0
 11
312.607706
 21
158.593458
 31
0.0
  0
LINE
  5
5D0
100
AcDbEntity
  8
0
  6
Continuous
 62
     8
100
AcDbLine
 10
318.607492
 20
158.593458
 30
0.0
 11
325.607811
 21
158.593458
 31
0.0
  0
ENDBLK
  5
5D1
100
AcDbEntity
  8
0
100
AcDbBlockEnd
  0
BLOCK
  5
5D4
100
AcDbEntity
  8
0
100
AcDbBlockBegin
  2
*B131
 70
     0
 10
0.0
 20
0.0
 30
0.0
  3
*B131
  1

  0
LINE
  5
5D5
100
AcDbEntity
  8
0
  6
Continuous
 62
     8
100
AcDbLine
 10
226.607924
 20
82.594739
 30
0.0
 11
226.607924
 21
89.594632
 31
0.0
  0
LINE
  5
5D6
100
AcDbEntity
  8
0
  6
Continuous
 62
     8
100
AcDbLine
 10
226.607924
 20
95.594419
 30
0.0
 11
226.607924
 21
102.594312
 31
0.0
  0
ENDBLK
  5
5D7
100
AcDbEntity
  8
0
100
AcDbBlockEnd
  0
BLOCK
  5
5DA
100
AcDbEntity
  8
0
100
AcDbBlockBegin
  2
*B132
 70
     0
 10
0.0
 20
0.0
 30
0.0
  3
*B132
  1

  0
LINE
  5
5DB
100
AcDbEntity
  8
0
  6
Continuous
 62
     8
100
AcDbLine
 10
438.107432
 20
20.861367
 30
0.0
 11
438.107432
 21
24.861367
 31
0.0
  0
LINE
  5
5DC
100
AcDbEntity
  8
0
  6
Continuous
 62
     8
100
AcDbLine
 10
438.107432
 20
24.861367
 30
0.0
 11
438.107432
 21
36.79455
 31
0.0
  0
LINE
  5
5DD
100
AcDbEntity
  8
0
  6
Continuous
 62
     8
100
AcDbLine
 10
438.107432
 20
38.794763
 30
0.0
 11
438.107432
 21
39.794869
 31
0.0
  0
LINE
  5
5DE
100
AcDbEntity
  8
0
  6
Continuous
 62
     8
100
AcDbLine
 10
438.107432
 20
41.794657
 30
0.0
 11
438.107432
 21
53.72784
 31
0.0
  0
LINE
  5
5DF
100
AcDbEntity
  8
0
  6
Continuous
 62
     8
100
AcDbLine
 10
438.107432
 20
55.728053
 30
0.0
 11
438.107432
 21
56.728159
 31
0.0
  0
LINE
  5
5E0
100
AcDbEntity
  8
0
  6
Continuous
 62
     8
100
AcDbLine
 10
438.107432
 20
58.727946
 30
0.0
 11
438.107432
 21
70.66113
 31
0.0
  0
LINE
  5
5E1
100
AcDbEntity
  8
0
  6
Continuous
 62
     8
100
AcDbLine
 10
438.107432
 20
72.661343
 30
0.0
 11
438.107432
 21
73.661449
 31
0.0
  0
LINE
  5
5E2
100
AcDbEntity
  8
0
  6
Continuous
 62
     8
100
AcDbLine
 10
438.107432
 20
75.661236
 30
0.0
 11
438.107432
 21
87.59442
 31
0.0
  0
LINE
  5
5E3
100
AcDbEntity
  8
0
  6
Continuous
 62
     8
100
AcDbLine
 10
438.107432
 20
93.594632
 30
0.0
 11
438.107432
 21
98.09426
 31
0.0
  0
ENDBLK
  5
5E4
100
AcDbEntity
  8
0
100
AcDbBlockEnd
  0
BLOCK
  5
5E7
100
AcDbEntity
  8
0
100
AcDbBlockBegin
  2
*B133
 70
     0
 10
0.0
 20
0.0
 30
0.0
  3
*B133
  1

  0
LINE
  5
5E8
100
AcDbEntity
  8
0
  6
Continuous
 62
     8
100
AcDbLine
 10
306.607493
 20
21.138418
 30
0.0
 11
306.607493
 21
25.137992
 31
0.0
  0
LINE
  5
5E9
100
AcDbEntity
  8
0
  6
Continuous
 62
     8
100
AcDbLine
 10
306.607493
 20
200.858377
 30
0.0
 11
306.607493
 21
204.858377
 31
0.0
  0
LINE
  5
5EA
100
AcDbEntity
  8
0
  6
Continuous
 62
     8
100
AcDbLine
 10
306.607493
 20
25.137992
 30
0.0
 11
306.607493
 21
35.380783
 31
0.0
  0
LINE
  5
5EB
100
AcDbEntity
  8
0
  6
Continuous
 62
     8
100
AcDbLine
 10
306.607493
 20
37.380996
 30
0.0
 11
306.607493
 21
38.380677
 31
0.0
  0
LINE
  5
5EC
100
AcDbEntity
  8
0
  6
Continuous
 62
     8
100
AcDbLine
 10
306.607493
 20
40.380889
 30
0.0
 11
306.607493
 21
50.62368
 31
0.0
  0
LINE
  5
5ED
100
AcDbEntity
  8
0
  6
Continuous
 62
     8
100
AcDbLine
 10
306.607493
 20
52.623467
 30
0.0
 11
306.607493
 21
53.623574
 31
0.0
  0
LINE
  5
5EE
100
AcDbEntity
  8
0
  6
Continuous
 62
     8
100
AcDbLine
 10
306.607493
 20
55.623361
 30
0.0
 11
306.607493
 21
65.866152
 31
0.0
  0
LINE
  5
5EF
100
AcDbEntity
  8
0
  6
Continuous
 62
     8
100
AcDbLine
 10
306.607493
 20
67.866365
 30
0.0
 11
306.607493
 21
68.866045
 31
0.0
  0
LINE
  5
5F0
100
AcDbEntity
  8
0
  6
Continuous
 62
     8
100
AcDbLine
 10
306.607493
 20
70.866258
 30
0.0
 11
306.607493
 21
81.109049
 31
0.0
  0
LINE
  5
5F1
100
AcDbEntity
  8
0
  6
Continuous
 62
     8
100
AcDbLine
 10
306.607493
 20
83.108836
 30
0.0
 11
306.607493
 21
84.108943
 31
0.0
  0
LINE
  5
5F2
100
AcDbEntity
  8
0
  6
Continuous
 62
     8
100
AcDbLine
 10
306.607493
 20
86.10873
 30
0.0
 11
306.607493
 21
96.351521
 31
0.0
  0
LINE
  5
5F3
100
AcDbEntity
  8
0
  6
Continuous
 62
     8
100
AcDbLine
 10
306.607493
 20
98.351734
 30
0.0
 11
306.607493
 21
99.351414
 31
0.0
  0
LINE
  5
5F4
100
AcDbEntity
  8
0
  6
Continuous
 62
     8
100
AcDbLine
 10
306.607493
 20
101.351627
 30
0.0
 11
306.607493
 21
111.594418
 31
0.0
  0
LINE
  5
5F5
100
AcDbEntity
  8
0
  6
Continuous
 62
     8
100
AcDbLine
 10
306.607493
 20
117.594205
 30
0.0
 11
306.607493
 21
127.305025
 31
0.0
  0
LINE
  5
5F6
100
AcDbEntity
  8
0
  6
Continuous
 62
     8
100
AcDbLine
 10
306.607493
 20
129.304812
 30
0.0
 11
306.607493
 21
130.304918
 31
0.0
  0
LINE
  5
5F7
100
AcDbEntity
  8
0
  6
Continuous
 62
     8
100
AcDbLine
 10
306.607493
 20
132.304705
 30
0.0
 11
306.607493
 21
142.015525
 31
0.0
  0
LINE
  5
5F8
100
AcDbEntity
  8
0
  6
Continuous
 62
     8
100
AcDbLine
 10
306.607493
 20
144.015738
 30
0.0
 11
306.607493
 21
145.015419
 31
0.0
  0
LINE
  5
5F9
100
AcDbEntity
  8
0
  6
Continuous
 62
     8
100
AcDbLine
 10
306.607493
 20
147.015631
 30
0.0
 11
306.607493
 21
156.726451
 31
0.0
  0
LINE
  5
5FA
100
AcDbEntity
  8
0
  6
Continuous
 62
     8
100
AcDbLine
 10
306.607493
 20
158.726238
 30
0.0
 11
306.607493
 21
159.726344
 31
0.0
  0
LINE
  5
5FB
100
AcDbEntity
  8
0
  6
Continuous
 62
     8
100
AcDbLine
 10
306.607493
 20
161.726131
 30
0.0
 11
306.607493
 21
171.436951
 31
0.0
  0
LINE
  5
5FC
100
AcDbEntity
  8
0
  6
Continuous
 62
     8
100
AcDbLine
 10
306.607493
 20
173.437164
 30
0.0
 11
306.607493
 21
174.436845
 31
0.0
  0
LINE
  5
5FD
100
AcDbEntity
  8
0
  6
Continuous
 62
     8
100
AcDbLine
 10
306.607493
 20
176.437057
 30
0.0
 11
306.607493
 21
186.147877
 31
0.0
  0
LINE
  5
5FE
100
AcDbEntity
  8
0
  6
Continuous
 62
     8
100
AcDbLine
 10
306.607493
 20
188.147664
 30
0.0
 11
306.607493
 21
189.14777
 31
0.0
  0
LINE
  5
5FF
100
AcDbEntity
  8
0
  6
Continuous
 62
     8
100
AcDbLine
 10
306.607493
 20
191.147557
 30
0.0
 11
306.607493
 21
200.858377
 31
0.0
  0
ENDBLK
  5
600
100
AcDbEntity
  8
0
100
AcDbBlockEnd
  0
BLOCK
  5
603
100
AcDbEntity
  8
0
100
AcDbBlockBegin
  2
*B134
 70
     0
 10
0.0
 20
0.0
 30
0.0
  3
*B134
  1

  0
LINE
  5
604
100
AcDbEntity
  8
0
  6
Continuous
 62
     8
100
AcDbLine
 10
143.465466
 20
66.595166
 30
0.0
 11
147.465466
 21
66.595166
 31
0.0
  0
LINE
  5
605
100
AcDbEntity
  8
0
  6
Continuous
 62
     8
100
AcDbLine
 10
147.465466
 20
66.595166
 30
0.0
 11
157.99765
 21
66.595166
 31
0.0
  0
LINE
  5
606
100
AcDbEntity
  8
0
  6
Continuous
 62
     8
100
AcDbLine
 10
159.997437
 20
66.595166
 30
0.0
 11
160.997543
 21
66.595166
 31
0.0
  0
LINE
  5
607
100
AcDbEntity
  8
0
  6
Continuous
 62
     8
100
AcDbLine
 10
162.997756
 20
66.595166
 30
0.0
 11
173.529514
 21
66.595166
 31
0.0
  0
LINE
  5
608
100
AcDbEntity
  8
0
  6
Continuous
 62
     8
100
AcDbLine
 10
175.529727
 20
66.595166
 30
0.0
 11
176.529833
 21
66.595166
 31
0.0
  0
LINE
  5
609
100
AcDbEntity
  8
0
  6
Continuous
 62
     8
100
AcDbLine
 10
178.52962
 20
66.595166
 30
0.0
 11
189.061804
 21
66.595166
 31
0.0
  0
LINE
  5
60A
100
AcDbEntity
  8
0
  6
Continuous
 62
     8
100
AcDbLine
 10
191.061591
 20
66.595166
 30
0.0
 11
192.061697
 21
66.595166
 31
0.0
  0
LINE
  5
60B
100
AcDbEntity
  8
0
  6
Continuous
 62
     8
100
AcDbLine
 10
194.06191
 20
66.595166
 30
0.0
 11
204.594094
 21
66.595166
 31
0.0
  0
LINE
  5
60C
100
AcDbEntity
  8
0
  6
Continuous
 62
     8
100
AcDbLine
 10
206.593881
 20
66.595166
 30
0.0
 11
207.593987
 21
66.595166
 31
0.0
  0
LINE
  5
60D
100
AcDbEntity
  8
0
  6
Continuous
 62
     8
100
AcDbLine
 10
209.593774
 20
66.595166
 30
0.0
 11
220.125958
 21
66.595166
 31
0.0
  0
LINE
  5
60E
100
AcDbEntity
  8
0
  6
Continuous
 62
     8
100
AcDbLine
 10
222.12617
 20
66.595166
 30
0.0
 11
223.125851
 21
66.595166
 31
0.0
  0
LINE
  5
60F
100
AcDbEntity
  8
0
  6
Continuous
 62
     8
100
AcDbLine
 10
225.126064
 20
66.595166
 30
0.0
 11
235.658247
 21
66.595166
 31
0.0
  0
LINE
  5
610
100
AcDbEntity
  8
0
  6
Continuous
 62
     8
100
AcDbLine
 10
237.658035
 20
66.595166
 30
0.0
 11
238.658141
 21
66.595166
 31
0.0
  0
LINE
  5
611
100
AcDbEntity
  8
0
  6
Continuous
 62
     8
100
AcDbLine
 10
240.657928
 20
66.595166
 30
0.0
 11
251.190112
 21
66.595166
 31
0.0
  0
LINE
  5
612
100
AcDbEntity
  8
0
  6
Continuous
 62
     8
100
AcDbLine
 10
253.190324
 20
66.595166
 30
0.0
 11
254.190005
 21
66.595166
 31
0.0
  0
LINE
  5
613
100
AcDbEntity
  8
0
  6
Continuous
 62
     8
100
AcDbLine
 10
256.190218
 20
66.595166
 30
0.0
 11
266.722401
 21
66.595166
 31
0.0
  0
LINE
  5
614
100
AcDbEntity
  8
0
  6
Continuous
 62
     8
100
AcDbLine
 10
268.722188
 20
66.595166
 30
0.0
 11
269.722295
 21
66.595166
 31
0.0
  0
LINE
  5
615
100
AcDbEntity
  8
0
  6
Continuous
 62
     8
100
AcDbLine
 10
271.722507
 20
66.595166
 30
0.0
 11
282.254266
 21
66.595166
 31
0.0
  0
LINE
  5
616
100
AcDbEntity
  8
0
  6
Continuous
 62
     8
100
AcDbLine
 10
284.254478
 20
66.595166
 30
0.0
 11
285.254585
 21
66.595166
 31
0.0
  0
LINE
  5
617
100
AcDbEntity
  8
0
  6
Continuous
 62
     8
100
AcDbLine
 10
287.254372
 20
66.595166
 30
0.0
 11
297.786555
 21
66.595166
 31
0.0
  0
LINE
  5
618
100
AcDbEntity
  8
0
  6
Continuous
 62
     8
100
AcDbLine
 10
299.786342
 20
66.595166
 30
0.0
 11
300.786449
 21
66.595166
 31
0.0
  0
LINE
  5
619
100
AcDbEntity
  8
0
  6
Continuous
 62
     8
100
AcDbLine
 10
302.786661
 20
66.595166
 30
0.0
 11
313.318845
 21
66.595166
 31
0.0
  0
LINE
  5
61A
100
AcDbEntity
  8
0
  6
Continuous
 62
     8
100
AcDbLine
 10
315.318632
 20
66.595166
 30
0.0
 11
316.318738
 21
66.595166
 31
0.0
  0
LINE
  5
61B
100
AcDbEntity
  8
0
  6
Continuous
 62
     8
100
AcDbLine
 10
318.318526
 20
66.595166
 30
0.0
 11
328.850709
 21
66.595166
 31
0.0
  0
LINE
  5
61C
100
AcDbEntity
  8
0
  6
Continuous
 62
     8
100
AcDbLine
 10
330.850922
 20
66.595166
 30
0.0
 11
331.850603
 21
66.595166
 31
0.0
  0
LINE
  5
61D
100
AcDbEntity
  8
0
  6
Continuous
 62
     8
100
AcDbLine
 10
333.850815
 20
66.595166
 30
0.0
 11
344.382999
 21
66.595166
 31
0.0
  0
LINE
  5
61E
100
AcDbEntity
  8
0
  6
Continuous
 62
     8
100
AcDbLine
 10
346.382786
 20
66.595166
 30
0.0
 11
347.382892
 21
66.595166
 31
0.0
  0
LINE
  5
61F
100
AcDbEntity
  8
0
  6
Continuous
 62
     8
100
AcDbLine
 10
349.382679
 20
66.595166
 30
0.0
 11
359.914863
 21
66.595166
 31
0.0
  0
LINE
  5
620
100
AcDbEntity
  8
0
  6
Continuous
 62
     8
100
AcDbLine
 10
361.915076
 20
66.595166
 30
0.0
 11
362.914757
 21
66.595166
 31
0.0
  0
LINE
  5
621
100
AcDbEntity
  8
0
  6
Continuous
 62
     8
100
AcDbLine
 10
364.914969
 20
66.595166
 30
0.0
 11
375.447153
 21
66.595166
 31
0.0
  0
LINE
  5
622
100
AcDbEntity
  8
0
  6
Continuous
 62
     8
100
AcDbLine
 10
377.44694
 20
66.595166
 30
0.0
 11
378.447046
 21
66.595166
 31
0.0
  0
LINE
  5
623
100
AcDbEntity
  8
0
  6
Continuous
 62
     8
100
AcDbLine
 10
380.447259
 20
66.595166
 30
0.0
 11
390.979017
 21
66.595166
 31
0.0
  0
LINE
  5
624
100
AcDbEntity
  8
0
  6
Continuous
 62
     8
100
AcDbLine
 10
392.97923
 20
66.595166
 30
0.0
 11
393.979336
 21
66.595166
 31
0.0
  0
LINE
  5
625
100
AcDbEntity
  8
0
  6
Continuous
 62
     8
100
AcDbLine
 10
395.979123
 20
66.595166
 30
0.0
 11
406.511307
 21
66.595166
 31
0.0
  0
LINE
  5
626
100
AcDbEntity
  8
0
  6
Continuous
 62
     8
100
AcDbLine
 10
408.511094
 20
66.595166
 30
0.0
 11
409.5112
 21
66.595166
 31
0.0
  0
LINE
  5
627
100
AcDbEntity
  8
0
  6
Continuous
 62
     8
100
AcDbLine
 10
411.511413
 20
66.595166
 30
0.0
 11
422.043597
 21
66.595166
 31
0.0
  0
LINE
  5
628
100
AcDbEntity
  8
0
  6
Continuous
 62
     8
100
AcDbLine
 10
424.043384
 20
66.595166
 30
0.0
 11
425.04349
 21
66.595166
 31
0.0
  0
LINE
  5
629
100
AcDbEntity
  8
0
  6
Continuous
 62
     8
100
AcDbLine
 10
427.043277
 20
66.595166
 30
0.0
 11
437.575461
 21
66.595166
 31
0.0
  0
LINE
  5
62A
100
AcDbEntity
  8
0
  6
Continuous
 62
     8
100
AcDbLine
 10
439.575673
 20
66.595166
 30
0.0
 11
440.575354
 21
66.595166
 31
0.0
  0
LINE
  5
62B
100
AcDbEntity
  8
0
  6
Continuous
 62
     8
100
AcDbLine
 10
442.575567
 20
66.595166
 30
0.0
 11
453.10775
 21
66.595166
 31
0.0
  0
ENDBLK
  5
62C
100
AcDbEntity
  8
0
100
AcDbBlockEnd
  0
BLOCK
  5
62F
100
AcDbEntity
  8
0
100
AcDbBlockBegin
  2
*B135
 70
     0
 10
0.0
 20
0.0
 30
0.0
  3
*B135
  1

  0
LINE
  5
630
100
AcDbEntity
  8
0
  6
Continuous
 62
     8
100
AcDbLine
 10
306.607493
 20
354.628344
 30
0.0
 11
306.607493
 21
367.961676
 31
0.0
  0
LINE
  5
631
100
AcDbEntity
  8
0
  6
Continuous
 62
     8
100
AcDbLine
 10
306.607493
 20
369.961463
 30
0.0
 11
306.607493
 21
370.96157
 31
0.0
  0
LINE
  5
632
100
AcDbEntity
  8
0
  6
Continuous
 62
     8
100
AcDbLine
 10
306.607493
 20
372.961357
 30
0.0
 11
306.607493
 21
386.294689
 31
0.0
  0
LINE
  5
633
100
AcDbEntity
  8
0
  6
Continuous
 62
     8
100
AcDbLine
 10
306.607493
 20
388.294476
 30
0.0
 11
306.607493
 21
389.294583
 31
0.0
  0
LINE
  5
634
100
AcDbEntity
  8
0
  6
Continuous
 62
     8
100
AcDbLine
 10
306.607493
 20
391.29437
 30
0.0
 11
306.607493
 21
404.627702
 31
0.0
  0
ENDBLK
  5
635
100
AcDbEntity
  8
0
100
AcDbBlockEnd
  0
BLOCK
  5
638
100
AcDbEntity
  8
0
100
AcDbBlockBegin
  2
*B136
 70
     0
 10
0.0
 20
0.0
 30
0.0
  3
*B136
  1

  0
LINE
  5
639
100
AcDbEntity
  8
0
  6
Continuous
 62
     8
100
AcDbLine
 10
386.607488
 20
60.594953
 30
0.0
 11
386.607488
 21
67.594846
 31
0.0
  0
LINE
  5
63A
100
AcDbEntity
  8
0
  6
Continuous
 62
     8
100
AcDbLine
 10
386.607488
 20
73.594633
 30
0.0
 11
386.607488
 21
80.594527
 31
0.0
  0
ENDBLK
  5
63B
100
AcDbEntity
  8
0
100
AcDbBlockEnd
  0
BLOCK
  5
63E
100
AcDbEntity
  8
0
100
AcDbBlockBegin
  2
*B137
 70
     0
 10
0.0
 20
0.0
 30
0.0
  3
*B137
  1

  0
LINE
  5
63F
100
AcDbEntity
  8
0
  6
Continuous
 62
     8
100
AcDbLine
 10
373.607808
 20
84.594526
 30
0.0
 11
376.107649
 21
84.594526
 31
0.0
  0
LINE
  5
640
100
AcDbEntity
  8
0
  6
Continuous
 62
     8
100
AcDbLine
 10
382.107861
 20
84.594526
 30
0.0
 11
384.607701
 21
84.594526
 31
0.0
  0
ENDBLK
  5
641
100
AcDbEntity
  8
0
100
AcDbBlockEnd
  0
BLOCK
  5
644
100
AcDbEntity
  8
0
100
AcDbBlockBegin
  2
*B138
 70
     0
 10
0.0
 20
0.0
 30
0.0
  3
*B138
  1

  0
LINE
  5
645
100
AcDbEntity
  8
0
  6
Continuous
 62
     8
100
AcDbLine
 10
284.607707
 20
84.594526
 30
0.0
 11
287.107548
 21
84.594526
 31
0.0
  0
LINE
  5
646
100
AcDbEntity
  8
0
  6
Continuous
 62
     8
100
AcDbLine
 10
293.10776
 20
84.594526
 30
0.0
 11
295.6076
 21
84.594526
 31
0.0
  0
ENDBLK
  5
647
100
AcDbEntity
  8
0
100
AcDbBlockEnd
  0
BLOCK
  5
64A
100
AcDbEntity
  8
0
100
AcDbBlockBegin
  2
*B139
 70
     0
 10
0.0
 20
0.0
 30
0.0
  3
*B139
  1

  0
LINE
  5
64B
100
AcDbEntity
  8
0
  6
Continuous
 62
     8
100
AcDbLine
 10
143.465466
 20
114.594312
 30
0.0
 11
147.465466
 21
114.594312
 31
0.0
  0
LINE
  5
64C
100
AcDbEntity
  8
0
  6
Continuous
 62
     8
100
AcDbLine
 10
147.465466
 20
114.594312
 30
0.0
 11
160.500895
 21
114.594312
 31
0.0
  0
LINE
  5
64D
100
AcDbEntity
  8
0
  6
Continuous
 62
     8
100
AcDbLine
 10
162.501107
 20
114.594312
 30
0.0
 11
163.501214
 21
114.594312
 31
0.0
  0
LINE
  5
64E
100
AcDbEntity
  8
0
  6
Continuous
 62
     8
100
AcDbLine
 10
165.501001
 20
114.594312
 30
0.0
 11
178.536429
 21
114.594312
 31
0.0
  0
LINE
  5
64F
100
AcDbEntity
  8
0
  6
Continuous
 62
     8
100
AcDbLine
 10
180.536642
 20
114.594312
 30
0.0
 11
181.536748
 21
114.594312
 31
0.0
  0
LINE
  5
650
100
AcDbEntity
  8
0
  6
Continuous
 62
     8
100
AcDbLine
 10
183.536536
 20
114.594312
 30
0.0
 11
196.571964
 21
114.594312
 31
0.0
  0
LINE
  5
651
100
AcDbEntity
  8
0
  6
Continuous
 62
     8
100
AcDbLine
 10
198.572177
 20
114.594312
 30
0.0
 11
199.572283
 21
114.594312
 31
0.0
  0
LINE
  5
652
100
AcDbEntity
  8
0
  6
Continuous
 62
     8
100
AcDbLine
 10
201.57207
 20
114.594312
 30
0.0
 11
214.607499
 21
114.594312
 31
0.0
  0
LINE
  5
653
100
AcDbEntity
  8
0
  6
Continuous
 62
     8
100
AcDbLine
 10
220.607711
 20
114.594312
 30
0.0
 11
230.10787
 21
114.594312
 31
0.0
  0
LINE
  5
654
100
AcDbEntity
  8
0
  6
Continuous
 62
     8
100
AcDbLine
 10
232.107657
 20
114.594312
 30
0.0
 11
233.107764
 21
114.594312
 31
0.0
  0
LINE
  5
655
100
AcDbEntity
  8
0
  6
Continuous
 62
     8
100
AcDbLine
 10
235.107551
 20
114.594312
 30
0.0
 11
244.60771
 21
114.594312
 31
0.0
  0
LINE
  5
656
100
AcDbEntity
  8
0
  6
Continuous
 62
     8
100
AcDbLine
 10
246.607497
 20
114.594312
 30
0.0
 11
247.607603
 21
114.594312
 31
0.0
  0
LINE
  5
657
100
AcDbEntity
  8
0
  6
Continuous
 62
     8
100
AcDbLine
 10
249.607816
 20
114.594312
 30
0.0
 11
259.107549
 21
114.594312
 31
0.0
  0
LINE
  5
658
100
AcDbEntity
  8
0
  6
Continuous
 62
     8
100
AcDbLine
 10
265.107762
 20
114.594312
 30
0.0
 11
274.607495
 21
114.594312
 31
0.0
  0
LINE
  5
659
100
AcDbEntity
  8
0
  6
Continuous
 62
     8
100
AcDbLine
 10
276.607708
 20
114.594312
 30
0.0
 11
277.607814
 21
114.594312
 31
0.0
  0
LINE
  5
65A
100
AcDbEntity
  8
0
  6
Continuous
 62
     8
100
AcDbLine
 10
279.607601
 20
114.594312
 30
0.0
 11
289.10776
 21
114.594312
 31
0.0
  0
LINE
  5
65B
100
AcDbEntity
  8
0
  6
Continuous
 62
     8
100
AcDbLine
 10
291.107547
 20
114.594312
 30
0.0
 11
292.107654
 21
114.594312
 31
0.0
  0
LINE
  5
65C
100
AcDbEntity
  8
0
  6
Continuous
 62
     8
100
AcDbLine
 10
294.107866
 20
114.594312
 30
0.0
 11
303.6076
 21
114.594312
 31
0.0
  0
LINE
  5
65D
100
AcDbEntity
  8
0
  6
Continuous
 62
     8
100
AcDbLine
 10
309.607812
 20
114.594312
 30
0.0
 11
319.107546
 21
114.594312
 31
0.0
  0
LINE
  5
65E
100
AcDbEntity
  8
0
  6
Continuous
 62
     8
100
AcDbLine
 10
321.107758
 20
114.594312
 30
0.0
 11
322.107865
 21
114.594312
 31
0.0
  0
LINE
  5
65F
100
AcDbEntity
  8
0
  6
Continuous
 62
     8
100
AcDbLine
 10
324.107652
 20
114.594312
 30
0.0
 11
333.607811
 21
114.594312
 31
0.0
  0
LINE
  5
660
100
AcDbEntity
  8
0
  6
Continuous
 62
     8
100
AcDbLine
 10
335.607598
 20
114.594312
 30
0.0
 11
336.607704
 21
114.594312
 31
0.0
  0
LINE
  5
661
100
AcDbEntity
  8
0
  6
Continuous
 62
     8
100
AcDbLine
 10
338.607491
 20
114.594312
 30
0.0
 11
348.10765
 21
114.594312
 31
0.0
  0
LINE
  5
662
100
AcDbEntity
  8
0
  6
Continuous
 62
     8
100
AcDbLine
 10
354.107437
 20
114.594312
 30
0.0
 11
363.607596
 21
114.594312
 31
0.0
  0
LINE
  5
663
100
AcDbEntity
  8
0
  6
Continuous
 62
     8
100
AcDbLine
 10
365.607809
 20
114.594312
 30
0.0
 11
366.60749
 21
114.594312
 31
0.0
  0
LINE
  5
664
100
AcDbEntity
  8
0
  6
Continuous
 62
     8
100
AcDbLine
 10
368.607702
 20
114.594312
 30
0.0
 11
378.107861
 21
114.594312
 31
0.0
  0
LINE
  5
665
100
AcDbEntity
  8
0
  6
Continuous
 62
     8
100
AcDbLine
 10
380.107648
 20
114.594312
 30
0.0
 11
381.107755
 21
114.594312
 31
0.0
  0
LINE
  5
666
100
AcDbEntity
  8
0
  6
Continuous
 62
     8
100
AcDbLine
 10
383.107542
 20
114.594312
 30
0.0
 11
392.607701
 21
114.594312
 31
0.0
  0
LINE
  5
667
100
AcDbEntity
  8
0
  6
Continuous
 62
     8
100
AcDbLine
 10
398.607488
 20
114.594312
 30
0.0
 11
408.48258
 21
114.594312
 31
0.0
  0
LINE
  5
668
100
AcDbEntity
  8
0
  6
Continuous
 62
     8
100
AcDbLine
 10
410.482793
 20
114.594312
 30
0.0
 11
411.482474
 21
114.594312
 31
0.0
  0
LINE
  5
669
100
AcDbEntity
  8
0
  6
Continuous
 62
     8
100
AcDbLine
 10
413.482686
 20
114.594312
 30
0.0
 11
423.357779
 21
114.594312
 31
0.0
  0
LINE
  5
66A
100
AcDbEntity
  8
0
  6
Continuous
 62
     8
100
AcDbLine
 10
425.357566
 20
114.594312
 30
0.0
 11
426.357672
 21
114.594312
 31
0.0
  0
LINE
  5
66B
100
AcDbEntity
  8
0
  6
Continuous
 62
     8
100
AcDbLine
 10
428.357459
 20
114.594312
 30
0.0
 11
438.232552
 21
114.594312
 31
0.0
  0
LINE
  5
66C
100
AcDbEntity
  8
0
  6
Continuous
 62
     8
100
AcDbLine
 10
440.232764
 20
114.594312
 30
0.0
 11
441.232445
 21
114.594312
 31
0.0
  0
LINE
  5
66D
100
AcDbEntity
  8
0
  6
Continuous
 62
     8
100
AcDbLine
 10
443.232658
 20
114.594312
 30
0.0
 11
453.10775
 21
114.594312
 31
0.0
  0
ENDBLK
  5
66E
100
AcDbEntity
  8
0
100
AcDbBlockEnd
  0
BLOCK
  5
671
100
AcDbEntity
  8
0
100
AcDbBlockBegin
  2
*B140
 70
     0
 10
0.0
 20
0.0
 30
0.0
  3
*B140
  1

  0
LINE
  5
672
100
AcDbEntity
  8
0
  6
Continuous
 62
     8
100
AcDbLine
 10
262.107868
 20
21.138418
 30
0.0
 11
262.107868
 21
25.137992
 31
0.0
  0
LINE
  5
673
100
AcDbEntity
  8
0
  6
Continuous
 62
     8
100
AcDbLine
 10
262.107868
 20
200.858377
 30
0.0
 11
262.107868
 21
204.858377
 31
0.0
  0
LINE
  5
674
100
AcDbEntity
  8
0
  6
Continuous
 62
     8
100
AcDbLine
 10
262.107868
 20
25.137992
 30
0.0
 11
262.107868
 21
35.380783
 31
0.0
  0
LINE
  5
675
100
AcDbEntity
  8
0
  6
Continuous
 62
     8
100
AcDbLine
 10
262.107868
 20
37.380996
 30
0.0
 11
262.107868
 21
38.380677
 31
0.0
  0
LINE
  5
676
100
AcDbEntity
  8
0
  6
Continuous
 62
     8
100
AcDbLine
 10
262.107868
 20
40.380889
 30
0.0
 11
262.107868
 21
50.62368
 31
0.0
  0
LINE
  5
677
100
AcDbEntity
  8
0
  6
Continuous
 62
     8
100
AcDbLine
 10
262.107868
 20
52.623467
 30
0.0
 11
262.107868
 21
53.623574
 31
0.0
  0
LINE
  5
678
100
AcDbEntity
  8
0
  6
Continuous
 62
     8
100
AcDbLine
 10
262.107868
 20
55.623361
 30
0.0
 11
262.107868
 21
65.866152
 31
0.0
  0
LINE
  5
679
100
AcDbEntity
  8
0
  6
Continuous
 62
     8
100
AcDbLine
 10
262.107868
 20
67.866365
 30
0.0
 11
262.107868
 21
68.866045
 31
0.0
  0
LINE
  5
67A
100
AcDbEntity
  8
0
  6
Continuous
 62
     8
100
AcDbLine
 10
262.107868
 20
70.866258
 30
0.0
 11
262.107868
 21
81.109049
 31
0.0
  0
LINE
  5
67B
100
AcDbEntity
  8
0
  6
Continuous
 62
     8
100
AcDbLine
 10
262.107868
 20
83.108836
 30
0.0
 11
262.107868
 21
84.108943
 31
0.0
  0
LINE
  5
67C
100
AcDbEntity
  8
0
  6
Continuous
 62
     8
100
AcDbLine
 10
262.107868
 20
86.10873
 30
0.0
 11
262.107868
 21
96.351521
 31
0.0
  0
LINE
  5
67D
100
AcDbEntity
  8
0
  6
Continuous
 62
     8
100
AcDbLine
 10
262.107868
 20
98.351734
 30
0.0
 11
262.107868
 21
99.351414
 31
0.0
  0
LINE
  5
67E
100
AcDbEntity
  8
0
  6
Continuous
 62
     8
100
AcDbLine
 10
262.107868
 20
101.351627
 30
0.0
 11
262.107868
 21
111.594418
 31
0.0
  0
LINE
  5
67F
100
AcDbEntity
  8
0
  6
Continuous
 62
     8
100
AcDbLine
 10
262.107868
 20
117.594205
 30
0.0
 11
262.107868
 21
127.305025
 31
0.0
  0
LINE
  5
680
100
AcDbEntity
  8
0
  6
Continuous
 62
     8
100
AcDbLine
 10
262.107868
 20
129.304812
 30
0.0
 11
262.107868
 21
130.304918
 31
0.0
  0
LINE
  5
681
100
AcDbEntity
  8
0
  6
Continuous
 62
     8
100
AcDbLine
 10
262.107868
 20
132.304705
 30
0.0
 11
262.107868
 21
142.015525
 31
0.0
  0
LINE
  5
682
100
AcDbEntity
  8
0
  6
Continuous
 62
     8
100
AcDbLine
 10
262.107868
 20
144.015738
 30
0.0
 11
262.107868
 21
145.015419
 31
0.0
  0
LINE
  5
683
100
AcDbEntity
  8
0
  6
Continuous
 62
     8
100
AcDbLine
 10
262.107868
 20
147.015631
 30
0.0
 11
262.107868
 21
156.726451
 31
0.0
  0
LINE
  5
684
100
AcDbEntity
  8
0
  6
Continuous
 62
     8
100
AcDbLine
 10
262.107868
 20
158.726238
 30
0.0
 11
262.107868
 21
159.726344
 31
0.0
  0
LINE
  5
685
100
AcDbEntity
  8
0
  6
Continuous
 62
     8
100
AcDbLine
 10
262.107868
 20
161.726131
 30
0.0
 11
262.107868
 21
171.436951
 31
0.0
  0
LINE
  5
686
100
AcDbEntity
  8
0
  6
Continuous
 62
     8
100
AcDbLine
 10
262.107868
 20
173.437164
 30
0.0
 11
262.107868
 21
174.436845
 31
0.0
  0
LINE
  5
687
100
AcDbEntity
  8
0
  6
Continuous
 62
     8
100
AcDbLine
 10
262.107868
 20
176.437057
 30
0.0
 11
262.107868
 21
186.147877
 31
0.0
  0
LINE
  5
688
100
AcDbEntity
  8
0
  6
Continuous
 62
     8
100
AcDbLine
 10
262.107868
 20
188.147664
 30
0.0
 11
262.107868
 21
189.14777
 31
0.0
  0
LINE
  5
689
100
AcDbEntity
  8
0
  6
Continuous
 62
     8
100
AcDbLine
 10
262.107868
 20
191.147557
 30
0.0
 11
262.107868
 21
200.858377
 31
0.0
  0
ENDBLK
  5
68A
100
AcDbEntity
  8
0
100
AcDbBlockEnd
  0
BLOCK
  5
68D
100
AcDbEntity
  8
0
100
AcDbBlockBegin
  2
*B141
 70
     0
 10
0.0
 20
0.0
 30
0.0
  3
*B141
  1

  0
LINE
  5
68E
100
AcDbEntity
  8
0
  6
Continuous
 62
     8
100
AcDbLine
 10
307.357786
 20
243.996155
 30
0.0
 11
307.357786
 21
286.629624
 31
0.0
  0
ENDBLK
  5
68F
100
AcDbEntity
  8
0
100
AcDbBlockEnd
  0
BLOCK
  5
692
100
AcDbEntity
  8
0
100
AcDbBlockBegin
  2
*B142
 70
     0
 10
0.0
 20
0.0
 30
0.0
  3
*B142
  1

  0
LINE
  5
693
100
AcDbEntity
  8
0
  6
Continuous
 62
     8
100
AcDbLine
 10
271.107548
 20
148.593671
 30
0.0
 11
271.107548
 21
155.593565
 31
0.0
  0
LINE
  5
694
100
AcDbEntity
  8
0
  6
Continuous
 62
     8
100
AcDbLine
 10
271.107548
 20
161.593351
 30
0.0
 11
271.107548
 21
168.593245
 31
0.0
  0
ENDBLK
  5
695
100
AcDbEntity
  8
0
100
AcDbBlockEnd
  0
BLOCK
  5
698
100
AcDbEntity
  8
0
100
AcDbBlockBegin
  2
*B143
 70
     0
 10
0.0
 20
0.0
 30
0.0
  3
*B143
  1

  0
LINE
  5
699
100
AcDbEntity
  8
0
  6
Continuous
 62
     8
100
AcDbLine
 10
271.107548
 20
82.594739
 30
0.0
 11
271.107548
 21
89.594632
 31
0.0
  0
LINE
  5
69A
100
AcDbEntity
  8
0
  6
Continuous
 62
     8
100
AcDbLine
 10
271.107548
 20
95.594419
 30
0.0
 11
271.107548
 21
102.594312
 31
0.0
  0
ENDBLK
  5
69B
100
AcDbEntity
  8
0
100
AcDbBlockEnd
  0
BLOCK
  5
69E
100
AcDbEntity
  8
0
100
AcDbBlockBegin
  2
*B144
 70
     0
 10
0.0
 20
0.0
 30
0.0
  3
*B144
  1

  0
LINE
  5
69F
100
AcDbEntity
  8
0
  6
Continuous
 62
     8
100
AcDbLine
 10
332.107651
 20
70.59474
 30
0.0
 11
339.107544
 21
70.59474
 31
0.0
  0
LINE
  5
6A0
100
AcDbEntity
  8
0
  6
Continuous
 62
     8
100
AcDbLine
 10
345.107757
 20
70.59474
 30
0.0
 11
352.10765
 21
70.59474
 31
0.0
  0
ENDBLK
  5
6A1
100
AcDbEntity
  8
0
100
AcDbBlockEnd
  0
BLOCK
  5
6A4
100
AcDbEntity
  8
0
100
AcDbBlockBegin
  2
*B145
 70
     0
 10
0.0
 20
0.0
 30
0.0
  3
*B145
  1

  0
LINE
  5
6A5
100
AcDbEntity
  8
0
  6
Continuous
 62
     6
100
AcDbLine
 10
403.607594
 20
158.593458
 30
0.0
 11
405.607806
 21
158.593458
 31
0.0
  0
LINE
  5
6A6
100
AcDbEntity
  8
0
  6
Continuous
 62
     6
100
AcDbLine
 10
404.6077
 20
157.593352
 30
0.0
 11
404.6077
 21
159.593564
 31
0.0
  0
ENDBLK
  5
6A7
100
AcDbEntity
  8
0
100
AcDbBlockEnd
  0
BLOCK
  5
6AA
100
AcDbEntity
  8
0
100
AcDbBlockBegin
  2
*B146
 70
     0
 10
0.0
 20
0.0
 30
0.0
  3
*B146
  1

  0
LINE
  5
6AB
100
AcDbEntity
  8
0
  6
Continuous
 62
     6
100
AcDbLine
 10
340.107651
 20
287.629305
 30
0.0
 11
340.107651
 21
289.629518
 31
0.0
  0
LINE
  5
6AC
100
AcDbEntity
  8
0
  6
Continuous
 62
     6
100
AcDbLine
 10
339.107544
 20
288.629411
 30
0.0
 11
341.107757
 21
288.629411
 31
0.0
  0
ENDBLK
  5
6AD
100
AcDbEntity
  8
0
100
AcDbBlockEnd
  0
BLOCK
  5
6B0
100
AcDbEntity
  8
0
100
AcDbBlockBegin
  2
*B147
 70
     0
 10
0.0
 20
0.0
 30
0.0
  3
*B147
  1

  0
LINE
  5
6B1
100
AcDbEntity
  8
0
  6
Continuous
 62
     6
100
AcDbLine
 10
174.107873
 20
138.593885
 30
0.0
 11
176.107661
 21
138.593885
 31
0.0
  0
LINE
  5
6B2
100
AcDbEntity
  8
0
  6
Continuous
 62
     6
100
AcDbLine
 10
175.107554
 20
137.593778
 30
0.0
 11
175.107554
 21
139.593991
 31
0.0
  0
ENDBLK
  5
6B3
100
AcDbEntity
  8
0
100
AcDbBlockEnd
  0
BLOCK
  5
6B6
100
AcDbEntity
  8
0
100
AcDbBlockBegin
  2
*B148
 70
     0
 10
0.0
 20
0.0
 30
0.0
  3
*B148
  1

  0
LINE
  5
6B7
100
AcDbEntity
  8
0
  6
Continuous
 62
     6
100
AcDbLine
 10
290.107867
 20
83.594846
 30
0.0
 11
290.107867
 21
85.594633
 31
0.0
  0
LINE
  5
6B8
100
AcDbEntity
  8
0
  6
Continuous
 62
     6
100
AcDbLine
 10
289.10776
 20
84.594526
 30
0.0
 11
291.107547
 21
84.594526
 31
0.0
  0
ENDBLK
  5
6B9
100
AcDbEntity
  8
0
100
AcDbBlockEnd
  0
BLOCK
  5
6BC
100
AcDbEntity
  8
0
100
AcDbBlockBegin
  2
*B149
 70
     0
 10
0.0
 20
0.0
 30
0.0
  3
*B149
  1

  0
LINE
  5
6BD
100
AcDbEntity
  8
0
  6
Continuous
 62
     6
100
AcDbLine
 10
252.107656
 20
136.593672
 30
0.0
 11
254.107869
 21
136.593672
 31
0.0
  0
LINE
  5
6BE
100
AcDbEntity
  8
0
  6
Continuous
 62
     6
100
AcDbLine
 10
253.107762
 20
135.593991
 30
0.0
 11
253.107762
 21
137.593778
 31
0.0
  0
ENDBLK
  5
6BF
100
AcDbEntity
  8
0
100
AcDbBlockEnd
  0
BLOCK
  5
6C2
100
AcDbEntity
  8
0
100
AcDbBlockBegin
  2
*B150
 70
     0
 10
0.0
 20
0.0
 30
0.0
  3
*B150
  1

  0
LINE
  5
6C3
100
AcDbEntity
  8
0
  6
Continuous
 62
     6
100
AcDbLine
 10
208.607712
 20
135.593991
 30
0.0
 11
208.607712
 21
137.593778
 31
0.0
  0
LINE
  5
6C4
100
AcDbEntity
  8
0
  6
Continuous
 62
     6
100
AcDbLine
 10
207.607605
 20
136.593672
 30
0.0
 11
209.607818
 21
136.593672
 31
0.0
  0
ENDBLK
  5
6C5
100
AcDbEntity
  8
0
100
AcDbBlockEnd
  0
BLOCK
  5
6C8
100
AcDbEntity
  8
0
100
AcDbBlockBegin
  2
*B151
 70
     0
 10
0.0
 20
0.0
 30
0.0
  3
*B151
  1

  0
LINE
  5
6C9
100
AcDbEntity
  8
0
  6
Continuous
 62
     6
100
AcDbLine
 10
234.10787
 20
143.593565
 30
0.0
 11
234.10787
 21
145.593778
 31
0.0
  0
LINE
  5
6CA
100
AcDbEntity
  8
0
  6
Continuous
 62
     6
100
AcDbLine
 10
233.107764
 20
144.593672
 30
0.0
 11
235.107551
 21
144.593672
 31
0.0
  0
ENDBLK
  5
6CB
100
AcDbEntity
  8
0
100
AcDbBlockEnd
  0
BLOCK
  5
6CE
100
AcDbEntity
  8
0
100
AcDbBlockBegin
  2
*B152
 70
     0
 10
0.0
 20
0.0
 30
0.0
  3
*B152
  1

  0
LINE
  5
6CF
100
AcDbEntity
  8
0
  6
Continuous
 62
     6
100
AcDbLine
 10
226.607924
 20
91.594419
 30
0.0
 11
226.607924
 21
93.594632
 31
0.0
  0
LINE
  5
6D0
100
AcDbEntity
  8
0
  6
Continuous
 62
     6
100
AcDbLine
 10
225.607817
 20
92.594526
 30
0.0
 11
227.607604
 21
92.594526
 31
0.0
  0
ENDBLK
  5
6D1
100
AcDbEntity
  8
0
100
AcDbBlockEnd
  0
BLOCK
  5
6D4
100
AcDbEntity
  8
0
100
AcDbBlockBegin
  2
*B153
 70
     0
 10
0.0
 20
0.0
 30
0.0
  3
*B153
  1

  0
LINE
  5
6D5
100
AcDbEntity
  8
0
  6
Continuous
 62
     6
100
AcDbLine
 10
225.607817
 20
158.593458
 30
0.0
 11
227.607604
 21
158.593458
 31
0.0
  0
LINE
  5
6D6
100
AcDbEntity
  8
0
  6
Continuous
 62
     6
100
AcDbLine
 10
226.607924
 20
157.593352
 30
0.0
 11
226.607924
 21
159.593564
 31
0.0
  0
ENDBLK
  5
6D7
100
AcDbEntity
  8
0
100
AcDbBlockEnd
  0
BLOCK
  5
6DA
100
AcDbEntity
  8
0
100
AcDbBlockBegin
  2
*B154
 70
     0
 10
0.0
 20
0.0
 30
0.0
  3
*B154
  1

  0
LINE
  5
6DB
100
AcDbEntity
  8
0
  6
Continuous
 62
     6
100
AcDbLine
 10
315.607599
 20
91.594419
 30
0.0
 11
315.607599
 21
93.594632
 31
0.0
  0
LINE
  5
6DC
100
AcDbEntity
  8
0
  6
Continuous
 62
     6
100
AcDbLine
 10
314.607493
 20
92.594526
 30
0.0
 11
316.607705
 21
92.594526
 31
0.0
  0
ENDBLK
  5
6DD
100
AcDbEntity
  8
0
100
AcDbBlockEnd
  0
BLOCK
  5
6E0
100
AcDbEntity
  8
0
100
AcDbBlockBegin
  2
*B155
 70
     0
 10
0.0
 20
0.0
 30
0.0
  3
*B155
  1

  0
LINE
  5
6E1
100
AcDbEntity
  8
0
  6
Continuous
 62
     6
100
AcDbLine
 10
342.107863
 20
69.595059
 30
0.0
 11
342.107863
 21
71.594846
 31
0.0
  0
LINE
  5
6E2
100
AcDbEntity
  8
0
  6
Continuous
 62
     6
100
AcDbLine
 10
341.107757
 20
70.59474
 30
0.0
 11
343.107544
 21
70.59474
 31
0.0
  0
ENDBLK
  5
6E3
100
AcDbEntity
  8
0
100
AcDbBlockEnd
  0
BLOCK
  5
6E6
100
AcDbEntity
  8
0
100
AcDbBlockBegin
  2
*B156
 70
     0
 10
0.0
 20
0.0
 30
0.0
  3
*B156
  1

  0
LINE
  5
6E7
100
AcDbEntity
  8
0
  6
Continuous
 62
     6
100
AcDbLine
 10
273.107761
 20
336.628557
 30
0.0
 11
273.107761
 21
338.62877
 31
0.0
  0
LINE
  5
6E8
100
AcDbEntity
  8
0
  6
Continuous
 62
     6
100
AcDbLine
 10
272.107655
 20
337.628664
 30
0.0
 11
274.107867
 21
337.628664
 31
0.0
  0
ENDBLK
  5
6E9
100
AcDbEntity
  8
0
100
AcDbBlockEnd
  0
BLOCK
  5
6EC
100
AcDbEntity
  8
0
100
AcDbBlockBegin
  2
*B157
 70
     0
 10
0.0
 20
0.0
 30
0.0
  3
*B157
  1

  0
LINE
  5
6ED
100
AcDbEntity
  8
0
  6
Continuous
 62
     6
100
AcDbLine
 10
253.107762
 20
69.595059
 30
0.0
 11
253.107762
 21
71.594846
 31
0.0
  0
LINE
  5
6EE
100
AcDbEntity
  8
0
  6
Continuous
 62
     6
100
AcDbLine
 10
252.107656
 20
70.59474
 30
0.0
 11
254.107869
 21
70.59474
 31
0.0
  0
ENDBLK
  5
6EF
100
AcDbEntity
  8
0
100
AcDbBlockEnd
  0
BLOCK
  5
6F2
100
AcDbEntity
  8
0
100
AcDbBlockBegin
  2
*B158
 70
     0
 10
0.0
 20
0.0
 30
0.0
  3
*B158
  1

  0
LINE
  5
6F3
100
AcDbEntity
  8
0
  6
Continuous
 62
     6
100
AcDbLine
 10
437.107751
 20
138.593885
 30
0.0
 11
439.107538
 21
138.593885
 31
0.0
  0
LINE
  5
6F4
100
AcDbEntity
  8
0
  6
Continuous
 62
     6
100
AcDbLine
 10
438.107432
 20
137.593778
 30
0.0
 11
438.107432
 21
139.593991
 31
0.0
  0
ENDBLK
  5
6F5
100
AcDbEntity
  8
0
100
AcDbBlockEnd
  0
BLOCK
  5
6F8
100
AcDbEntity
  8
0
100
AcDbBlockBegin
  2
*B159
 70
     0
 10
0.0
 20
0.0
 30
0.0
  3
*B159
  1

  0
LINE
  5
6F9
100
AcDbEntity
  8
0
  6
Continuous
 62
     6
100
AcDbLine
 10
411.10754
 20
144.593672
 30
0.0
 11
413.107753
 21
144.593672
 31
0.0
  0
LINE
  5
6FA
100
AcDbEntity
  8
0
  6
Continuous
 62
     6
100
AcDbLine
 10
412.107646
 20
143.593565
 30
0.0
 11
412.107646
 21
145.593778
 31
0.0
  0
ENDBLK
  5
6FB
100
AcDbEntity
  8
0
100
AcDbBlockEnd
  0
BLOCK
  5
6FE
100
AcDbEntity
  8
0
100
AcDbBlockBegin
  2
*B160
 70
     0
 10
0.0
 20
0.0
 30
0.0
  3
*B160
  1

  0
LINE
  5
6FF
100
AcDbEntity
  8
0
  6
Continuous
 62
     6
100
AcDbLine
 10
295.6076
 20
287.629305
 30
0.0
 11
295.6076
 21
289.629518
 31
0.0
  0
LINE
  5
700
100
AcDbEntity
  8
0
  6
Continuous
 62
     6
100
AcDbLine
 10
294.607494
 20
288.629411
 30
0.0
 11
296.607707
 21
288.629411
 31
0.0
  0
ENDBLK
  5
701
100
AcDbEntity
  8
0
100
AcDbBlockEnd
  0
BLOCK
  5
704
100
AcDbEntity
  8
0
100
AcDbBlockBegin
  2
*B161
 70
     0
 10
0.0
 20
0.0
 30
0.0
  3
*B161
  1

  0
LINE
  5
705
100
AcDbEntity
  8
0
  6
Continuous
 62
     6
100
AcDbLine
 10
404.6077
 20
91.594419
 30
0.0
 11
404.6077
 21
93.594632
 31
0.0
  0
LINE
  5
706
100
AcDbEntity
  8
0
  6
Continuous
 62
     6
100
AcDbLine
 10
403.607594
 20
92.594526
 30
0.0
 11
405.607806
 21
92.594526
 31
0.0
  0
ENDBLK
  5
707
100
AcDbEntity
  8
0
100
AcDbBlockEnd
  0
BLOCK
  5
70A
100
AcDbEntity
  8
0
100
AcDbBlockBegin
  2
*B162
 70
     0
 10
0.0
 20
0.0
 30
0.0
  3
*B162
  1

  0
LINE
  5
70B
100
AcDbEntity
  8
0
  6
Continuous
 62
     6
100
AcDbLine
 10
314.607493
 20
158.593458
 30
0.0
 11
316.607705
 21
158.593458
 31
0.0
  0
LINE
  5
70C
100
AcDbEntity
  8
0
  6
Continuous
 62
     6
100
AcDbLine
 10
315.607599
 20
157.593352
 30
0.0
 11
315.607599
 21
159.593564
 31
0.0
  0
ENDBLK
  5
70D
100
AcDbEntity
  8
0
100
AcDbBlockEnd
  0
BLOCK
  5
710
100
AcDbEntity
  8
0
100
AcDbBlockBegin
  2
*B163
 70
     0
 10
0.0
 20
0.0
 30
0.0
  3
*B163
  1

  0
LINE
  5
711
100
AcDbEntity
  8
0
  6
Continuous
 62
     6
100
AcDbLine
 10
360.10765
 20
91.594419
 30
0.0
 11
360.10765
 21
93.594632
 31
0.0
  0
LINE
  5
712
100
AcDbEntity
  8
0
  6
Continuous
 62
     6
100
AcDbLine
 10
359.107543
 20
92.594526
 30
0.0
 11
361.107756
 21
92.594526
 31
0.0
  0
ENDBLK
  5
713
100
AcDbEntity
  8
0
100
AcDbBlockEnd
  0
BLOCK
  5
716
100
AcDbEntity
  8
0
100
AcDbBlockBegin
  2
*B164
 70
     0
 10
0.0
 20
0.0
 30
0.0
  3
*B164
  1

  0
LINE
  5
717
100
AcDbEntity
  8
0
  6
Continuous
 62
     6
100
AcDbLine
 10
333.607811
 20
84.594526
 30
0.0
 11
335.607598
 21
84.594526
 31
0.0
  0
LINE
  5
718
100
AcDbEntity
  8
0
  6
Continuous
 62
     6
100
AcDbLine
 10
334.607491
 20
83.594846
 30
0.0
 11
334.607491
 21
85.594633
 31
0.0
  0
ENDBLK
  5
719
100
AcDbEntity
  8
0
100
AcDbBlockEnd
  0
BLOCK
  5
71C
100
AcDbEntity
  8
0
100
AcDbBlockBegin
  2
*B165
 70
     0
 10
0.0
 20
0.0
 30
0.0
  3
*B165
  1

  0
LINE
  5
71D
100
AcDbEntity
  8
0
  6
Continuous
 62
     6
100
AcDbLine
 10
438.107432
 20
89.594632
 30
0.0
 11
438.107432
 21
91.594419
 31
0.0
  0
LINE
  5
71E
100
AcDbEntity
  8
0
  6
Continuous
 62
     6
100
AcDbLine
 10
437.107751
 20
90.594739
 30
0.0
 11
439.107538
 21
90.594739
 31
0.0
  0
ENDBLK
  5
71F
100
AcDbEntity
  8
0
100
AcDbBlockEnd
  0
BLOCK
  5
722
100
AcDbEntity
  8
0
100
AcDbBlockBegin
  2
*B166
 70
     0
 10
0.0
 20
0.0
 30
0.0
  3
*B166
  1

  0
LINE
  5
723
100
AcDbEntity
  8
0
  6
Continuous
 62
     6
100
AcDbLine
 10
367.607596
 20
143.593565
 30
0.0
 11
367.607596
 21
145.593778
 31
0.0
  0
LINE
  5
724
100
AcDbEntity
  8
0
  6
Continuous
 62
     6
100
AcDbLine
 10
366.60749
 20
144.593672
 30
0.0
 11
368.607702
 21
144.593672
 31
0.0
  0
ENDBLK
  5
725
100
AcDbEntity
  8
0
100
AcDbBlockEnd
  0
BLOCK
  5
728
100
AcDbEntity
  8
0
100
AcDbBlockBegin
  2
*B167
 70
     0
 10
0.0
 20
0.0
 30
0.0
  3
*B167
  1

  0
LINE
  5
729
100
AcDbEntity
  8
0
  6
Continuous
 62
     6
100
AcDbLine
 10
306.607493
 20
113.594205
 30
0.0
 11
306.607493
 21
115.593992
 31
0.0
  0
LINE
  5
72A
100
AcDbEntity
  8
0
  6
Continuous
 62
     6
100
AcDbLine
 10
305.607812
 20
114.594312
 30
0.0
 11
307.607599
 21
114.594312
 31
0.0
  0
ENDBLK
  5
72B
100
AcDbEntity
  8
0
100
AcDbBlockEnd
  0
BLOCK
  5
72E
100
AcDbEntity
  8
0
100
AcDbBlockBegin
  2
*B168
 70
     0
 10
0.0
 20
0.0
 30
0.0
  3
*B168
  1

  0
LINE
  5
72F
100
AcDbEntity
  8
0
  6
Continuous
 62
     6
100
AcDbLine
 10
322.107865
 20
144.593672
 30
0.0
 11
324.107652
 21
144.593672
 31
0.0
  0
LINE
  5
730
100
AcDbEntity
  8
0
  6
Continuous
 62
     6
100
AcDbLine
 10
323.107545
 20
143.593565
 30
0.0
 11
323.107545
 21
145.593778
 31
0.0
  0
ENDBLK
  5
731
100
AcDbEntity
  8
0
100
AcDbBlockEnd
  0
BLOCK
  5
734
100
AcDbEntity
  8
0
100
AcDbBlockBegin
  2
*B169
 70
     0
 10
0.0
 20
0.0
 30
0.0
  3
*B169
  1

  0
LINE
  5
735
100
AcDbEntity
  8
0
  6
Continuous
 62
     6
100
AcDbLine
 10
317.607812
 20
336.628557
 30
0.0
 11
317.607812
 21
338.62877
 31
0.0
  0
LINE
  5
736
100
AcDbEntity
  8
0
  6
Continuous
 62
     6
100
AcDbLine
 10
316.607705
 20
337.628664
 30
0.0
 11
318.607492
 21
337.628664
 31
0.0
  0
ENDBLK
  5
737
100
AcDbEntity
  8
0
100
AcDbBlockEnd
  0
BLOCK
  5
73A
100
AcDbEntity
  8
0
100
AcDbBlockBegin
  2
*B170
 70
     0
 10
0.0
 20
0.0
 30
0.0
  3
*B170
  1

  0
LINE
  5
73B
100
AcDbEntity
  8
0
  6
Continuous
 62
     6
100
AcDbLine
 10
208.607712
 20
69.595059
 30
0.0
 11
208.607712
 21
71.594846
 31
0.0
  0
LINE
  5
73C
100
AcDbEntity
  8
0
  6
Continuous
 62
     6
100
AcDbLine
 10
207.607605
 20
70.59474
 30
0.0
 11
209.607818
 21
70.59474
 31
0.0
  0
ENDBLK
  5
73D
100
AcDbEntity
  8
0
100
AcDbBlockEnd
  0
BLOCK
  5
740
100
AcDbEntity
  8
0
100
AcDbBlockBegin
  2
*B171
 70
     0
 10
0.0
 20
0.0
 30
0.0
  3
*B171
  1

  0
LINE
  5
741
100
AcDbEntity
  8
0
  6
Continuous
 62
     6
100
AcDbLine
 10
362.107437
 20
336.628557
 30
0.0
 11
362.107437
 21
338.62877
 31
0.0
  0
LINE
  5
742
100
AcDbEntity
  8
0
  6
Continuous
 62
     6
100
AcDbLine
 10
361.107756
 20
337.628664
 30
0.0
 11
363.107543
 21
337.628664
 31
0.0
  0
ENDBLK
  5
743
100
AcDbEntity
  8
0
100
AcDbBlockEnd
  0
BLOCK
  5
746
100
AcDbEntity
  8
0
100
AcDbBlockBegin
  2
*B172
 70
     0
 10
0.0
 20
0.0
 30
0.0
  3
*B172
  1

  0
LINE
  5
747
100
AcDbEntity
  8
0
  6
Continuous
 62
     6
100
AcDbLine
 10
406.607487
 20
336.628557
 30
0.0
 11
406.607487
 21
338.62877
 31
0.0
  0
LINE
  5
748
100
AcDbEntity
  8
0
  6
Continuous
 62
     6
100
AcDbLine
 10
405.607806
 20
337.628664
 30
0.0
 11
407.607594
 21
337.628664
 31
0.0
  0
ENDBLK
  5
749
100
AcDbEntity
  8
0
100
AcDbBlockEnd
  0
BLOCK
  5
74C
100
AcDbEntity
  8
0
100
AcDbBlockBegin
  2
*B173
 70
     0
 10
0.0
 20
0.0
 30
0.0
  3
*B173
  1

  0
LINE
  5
74D
100
AcDbEntity
  8
0
  6
Continuous
 62
     6
100
AcDbLine
 10
351.107544
 20
113.594205
 30
0.0
 11
351.107544
 21
115.593992
 31
0.0
  0
LINE
  5
74E
100
AcDbEntity
  8
0
  6
Continuous
 62
     6
100
AcDbLine
 10
350.107863
 20
114.594312
 30
0.0
 11
352.10765
 21
114.594312
 31
0.0
  0
ENDBLK
  5
74F
100
AcDbEntity
  8
0
100
AcDbBlockEnd
  0
BLOCK
  5
752
100
AcDbEntity
  8
0
100
AcDbBlockBegin
  2
*B174
 70
     0
 10
0.0
 20
0.0
 30
0.0
  3
*B174
  1

  0
LINE
  5
753
100
AcDbEntity
  8
0
  6
Continuous
 62
     6
100
AcDbLine
 10
228.607711
 20
336.628557
 30
0.0
 11
228.607711
 21
338.62877
 31
0.0
  0
LINE
  5
754
100
AcDbEntity
  8
0
  6
Continuous
 62
     6
100
AcDbLine
 10
227.607604
 20
337.628664
 30
0.0
 11
229.607817
 21
337.628664
 31
0.0
  0
ENDBLK
  5
755
100
AcDbEntity
  8
0
100
AcDbBlockEnd
  0
BLOCK
  5
758
100
AcDbEntity
  8
0
100
AcDbBlockBegin
  2
*B175
 70
     0
 10
0.0
 20
0.0
 30
0.0
  3
*B175
  1

  0
LINE
  5
759
100
AcDbEntity
  8
0
  6
Continuous
 62
     6
100
AcDbLine
 10
384.607701
 20
287.629305
 30
0.0
 11
384.607701
 21
289.629518
 31
0.0
  0
LINE
  5
75A
100
AcDbEntity
  8
0
  6
Continuous
 62
     6
100
AcDbLine
 10
383.607595
 20
288.629411
 30
0.0
 11
385.607808
 21
288.629411
 31
0.0
  0
ENDBLK
  5
75B
100
AcDbEntity
  8
0
100
AcDbBlockEnd
  0
BLOCK
  5
75E
100
AcDbEntity
  8
0
100
AcDbBlockBegin
  2
*B176
 70
     0
 10
0.0
 20
0.0
 30
0.0
  3
*B176
  1

  0
LINE
  5
75F
100
AcDbEntity
  8
0
  6
Continuous
 62
     6
100
AcDbLine
 10
270.107868
 20
158.593458
 30
0.0
 11
272.107655
 21
158.593458
 31
0.0
  0
LINE
  5
760
100
AcDbEntity
  8
0
  6
Continuous
 62
     6
100
AcDbLine
 10
271.107548
 20
157.593352
 30
0.0
 11
271.107548
 21
159.593564
 31
0.0
  0
ENDBLK
  5
761
100
AcDbEntity
  8
0
100
AcDbBlockEnd
  0
BLOCK
  5
764
100
AcDbEntity
  8
0
100
AcDbBlockBegin
  2
*B177
 70
     0
 10
0.0
 20
0.0
 30
0.0
  3
*B177
  1

  0
LINE
  5
765
100
AcDbEntity
  8
0
  6
Continuous
 62
     6
100
AcDbLine
 10
245.607816
 20
83.594846
 30
0.0
 11
245.607816
 21
85.594633
 31
0.0
  0
LINE
  5
766
100
AcDbEntity
  8
0
  6
Continuous
 62
     6
100
AcDbLine
 10
244.60771
 20
84.594526
 30
0.0
 11
246.607497
 21
84.594526
 31
0.0
  0
ENDBLK
  5
767
100
AcDbEntity
  8
0
100
AcDbBlockEnd
  0
BLOCK
  5
76A
100
AcDbEntity
  8
0
100
AcDbBlockBegin
  2
*B178
 70
     0
 10
0.0
 20
0.0
 30
0.0
  3
*B178
  1

  0
LINE
  5
76B
100
AcDbEntity
  8
0
  6
Continuous
 62
     6
100
AcDbLine
 10
386.607488
 20
69.595059
 30
0.0
 11
386.607488
 21
71.594846
 31
0.0
  0
LINE
  5
76C
100
AcDbEntity
  8
0
  6
Continuous
 62
     6
100
AcDbLine
 10
385.607808
 20
70.59474
 30
0.0
 11
387.607595
 21
70.59474
 31
0.0
  0
ENDBLK
  5
76D
100
AcDbEntity
  8
0
100
AcDbBlockEnd
  0
BLOCK
  5
770
100
AcDbEntity
  8
0
100
AcDbBlockBegin
  2
*B179
 70
     0
 10
0.0
 20
0.0
 30
0.0
  3
*B179
  1

  0
LINE
  5
771
100
AcDbEntity
  8
0
  6
Continuous
 62
     6
100
AcDbLine
 10
206.607925
 20
287.629305
 30
0.0
 11
206.607925
 21
289.629518
 31
0.0
  0
LINE
  5
772
100
AcDbEntity
  8
0
  6
Continuous
 62
     6
100
AcDbLine
 10
205.607818
 20
288.629411
 30
0.0
 11
207.607605
 21
288.629411
 31
0.0
  0
ENDBLK
  5
773
100
AcDbEntity
  8
0
100
AcDbBlockEnd
  0
BLOCK
  5
776
100
AcDbEntity
  8
0
100
AcDbBlockBegin
  2
*B180
 70
     0
 10
0.0
 20
0.0
 30
0.0
  3
*B180
  1

  0
LINE
  5
777
100
AcDbEntity
  8
0
  6
Continuous
 62
     6
100
AcDbLine
 10
251.10755
 20
287.629305
 30
0.0
 11
251.10755
 21
289.629518
 31
0.0
  0
LINE
  5
778
100
AcDbEntity
  8
0
  6
Continuous
 62
     6
100
AcDbLine
 10
250.107869
 20
288.629411
 30
0.0
 11
252.107656
 21
288.629411
 31
0.0
  0
ENDBLK
  5
779
100
AcDbEntity
  8
0
100
AcDbBlockEnd
  0
BLOCK
  5
77C
100
AcDbEntity
  8
0
100
AcDbBlockBegin
  2
*B181
 70
     0
 10
0.0
 20
0.0
 30
0.0
  3
*B181
  1

  0
LINE
  5
77D
100
AcDbEntity
  8
0
  6
Continuous
 62
     6
100
AcDbLine
 10
175.107554
 20
89.594632
 30
0.0
 11
175.107554
 21
91.594419
 31
0.0
  0
LINE
  5
77E
100
AcDbEntity
  8
0
  6
Continuous
 62
     6
100
AcDbLine
 10
174.107873
 20
90.594739
 30
0.0
 11
176.107661
 21
90.594739
 31
0.0
  0
ENDBLK
  5
77F
100
AcDbEntity
  8
0
100
AcDbBlockEnd
  0
BLOCK
  5
782
100
AcDbEntity
  8
0
100
AcDbBlockBegin
  2
*B182
 70
     0
 10
0.0
 20
0.0
 30
0.0
  3
*B182
  1

  0
LINE
  5
783
100
AcDbEntity
  8
0
  6
Continuous
 62
     6
100
AcDbLine
 10
297.607813
 20
69.595059
 30
0.0
 11
297.607813
 21
71.594846
 31
0.0
  0
LINE
  5
784
100
AcDbEntity
  8
0
  6
Continuous
 62
     6
100
AcDbLine
 10
296.607707
 20
70.59474
 30
0.0
 11
298.607494
 21
70.59474
 31
0.0
  0
ENDBLK
  5
785
100
AcDbEntity
  8
0
100
AcDbBlockEnd
  0
BLOCK
  5
788
100
AcDbEntity
  8
0
100
AcDbBlockBegin
  2
*B183
 70
     0
 10
0.0
 20
0.0
 30
0.0
  3
*B183
  1

  0
LINE
  5
789
100
AcDbEntity
  8
0
  6
Continuous
 62
     6
100
AcDbLine
 10
385.607808
 20
136.593672
 30
0.0
 11
387.607595
 21
136.593672
 31
0.0
  0
LINE
  5
78A
100
AcDbEntity
  8
0
  6
Continuous
 62
     6
100
AcDbLine
 10
386.607488
 20
135.593991
 30
0.0
 11
386.607488
 21
137.593778
 31
0.0
  0
ENDBLK
  5
78B
100
AcDbEntity
  8
0
100
AcDbBlockEnd
  0
BLOCK
  5
78E
100
AcDbEntity
  8
0
100
AcDbBlockBegin
  2
*B184
 70
     0
 10
0.0
 20
0.0
 30
0.0
  3
*B184
  1

  0
LINE
  5
78F
100
AcDbEntity
  8
0
  6
Continuous
 62
     6
100
AcDbLine
 10
262.107868
 20
113.594205
 30
0.0
 11
262.107868
 21
115.593992
 31
0.0
  0
LINE
  5
790
100
AcDbEntity
  8
0
  6
Continuous
 62
     6
100
AcDbLine
 10
261.107762
 20
114.594312
 30
0.0
 11
263.107549
 21
114.594312
 31
0.0
  0
ENDBLK
  5
791
100
AcDbEntity
  8
0
100
AcDbBlockEnd
  0
BLOCK
  5
794
100
AcDbEntity
  8
0
100
AcDbBlockBegin
  2
*B185
 70
     0
 10
0.0
 20
0.0
 30
0.0
  3
*B185
  1

  0
LINE
  5
795
100
AcDbEntity
  8
0
  6
Continuous
 62
     6
100
AcDbLine
 10
200.107659
 20
84.594526
 30
0.0
 11
202.107872
 21
84.594526
 31
0.0
  0
LINE
  5
796
100
AcDbEntity
  8
0
  6
Continuous
 62
     6
100
AcDbLine
 10
201.107765
 20
83.594846
 30
0.0
 11
201.107765
 21
85.594633
 31
0.0
  0
ENDBLK
  5
797
100
AcDbEntity
  8
0
100
AcDbBlockEnd
  0
BLOCK
  5
79A
100
AcDbEntity
  8
0
100
AcDbBlockBegin
  2
*B186
 70
     0
 10
0.0
 20
0.0
 30
0.0
  3
*B186
  1

  0
LINE
  5
79B
100
AcDbEntity
  8
0
  6
Continuous
 62
     6
100
AcDbLine
 10
278.607495
 20
143.593565
 30
0.0
 11
278.607495
 21
145.593778
 31
0.0
  0
LINE
  5
79C
100
AcDbEntity
  8
0
  6
Continuous
 62
     6
100
AcDbLine
 10
277.607814
 20
144.593672
 30
0.0
 11
279.607601
 21
144.593672
 31
0.0
  0
ENDBLK
  5
79D
100
AcDbEntity
  8
0
100
AcDbBlockEnd
  0
BLOCK
  5
7A0
100
AcDbEntity
  8
0
100
AcDbBlockBegin
  2
*B187
 70
     0
 10
0.0
 20
0.0
 30
0.0
  3
*B187
  1

  0
LINE
  5
7A1
100
AcDbEntity
  8
0
  6
Continuous
 62
     6
100
AcDbLine
 10
379.107542
 20
83.594846
 30
0.0
 11
379.107542
 21
85.594633
 31
0.0
  0
LINE
  5
7A2
100
AcDbEntity
  8
0
  6
Continuous
 62
     6
100
AcDbLine
 10
378.107861
 20
84.594526
 30
0.0
 11
380.107648
 21
84.594526
 31
0.0
  0
ENDBLK
  5
7A3
100
AcDbEntity
  8
0
100
AcDbBlockEnd
  0
BLOCK
  5
7A6
100
AcDbEntity
  8
0
100
AcDbBlockBegin
  2
*B188
 70
     0
 10
0.0
 20
0.0
 30
0.0
  3
*B188
  1

  0
LINE
  5
7A7
100
AcDbEntity
  8
0
  6
Continuous
 62
     6
100
AcDbLine
 10
395.607594
 20
113.594205
 30
0.0
 11
395.607594
 21
115.593992
 31
0.0
  0
LINE
  5
7A8
100
AcDbEntity
  8
0
  6
Continuous
 62
     6
100
AcDbLine
 10
394.607488
 20
114.594312
 30
0.0
 11
396.607701
 21
114.594312
 31
0.0
  0
ENDBLK
  5
7A9
100
AcDbEntity
  8
0
100
AcDbBlockEnd
  0
BLOCK
  5
7AC
100
AcDbEntity
  8
0
100
AcDbBlockBegin
  2
*B189
 70
     0
 10
0.0
 20
0.0
 30
0.0
  3
*B189
  1

  0
LINE
  5
7AD
100
AcDbEntity
  8
0
  6
Continuous
 62
     6
100
AcDbLine
 10
360.10765
 20
157.593352
 30
0.0
 11
360.10765
 21
159.593564
 31
0.0
  0
LINE
  5
7AE
100
AcDbEntity
  8
0
  6
Continuous
 62
     6
100
AcDbLine
 10
359.107543
 20
158.593458
 30
0.0
 11
361.107756
 21
158.593458
 31
0.0
  0
ENDBLK
  5
7AF
100
AcDbEntity
  8
0
100
AcDbBlockEnd
  0
BLOCK
  5
7B2
100
AcDbEntity
  8
0
100
AcDbBlockBegin
  2
*B190
 70
     0
 10
0.0
 20
0.0
 30
0.0
  3
*B190
  1

  0
LINE
  5
7B3
100
AcDbEntity
  8
0
  6
Continuous
 62
     6
100
AcDbLine
 10
270.107868
 20
92.594526
 30
0.0
 11
272.107655
 21
92.594526
 31
0.0
  0
LINE
  5
7B4
100
AcDbEntity
  8
0
  6
Continuous
 62
     6
100
AcDbLine
 10
271.107548
 20
91.594419
 30
0.0
 11
271.107548
 21
93.594632
 31
0.0
  0
ENDBLK
  5
7B5
100
AcDbEntity
  8
0
100
AcDbBlockEnd
  0
BLOCK
  5
7B8
100
AcDbEntity
  8
0
100
AcDbBlockBegin
  2
*B191
 70
     0
 10
0.0
 20
0.0
 30
0.0
  3
*B191
  1

  0
LINE
  5
7B9
100
AcDbEntity
  8
0
  6
Continuous
 62
     6
100
AcDbLine
 10
217.607818
 20
113.594205
 30
0.0
 11
217.607818
 21
115.593992
 31
0.0
  0
LINE
  5
7BA
100
AcDbEntity
  8
0
  6
Continuous
 62
     6
100
AcDbLine
 10
216.607711
 20
114.594312
 30
0.0
 11
218.607924
 21
114.594312
 31
0.0
  0
ENDBLK
  5
7BB
100
AcDbEntity
  8
0
100
AcDbBlockEnd
  0
BLOCK
  5
7BE
100
AcDbEntity
  8
0
100
AcDbBlockBegin
  2
*B192
 70
     0
 10
0.0
 20
0.0
 30
0.0
  3
*B192
  1

  0
LINE
  5
7BF
100
AcDbEntity
  8
0
  6
Continuous
 62
     6
100
AcDbLine
 10
341.107757
 20
136.593672
 30
0.0
 11
343.107544
 21
136.593672
 31
0.0
  0
LINE
  5
7C0
100
AcDbEntity
  8
0
  6
Continuous
 62
     6
100
AcDbLine
 10
342.107863
 20
135.593991
 30
0.0
 11
342.107863
 21
137.593778
 31
0.0
  0
ENDBLK
  5
7C1
100
AcDbEntity
  8
0
100
AcDbBlockEnd
  0
BLOCK
  5
7C4
100
AcDbEntity
  8
0
100
AcDbBlockBegin
  2
*B193
 70
     0
 10
0.0
 20
0.0
 30
0.0
  3
*B193
  1

  0
LINE
  5
7C5
100
AcDbEntity
  8
0
  6
Continuous
 62
     6
100
AcDbLine
 10
297.607813
 20
135.593991
 30
0.0
 11
297.607813
 21
137.593778
 31
0.0
  0
LINE
  5
7C6
100
AcDbEntity
  8
0
  6
Continuous
 62
     6
100
AcDbLine
 10
296.607707
 20
136.593672
 30
0.0
 11
298.607494
 21
136.593672
 31
0.0
  0
ENDBLK
  5
7C7
100
AcDbEntity
  8
0
100
AcDbBlockEnd
  0
BLOCK
  5
7CA
100
AcDbEntity
  8
0
100
AcDbBlockBegin
  2
*B194
 70
     0
 10
0.0
 20
0.0
 30
0.0
  3
*B194
  1

  0
LINE
  5
7CB
100
AcDbEntity
  8
0
  6
Continuous
 62
     0
100
AcDbLine
 10
486.54322
 20
168.37237
 30
0.0
 11
466.529177
 21
168.37237
 31
0.0
  0
LINE
  5
7CC
100
AcDbEntity
  8
0
  6
Continuous
 62
     0
100
AcDbLine
 10
466.529177
 20
168.37237
 30
0.0
 11
441.214571
 21
141.849124
 31
0.0
  0
SOLID
  5
7CD
100
AcDbEntity
  8
0
  6
Continuous
 62
     0
100
AcDbTrace
 10
444.962204
 20
147.948496
 30
0.0
 11
441.214571
 21
141.849124
 31
0.0
 12
447.132647
 22
145.877212
 32
0.0
 13
447.132647
 23
145.877212
 33
0.0
  0
ENDBLK
  5
7CE
100
AcDbEntity
  8
0
100
AcDbBlockEnd
  0
BLOCK
  5
7D1
100
AcDbEntity
  8
0
100
AcDbBlockBegin
  2
*B195
 70
     0
 10
0.0
 20
0.0
 30
0.0
  3
*B195
  1

  0
LINE
  5
7D2
100
AcDbEntity
  8
0
  6
Continuous
 62
     0
100
AcDbLine
 10
474.750477
 20
202.37173
 30
0.0
 11
462.321922
 21
202.37173
 31
0.0
  0
LINE
  5
7D3
100
AcDbEntity
  8
0
  6
Continuous
 62
     0
100
AcDbLine
 10
462.321922
 20
202.37173
 30
0.0
 11
413.747395
 21
146.480681
 31
0.0
  0
SOLID
  5
7D4
100
AcDbEntity
  8
0
  6
Continuous
 62
     0
100
AcDbTrace
 10
417.207338
 20
152.748156
 30
0.0
 11
413.747395
 21
146.480681
 31
0.0
 12
419.471408
 22
150.780287
 32
0.0
 13
419.471408
 23
150.780287
 33
0.0
  0
ENDBLK
  5
7D5
100
AcDbEntity
  8
0
100
AcDbBlockEnd
  0
BLOCK
  5
7D8
100
AcDbEntity
  8
0
100
AcDbBlockBegin
  2
*B196
 70
     0
 10
0.0
 20
0.0
 30
0.0
  3
*B196
  1

  0
TEXT
  5
7D9
100
AcDbEntity
  8
TEXT
  6
Continuous
 62
     0
100
AcDbText
 10
469.492857
 20
171.75
 30
0.0
 40
4.5
  1
%%c4,5
100
AcDbText
  0
ENDBLK
  5
7DA
100
AcDbEntity
  8
0
100
AcDbBlockEnd
  0
BLOCK
  5
7DD
100
AcDbEntity
  8
0
100
AcDbBlockBegin
  2
*B197
 70
     0
 10
0.0
 20
0.0
 30
0.0
  3
*B197
  1

  0
TEXT
  5
7DE
100
AcDbEntity
  8
TEXT
  6
Continuous
 62
     0
100
AcDbText
 10
465.285714
 20
205.75
 30
0.0
 40
4.5
  1
M3
100
AcDbText
  0
ENDBLK
  5
7DF
100
AcDbEntity
  8
0
100
AcDbBlockEnd
  0
BLOCK
  5
7E2
100
AcDbEntity
  8
0
100
AcDbBlockBegin
  2
*B198
 70
     0
 10
0.0
 20
0.0
 30
0.0
  3
*B198
  1

  0
TEXT
  5
7E3
100
AcDbEntity
  8
TEXT
  6
Continuous
 62
     0
100
AcDbText
 10
202.471499
 20
315.0
 30
0.0
 40
10.0
  1
4
100
AcDbText
  0
ENDBLK
  5
7E4
100
AcDbEntity
  8
0
100
AcDbBlockEnd
  0
BLOCK
  5
7E7
100
AcDbEntity
  8
0
100
AcDbBlockBegin
  2
*B199
 70
     0
 10
0.0
 20
0.0
 30
0.0
  3
*B199
  1

  0
TEXT
  5
7E8
100
AcDbEntity
  8
TEXT
  6
Continuous
 62
     0
100
AcDbText
 10
224.471499
 20
306.0
 30
0.0
 40
10.0
  1
2
100
AcDbText
  0
ENDBLK
  5
7E9
100
AcDbEntity
  8
0
100
AcDbBlockEnd
  0
BLOCK
  5
7EC
100
AcDbEntity
  8
0
100
AcDbBlockBegin
  2
*B200
 70
     0
 10
0.0
 20
0.0
 30
0.0
  3
*B200
  1

  0
TEXT
  5
7ED
100
AcDbEntity
  8
TEXT
  6
Continuous
 62
     0
100
AcDbText
 10
434.471499
 20
109.0
 30
0.0
 40
10.0
  1
1
100
AcDbText
  0
ENDBLK
  5
7EE
100
AcDbEntity
  8
0
100
AcDbBlockEnd
  0
BLOCK
  5
7F1
100
AcDbEntity
  8
0
100
AcDbBlockBegin
  2
*B201
 70
     0
 10
0.0
 20
0.0
 30
0.0
  3
*B201
  1

  0
TEXT
  5
7F2
100
AcDbEntity
  8
TEXT
  6
Continuous
 62
     0
100
AcDbText
 10
434.471499
 20
61.0
 30
0.0
 40
10.0
  1
3
100
AcDbText
  0
ENDBLK
  5
7F3
100
AcDbEntity
  8
0
100
AcDbBlockEnd
  0
BLOCK
  5
7F6
100
AcDbEntity
  8
0
100
AcDbBlockBegin
  2
*B202
 70
     0
 10
0.0
 20
0.0
 30
0.0
  3
*B202
  1

  0
TEXT
  5
7F7
100
AcDbEntity
  8
TEXT
  6
Continuous
 62
     0
100
AcDbText
 10
433.471499
 20
157.0
 30
0.0
 40
10.0
  1
5
100
AcDbText
  0
ENDBLK
  5
7F8
100
AcDbEntity
  8
0
100
AcDbBlockEnd
  0
BLOCK
  5
7FB
100
AcDbEntity
  8
0
100
AcDbBlockBegin
  2
*B203
 70
     0
 10
0.0
 20
0.0
 30
0.0
  3
*B203
  1

  0
TEXT
  5
7FC
100
AcDbEntity
  8
TEXT
  6
Continuous
 62
     0
100
AcDbText
 10
246.471499
 20
315.0
 30
0.0
 40
10.0
  1
4
100
AcDbText
  0
ENDBLK
  5
7FD
100
AcDbEntity
  8
0
100
AcDbBlockEnd
  0
BLOCK
  5
800
100
AcDbEntity
  8
0
100
AcDbBlockBegin
  2
*B204
 70
     0
 10
0.0
 20
0.0
 30
0.0
  3
*B204
  1

  0
TEXT
  5
801
100
AcDbEntity
  8
TEXT
  6
Continuous
 62
     0
100
AcDbText
 10
290.471499
 20
315.0
 30
0.0
 40
10.0
  1
4
100
AcDbText
  0
ENDBLK
  5
802
100
AcDbEntity
  8
0
100
AcDbBlockEnd
  0
BLOCK
  5
805
100
AcDbEntity
  8
0
100
AcDbBlockBegin
  2
*B205
 70
     0
 10
0.0
 20
0.0
 30
0.0
  3
*B205
  1

  0
TEXT
  5
806
100
AcDbEntity
  8
TEXT
  6
Continuous
 62
     0
100
AcDbText
 10
336.471499
 20
315.0
 30
0.0
 40
10.0
  1
4
100
AcDbText
  0
ENDBLK
  5
807
100
AcDbEntity
  8
0
100
AcDbBlockEnd
  0
BLOCK
  5
80A
100
AcDbEntity
  8
0
100
AcDbBlockBegin
  2
*B206
 70
     0
 10
0.0
 20
0.0
 30
0.0
  3
*B206
  1

  0
TEXT
  5
80B
100
AcDbEntity
  8
TEXT
  6
Continuous
 62
     0
100
AcDbText
 10
380.471499
 20
315.0
 30
0.0
 40
10.0
  1
4
100
AcDbText
  0
ENDBLK
  5
80C
100
AcDbEntity
  8
0
100
AcDbBlockEnd
  0
BLOCK
  5
80F
100
AcDbEntity
  8
0
100
AcDbBlockBegin
  2
*B207
 70
     0
 10
0.0
 20
0.0
 30
0.0
  3
*B207
  1

  0
TEXT
  5
810
100
AcDbEntity
  8
TEXT
  6
Continuous
 62
     0
100
AcDbText
 10
268.471499
 20
307.0
 30
0.0
 40
10.0
  1
2
100
AcDbText
  0
ENDBLK
  5
811
100
AcDbEntity
  8
0
100
AcDbBlockEnd
  0
BLOCK
  5
814
100
AcDbEntity
  8
0
100
AcDbBlockBegin
  2
*B208
 70
     0
 10
0.0
 20
0.0
 30
0.0
  3
*B208
  1

  0
TEXT
  5
815
100
AcDbEntity
  8
TEXT
  6
Continuous
 62
     0
100
AcDbText
 10
314.471499
 20
307.0
 30
0.0
 40
10.0
  1
2
100
AcDbText
  0
ENDBLK
  5
816
100
AcDbEntity
  8
0
100
AcDbBlockEnd
  0
BLOCK
  5
819
100
AcDbEntity
  8
0
100
AcDbBlockBegin
  2
*B209
 70
     0
 10
0.0
 20
0.0
 30
0.0
  3
*B209
  1

  0
TEXT
  5
81A
100
AcDbEntity
  8
TEXT
  6
Continuous
 62
     0
100
AcDbText
 10
171.471499
 20
62.0
 30
0.0
 40
10.0
  1
3
100
AcDbText
  0
ENDBLK
  5
81B
100
AcDbEntity
  8
0
100
AcDbBlockEnd
  0
BLOCK
  5
81E
100
AcDbEntity
  8
0
100
AcDbBlockBegin
  2
*B210
 70
     0
 10
0.0
 20
0.0
 30
0.0
  3
*B210
  1

  0
TEXT
  5
81F
100
AcDbEntity
  8
TEXT
  6
Continuous
 62
     0
100
AcDbText
 10
404.471499
 20
307.0
 30
0.0
 40
10.0
  1
2
100
AcDbText
  0
ENDBLK
  5
820
100
AcDbEntity
  8
0
100
AcDbBlockEnd
  0
BLOCK
  5
823
100
AcDbEntity
  8
0
100
AcDbBlockBegin
  2
*B211
 70
     0
 10
0.0
 20
0.0
 30
0.0
  3
*B211
  1

  0
TEXT
  5
824
100
AcDbEntity
  8
TEXT
  6
Continuous
 62
     0
100
AcDbText
 10
171.471499
 20
159.0
 30
0.0
 40
10.0
  1
5
100
AcDbText
  0
ENDBLK
  5
825
100
AcDbEntity
  8
0
100
AcDbBlockEnd
  0
BLOCK
  5
828
100
AcDbEntity
  8
0
100
AcDbBlockBegin
  2
*B212
 70
     0
 10
0.0
 20
0.0
 30
0.0
  3
*B212
  1

  0
TEXT
  5
829
100
AcDbEntity
  8
TEXT
  6
Continuous
 62
     0
100
AcDbText
 10
171.471499
 20
110.0
 30
0.0
 40
10.0
  1
1
100
AcDbText
  0
ENDBLK
  5
82A
100
AcDbEntity
  8
0
100
AcDbBlockEnd
  0
BLOCK
  5
82D
100
AcDbEntity
  8
0
100
AcDbBlockBegin
  2
*B213
 70
     0
 10
0.0
 20
0.0
 30
0.0
  3
*B213
  1

  0
TEXT
  5
82E
100
AcDbEntity
  8
TEXT
  6
Continuous
 62
     0
100
AcDbText
 10
358.471499
 20
307.0
 30
0.0
 40
10.0
  1
2
100
AcDbText
  0
ENDBLK
  5
82F
100
AcDbEntity
  8
0
100
AcDbBlockEnd
  0
BLOCK
  5
832
100
AcDbEntity
  8
0
100
AcDbBlockBegin
  2
*B214
 70
     0
 10
0.0
 20
0.0
 30
0.0
  3
*B214
  1

  0
TEXT
  5
833
100
AcDbEntity
  8
TEXT
  6
Continuous
 62
     0
100
AcDbText
 10
142.037195
 20
270.633847
 30
0.0
 40
4.5
  1
10,5
 50
90.0
100
AcDbText
  0
ENDBLK
  5
834
100
AcDbEntity
  8
0
100
AcDbBlockEnd
  0
BLOCK
  5
837
100
AcDbEntity
  8
0
100
AcDbBlockBegin
  2
*B215
 70
     0
 10
0.0
 20
0.0
 30
0.0
  3
*B215
  1

  0
TEXT
  5
838
100
AcDbEntity
  8
TEXT
  6
Continuous
 62
     0
100
AcDbText
 10
142.037195
 20
305.633847
 30
0.0
 40
4.5
  1
24,5
 50
90.0
100
AcDbText
  0
ENDBLK
  5
839
100
AcDbEntity
  8
0
100
AcDbBlockEnd
  0
BLOCK
  5
83C
100
AcDbEntity
  8
0
100
AcDbBlockBegin
  2
*B216
 70
     0
 10
0.0
 20
0.0
 30
0.0
  3
*B216
  1

  0
TEXT
  5
83D
100
AcDbEntity
  8
TEXT
  6
Continuous
 62
     0
100
AcDbText
 10
103.25
 20
308.348132
 30
0.0
 40
4.5
  1
45
 50
90.0
100
AcDbText
  0
ENDBLK
  5
83E
100
AcDbEntity
  8
0
100
AcDbBlockEnd
  0
BLOCK
  5
841
100
AcDbEntity
  8
0
100
AcDbBlockBegin
  2
*B217
 70
     0
 10
0.0
 20
0.0
 30
0.0
  3
*B217
  1

  0
TEXT
  5
842
100
AcDbEntity
  8
TEXT
  6
Continuous
 62
     0
100
AcDbText
 10
175.178506
 20
228.25
 30
0.0
 40
4.5
  1
21,75
100
AcDbText
  0
ENDBLK
  5
843
100
AcDbEntity
  8
0
100
AcDbBlockEnd
  0
BLOCK
  5
846
100
AcDbEntity
  8
0
100
AcDbBlockBegin
  2
*B218
 70
     0
 10
0.0
 20
0.0
 30
0.0
  3
*B218
  1

  0
TEXT
  5
847
100
AcDbEntity
  8
TEXT
  6
Continuous
 62
     0
100
AcDbText
 10
219.178506
 20
228.25
 30
0.0
 40
4.5
  1
22,25
100
AcDbText
  0
ENDBLK
  5
848
100
AcDbEntity
  8
0
100
AcDbBlockEnd
  0
BLOCK
  5
84B
100
AcDbEntity
  8
0
100
AcDbBlockBegin
  2
*B219
 70
     0
 10
0.0
 20
0.0
 30
0.0
  3
*B219
  1

  0
TEXT
  5
84C
100
AcDbEntity
  8
TEXT
  6
Continuous
 62
     0
100
AcDbText
 10
263.678506
 20
228.25
 30
0.0
 40
4.5
  1
22,25
100
AcDbText
  0
ENDBLK
  5
84D
100
AcDbEntity
  8
0
100
AcDbBlockEnd
  0
BLOCK
  5
850
100
AcDbEntity
  8
0
100
AcDbBlockBegin
  2
*B220
 70
     0
 10
0.0
 20
0.0
 30
0.0
  3
*B220
  1

  0
TEXT
  5
851
100
AcDbEntity
  8
TEXT
  6
Continuous
 62
     0
100
AcDbText
 10
308.178506
 20
228.25
 30
0.0
 40
4.5
  1
22,25
100
AcDbText
  0
ENDBLK
  5
852
100
AcDbEntity
  8
0
100
AcDbBlockEnd
  0
BLOCK
  5
855
100
AcDbEntity
  8
0
100
AcDbBlockBegin
  2
*B221
 70
     0
 10
0.0
 20
0.0
 30
0.0
  3
*B221
  1

  0
TEXT
  5
856
100
AcDbEntity
  8
TEXT
  6
Continuous
 62
     0
100
AcDbText
 10
352.678506
 20
228.25
 30
0.0
 40
4.5
  1
22,25
100
AcDbText
  0
ENDBLK
  5
857
100
AcDbEntity
  8
0
100
AcDbBlockEnd
  0
BLOCK
  5
85A
100
AcDbEntity
  8
0
100
AcDbBlockBegin
  2
*B222
 70
     0
 10
0.0
 20
0.0
 30
0.0
  3
*B222
  1

  0
TEXT
  5
85B
100
AcDbEntity
  8
TEXT
  6
Continuous
 62
     0
100
AcDbText
 10
407.678506
 20
228.25
 30
0.0
 40
4.5
  1
32,75
100
AcDbText
  0
ENDBLK
  5
85C
100
AcDbEntity
  8
0
100
AcDbBlockEnd
  0
BLOCK
  5
85F
100
AcDbEntity
  8
0
100
AcDbBlockBegin
  2
*B223
 70
     0
 10
0.0
 20
0.0
 30
0.0
  3
*B223
  1

  0
TEXT
  5
860
100
AcDbEntity
  8
TEXT
  6
Continuous
 62
     0
100
AcDbText
 10
213.285649
 20
248.25
 30
0.0
 40
4.5
  1
11
100
AcDbText
  0
ENDBLK
  5
861
100
AcDbEntity
  8
0
100
AcDbBlockEnd
  0
BLOCK
  5
864
100
AcDbEntity
  8
0
100
AcDbBlockBegin
  2
*B224
 70
     0
 10
0.0
 20
0.0
 30
0.0
  3
*B224
  1

  0
TEXT
  5
865
100
AcDbEntity
  8
TEXT
  6
Continuous
 62
     0
100
AcDbText
 10
317.965766
 20
248.25
 30
0.0
 40
4.5
  1
G 1/4"
100
AcDbText
  0
ENDBLK
  5
866
100
AcDbEntity
  8
0
100
AcDbBlockEnd
  0
BLOCK
  5
869
100
AcDbEntity
  8
0
100
AcDbBlockBegin
  2
*B225
 70
     0
 10
0.0
 20
0.0
 30
0.0
  3
*B225
  1

  0
TEXT
  5
86A
100
AcDbEntity
  8
TEXT
  6
Continuous
 62
     0
100
AcDbText
 10
166.928506
 20
25.111584
 30
0.0
 40
4.5
  1
6
100
AcDbText
  0
ENDBLK
  5
86B
100
AcDbEntity
  8
0
100
AcDbBlockEnd
  0
BLOCK
  5
86E
100
AcDbEntity
  8
0
100
AcDbBlockBegin
  2
*B226
 70
     0
 10
0.0
 20
0.0
 30
0.0
  3
*B226
  1

  0
TEXT
  5
86F
100
AcDbEntity
  8
TEXT
  6
Continuous
 62
     0
100
AcDbText
 10
441.928506
 20
25.111584
 30
0.0
 40
4.5
  1
6
100
AcDbText
  0
ENDBLK
  5
870
100
AcDbEntity
  8
0
100
AcDbBlockEnd
  0
BLOCK
  5
873
100
AcDbEntity
  8
0
100
AcDbBlockBegin
  2
*B227
 70
     0
 10
0.0
 20
0.0
 30
0.0
  3
*B227
  1

  0
TEXT
  5
874
100
AcDbEntity
  8
TEXT
  6
Continuous
 62
     0
100
AcDbText
 10
103.25
 20
375.348132
 30
0.0
 40
4.5
  1
22
 50
90.0
100
AcDbText
  0
ENDBLK
  5
875
100
AcDbEntity
  8
0
100
AcDbBlockEnd
  0
BLOCK
  5
878
100
AcDbEntity
  8
0
100
AcDbBlockBegin
  2
*B228
 70
     0
 10
0.0
 20
0.0
 30
0.0
  3
*B228
  1

  0
TEXT
  5
879
100
AcDbEntity
  8
TEXT
  6
Continuous
 62
     0
100
AcDbText
 10
105.179065
 20
110.310162
 30
0.0
 40
4.5
  1
70
 50
90.0
100
AcDbText
  0
ENDBLK
  5
87A
100
AcDbEntity
  8
0
100
AcDbBlockEnd
  0
BLOCK
  5
87D
100
AcDbEntity
  8
0
100
AcDbBlockBegin
  2
*B229
 70
     0
 10
0.0
 20
0.0
 30
0.0
  3
*B229
  1

  0
TEXT
  5
87E
100
AcDbEntity
  8
TEXT
  6
Continuous
 62
     0
100
AcDbText
 10
237.75
 20
110.310162
 30
0.0
 40
4.5
  1
30
 50
90.0
100
AcDbText
  0
ENDBLK
  5
87F
100
AcDbEntity
  8
0
100
AcDbBlockEnd
  0
BLOCK
  5
882
100
AcDbEntity
  8
0
100
AcDbBlockBegin
  2
*B230
 70
     0
 10
0.0
 20
0.0
 30
0.0
  3
*B230
  1

  0
TEXT
  5
883
100
AcDbEntity
  8
TEXT
  6
Continuous
 62
     0
100
AcDbText
 10
485.179065
 20
110.310162
 30
0.0
 40
4.5
  1
44
 50
90.0
100
AcDbText
  0
ENDBLK
  5
884
100
AcDbEntity
  8
0
100
AcDbBlockEnd
  0
BLOCK
  5
887
100
AcDbEntity
  8
0
100
AcDbBlockBegin
  2
*B231
 70
     0
 10
0.0
 20
0.0
 30
0.0
  3
*B231
  1

  0
TEXT
  5
888
100
AcDbEntity
  8
TEXT
  6
Continuous
 62
     0
100
AcDbText
 10
327.179065
 20
110.310162
 30
0.0
 40
4.5
  1
22
 50
90.0
100
AcDbText
  0
ENDBLK
  5
889
100
AcDbEntity
  8
0
100
AcDbBlockEnd
  0
BLOCK
  5
88C
100
AcDbEntity
  8
0
100
AcDbBlockBegin
  2
*B232
 70
     0
 10
0.0
 20
0.0
 30
0.0
  3
*B232
  1

  0
TEXT
  5
88D
100
AcDbEntity
  8
TEXT
  6
Continuous
 62
     0
100
AcDbText
 10
210.071363
 20
25.25
 30
0.0
 40
4.5
  1
16,5
100
AcDbText
  0
ENDBLK
  5
88E
100
AcDbEntity
  8
0
100
AcDbBlockEnd
  0
BLOCK
  5
891
100
AcDbEntity
  8
0
100
AcDbBlockBegin
  2
*B233
 70
     0
 10
0.0
 20
0.0
 30
0.0
  3
*B233
  1

  0
TEXT
  5
892
100
AcDbEntity
  8
TEXT
  6
Continuous
 62
     0
100
AcDbText
 10
143.179065
 20
51.310162
 30
0.0
 40
4.5
  1
11
 50
90.0
100
AcDbText
  0
ENDBLK
  5
893
100
AcDbEntity
  8
0
100
AcDbBlockEnd
  0
BLOCK
  5
896
100
AcDbEntity
  8
0
100
AcDbBlockBegin
  2
*B234
 70
     0
 10
0.0
 20
0.0
 30
0.0
  3
*B234
  1

  0
TEXT
  5
897
100
AcDbEntity
  8
TEXT
  6
Continuous
 62
     0
100
AcDbText
 10
274.678506
 20
205.111584
 30
0.0
 40
4.5
  1
22,25
100
AcDbText
  0
ENDBLK
  5
898
100
AcDbEntity
  8
0
100
AcDbBlockEnd
  0
BLOCK
  5
89B
100
AcDbEntity
  8
0
100
AcDbBlockBegin
  2
*B235
 70
     0
 10
0.0
 20
0.0
 30
0.0
  3
*B235
  1

  0
TEXT
  5
89C
100
AcDbEntity
  8
TEXT
  6
Continuous
 62
     0
100
AcDbText
 10
319.178506
 20
205.111584
 30
0.0
 40
4.5
  1
22,25
100
AcDbText
  0
ENDBLK
  5
89D
100
AcDbEntity
  8
0
100
AcDbBlockEnd
  0
BLOCK
  5
8A0
100
AcDbEntity
  8
0
100
AcDbBlockBegin
  2
*B236
 70
     0
 10
0.0
 20
0.0
 30
0.0
  3
*B236
  1

  0
TEXT
  5
8A1
100
AcDbEntity
  8
TEXT
  6
Continuous
 62
     0
100
AcDbText
 10
143.179065
 20
86.310162
 30
0.0
 40
4.5
  1
24
 50
90.0
100
AcDbText
  0
ENDBLK
  5
8A2
100
AcDbEntity
  8
0
100
AcDbBlockEnd
  0
BLOCK
  5
8A5
100
AcDbEntity
  8
0
100
AcDbBlockBegin
  2
*B237
 70
     0
 10
0.0
 20
0.0
 30
0.0
  3
*B237
  1

  0
TEXT
  5
8A6
100
AcDbEntity
  8
TEXT
  6
Continuous
 62
     0
100
AcDbText
 10
272.071922
 20
25.388416
 30
0.0
 40
4.5
  1
4,5
100
AcDbText
  0
ENDBLK
  5
8A7
100
AcDbEntity
  8
0
100
AcDbBlockEnd
  0
BLOCK
  5
8AA
100
AcDbEntity
  8
0
100
AcDbBlockBegin
  2
*B238
 70
     0
 10
0.0
 20
0.0
 30
0.0
  3
*B238
  1

  0
TEXT
  5
8AB
100
AcDbEntity
  8
TEXT
  6
Continuous
 62
     0
100
AcDbText
 10
467.179065
 20
110.310162
 30
0.0
 40
4.5
  1
24
 50
90.0
100
AcDbText
  0
ENDBLK
  5
8AC
100
AcDbEntity
  8
0
100
AcDbBlockEnd
  0
BLOCK
  5
8AF
100
AcDbEntity
  8
0
100
AcDbBlockBegin
  2
*B239
 70
     0
 10
0.0
 20
0.0
 30
0.0
  3
*B239
  1

  0
TEXT
  5
8B0
100
AcDbEntity
  8
TEXT
  6
Continuous
 62
     0
100
AcDbText
 10
413.178506
 20
205.111584
 30
0.0
 40
4.5
  1
27,25
100
AcDbText
  0
ENDBLK
  5
8B1
100
AcDbEntity
  8
0
100
AcDbBlockEnd
  0
BLOCK
  5
8B4
100
AcDbEntity
  8
0
100
AcDbBlockBegin
  2
*B240
 70
     0
 10
0.0
 20
0.0
 30
0.0
  3
*B240
  1

  0
TEXT
  5
8B5
100
AcDbEntity
  8
TEXT
  6
Continuous
 62
     0
100
AcDbText
 10
363.678506
 20
205.111584
 30
0.0
 40
4.5
  1
22,25
100
AcDbText
  0
ENDBLK
  5
8B6
100
AcDbEntity
  8
0
100
AcDbBlockEnd
  0
BLOCK
  5
8B9
100
AcDbEntity
  8
0
100
AcDbBlockBegin
  2
*B241
 70
     0
 10
0.0
 20
0.0
 30
0.0
  3
*B241
  1

  0
TEXT
  5
8BA
100
AcDbEntity
  8
TEXT
  6
Continuous
 62
     0
100
AcDbText
 10
143.179065
 20
134.310162
 30
0.0
 40
4.5
  1
24
 50
90.0
100
AcDbText
  0
ENDBLK
  5
8BB
100
AcDbEntity
  8
0
100
AcDbBlockEnd
  0
BLOCK
  5
8BE
100
AcDbEntity
  8
0
100
AcDbBlockBegin
  2
*B242
 70
     0
 10
0.0
 20
0.0
 30
0.0
  3
*B242
  1

  0
TEXT
  5
8BF
100
AcDbEntity
  8
TEXT
  6
Continuous
 62
     0
100
AcDbText
 10
326.071922
 20
25.388416
 30
0.0
 40
4.5
  1
4,5
100
AcDbText
  0
ENDBLK
  5
8C0
100
AcDbEntity
  8
0
100
AcDbBlockEnd
  0
BLOCK
  5
8C3
100
AcDbEntity
  8
0
100
AcDbBlockBegin
  2
*B243
 70
     0
 10
0.0
 20
0.0
 30
0.0
  3
*B243
  1

  0
TEXT
  5
8C4
100
AcDbEntity
  8
TEXT
  6
Continuous
 62
     0
100
AcDbText
 10
180.678506
 20
205.111584
 30
0.0
 40
4.5
  1
27,25
100
AcDbText
  0
ENDBLK
  5
8C5
100
AcDbEntity
  8
0
100
AcDbBlockEnd
  0
BLOCK
  5
8C8
100
AcDbEntity
  8
0
100
AcDbBlockBegin
  2
*B244
 70
     0
 10
0.0
 20
0.0
 30
0.0
  3
*B244
  1

  0
TEXT
  5
8C9
100
AcDbEntity
  8
TEXT
  6
Continuous
 62
     0
100
AcDbText
 10
230.178506
 20
205.111584
 30
0.0
 40
4.5
  1
22,25
100
AcDbText
  0
ENDBLK
  5
8CA
100
AcDbEntity
  8
0
100
AcDbBlockEnd
  0
BLOCK
  5
8CD
100
AcDbEntity
  8
0
100
AcDbBlockBegin
  2
*B245
 70
     0
 10
0.0
 20
0.0
 30
0.0
  3
*B245
  1

  0
TEXT
  5
8CE
100
AcDbEntity
  8
TEXT
  6
Continuous
 62
     0
100
AcDbText
 10
125.179065
 20
102.274448
 30
0.0
 40
4.5
  1
G 3/8"
 50
90.0
100
AcDbText
  0
ENDBLK
  5
8CF
100
AcDbEntity
  8
0
100
AcDbBlockEnd
  0
BLOCK
  5
8D2
100
AcDbEntity
  8
0
100
AcDbBlockBegin
  2
*B246
 70
     0
 10
0.0
 20
0.0
 30
0.0
  3
*B246
  1

  0
TEXT
  5
8D3
100
AcDbEntity
  8
TEXT
  6
Continuous
 62
     0
100
AcDbText
 10
404.707143
 20
25.388416
 30
0.0
 40
4.5
  1
%%c7
100
AcDbText
  0
ENDBLK
  5
8D4
100
AcDbEntity
  8
0
100
AcDbBlockEnd
  0
ENDSEC
  0
SECTION
  2
ENTITIES
  0
INSERT
  5
156
100
AcDbEntity
  8
0
  6
HIDDEN
 62
   174
100
AcDbBlockReference
  2
*B2
 10
0.0
 20
0.0
 30
0.0
  0
INSERT
  5
1AE
100
AcDbEntity
  8
0
  6
Continuous
 62
   174
100
AcDbBlockReference
  2
*B3
 10
0.0
 20
0.0
 30
0.0
  0
INSERT
  5
1C6
100
AcDbEntity
  8
0
  6
HIDDEN
 62
   172
100
AcDbBlockReference
  2
*B4
 10
0.0
 20
0.0
 30
0.0
  0
INSERT
  5
1CD
100
AcDbEntity
  8
0
  6
Continuous
 62
     0
100
AcDbBlockReference
  2
*B5
 10
0.0
 20
0.0
 30
0.0
  0
INSERT
  5
1D4
100
AcDbEntity
  8
0
  6
Continuous
 62
     0
100
AcDbBlockReference
  2
*B6
 10
0.0
 20
0.0
 30
0.0
  0
INSERT
  5
1DB
100
AcDbEntity
  8
0
  6
Continuous
 62
     0
100
AcDbBlockReference
  2
*B7
 10
0.0
 20
0.0
 30
0.0
  0
INSERT
  5
1E2
100
AcDbEntity
  8
0
  6
Continuous
 62
     0
100
AcDbBlockReference
  2
*B8
 10
0.0
 20
0.0
 30
0.0
  0
INSERT
  5
1E9
100
AcDbEntity
  8
0
  6
Continuous
 62
     0
100
AcDbBlockReference
  2
*B9
 10
0.0
 20
0.0
 30
0.0
  0
INSERT
  5
1F0
100
AcDbEntity
  8
0
  6
Continuous
 62
     0
100
AcDbBlockReference
  2
*B10
 10
0.0
 20
0.0
 30
0.0
  0
INSERT
  5
1F7
100
AcDbEntity
  8
0
  6
Continuous
 62
     0
100
AcDbBlockReference
  2
*B11
 10
0.0
 20
0.0
 30
0.0
  0
INSERT
  5
1FE
100
AcDbEntity
  8
0
  6
Continuous
 62
     0
100
AcDbBlockReference
  2
*B12
 10
0.0
 20
0.0
 30
0.0
  0
INSERT
  5
205
100
AcDbEntity
  8
0
  6
Continuous
 62
     0
100
AcDbBlockReference
  2
*B13
 10
0.0
 20
0.0
 30
0.0
  0
INSERT
  5
20C
100
AcDbEntity
  8
0
  6
Continuous
 62
     0
100
AcDbBlockReference
  2
*B14
 10
0.0
 20
0.0
 30
0.0
  0
INSERT
  5
213
100
AcDbEntity
  8
0
  6
Continuous
 62
     0
100
AcDbBlockReference
  2
*B15
 10
0.0
 20
0.0
 30
0.0
  0
INSERT
  5
21A
100
AcDbEntity
  8
0
  6
Continuous
 62
     0
100
AcDbBlockReference
  2
*B16
 10
0.0
 20
0.0
 30
0.0
  0
INSERT
  5
221
100
AcDbEntity
  8
0
  6
Continuous
 62
     0
100
AcDbBlockReference
  2
*B17
 10
0.0
 20
0.0
 30
0.0
  0
INSERT
  5
228
100
AcDbEntity
  8
0
  6
Continuous
 62
     0
100
AcDbBlockReference
  2
*B18
 10
0.0
 20
0.0
 30
0.0
  0
INSERT
  5
22F
100
AcDbEntity
  8
0
  6
Continuous
 62
     0
100
AcDbBlockReference
  2
*B19
 10
0.0
 20
0.0
 30
0.0
  0
INSERT
  5
236
100
AcDbEntity
  8
0
  6
Continuous
 62
     0
100
AcDbBlockReference
  2
*B20
 10
0.0
 20
0.0
 30
0.0
  0
INSERT
  5
23D
100
AcDbEntity
  8
0
  6
Continuous
 62
     0
100
AcDbBlockReference
  2
*B21
 10
0.0
 20
0.0
 30
0.0
  0
INSERT
  5
244
100
AcDbEntity
  8
0
  6
Continuous
 62
     0
100
AcDbBlockReference
  2
*B22
 10
0.0
 20
0.0
 30
0.0
  0
INSERT
  5
24B
100
AcDbEntity
  8
0
  6
Continuous
 62
     0
100
AcDbBlockReference
  2
*B23
 10
0.0
 20
0.0
 30
0.0
  0
INSERT
  5
252
100
AcDbEntity
  8
0
  6
Continuous
 62
     0
100
AcDbBlockReference
  2
*B24
 10
0.0
 20
0.0
 30
0.0
  0
INSERT
  5
259
100
AcDbEntity
  8
0
  6
Continuous
 62
     0
100
AcDbBlockReference
  2
*B25
 10
0.0
 20
0.0
 30
0.0
  0
INSERT
  5
260
100
AcDbEntity
  8
0
  6
Continuous
 62
     0
100
AcDbBlockReference
  2
*B26
 10
0.0
 20
0.0
 30
0.0
  0
INSERT
  5
267
100
AcDbEntity
  8
0
  6
Continuous
 62
     0
100
AcDbBlockReference
  2
*B27
 10
0.0
 20
0.0
 30
0.0
  0
INSERT
  5
26E
100
AcDbEntity
  8
0
  6
Continuous
 62
     0
100
AcDbBlockReference
  2
*B28
 10
0.0
 20
0.0
 30
0.0
  0
INSERT
  5
275
100
AcDbEntity
  8
0
  6
Continuous
 62
     0
100
AcDbBlockReference
  2
*B29
 10
0.0
 20
0.0
 30
0.0
  0
INSERT
  5
27C
100
AcDbEntity
  8
0
  6
Continuous
 62
     0
100
AcDbBlockReference
  2
*B30
 10
0.0
 20
0.0
 30
0.0
  0
INSERT
  5
283
100
AcDbEntity
  8
0
  6
Continuous
 62
     0
100
AcDbBlockReference
  2
*B31
 10
0.0
 20
0.0
 30
0.0
  0
INSERT
  5
28A
100
AcDbEntity
  8
0
  6
Continuous
 62
     0
100
AcDbBlockReference
  2
*B32
 10
0.0
 20
0.0
 30
0.0
  0
INSERT
  5
291
100
AcDbEntity
  8
0
  6
Continuous
 62
     0
100
AcDbBlockReference
  2
*B33
 10
0.0
 20
0.0
 30
0.0
  0
INSERT
  5
298
100
AcDbEntity
  8
0
  6
Continuous
 62
     0
100
AcDbBlockReference
  2
*B34
 10
0.0
 20
0.0
 30
0.0
  0
INSERT
  5
29F
100
AcDbEntity
  8
0
  6
Continuous
 62
     0
100
AcDbBlockReference
  2
*B35
 10
0.0
 20
0.0
 30
0.0
  0
INSERT
  5
2A6
100
AcDbEntity
  8
0
  6
Continuous
 62
     0
100
AcDbBlockReference
  2
*B36
 10
0.0
 20
0.0
 30
0.0
  0
INSERT
  5
2AD
100
AcDbEntity
  8
0
  6
Continuous
 62
     0
100
AcDbBlockReference
  2
*B37
 10
0.0
 20
0.0
 30
0.0
  0
INSERT
  5
2B3
100
AcDbEntity
  8
0
  6
Continuous
 62
     8
100
AcDbBlockReference
  2
*B38
 10
0.0
 20
0.0
 30
0.0
  0
INSERT
  5
2C0
100
AcDbEntity
  8
0
  6
Continuous
 62
     8
100
AcDbBlockReference
  2
*B39
 10
0.0
 20
0.0
 30
0.0
  0
INSERT
  5
2C6
100
AcDbEntity
  8
0
  6
Continuous
 62
     8
100
AcDbBlockReference
  2
*B40
 10
0.0
 20
0.0
 30
0.0
  0
INSERT
  5
2CC
100
AcDbEntity
  8
0
  6
Continuous
 62
     8
100
AcDbBlockReference
  2
*B41
 10
0.0
 20
0.0
 30
0.0
  0
INSERT
  5
2D2
100
AcDbEntity
  8
0
  6
Continuous
 62
     8
100
AcDbBlockReference
  2
*B42
 10
0.0
 20
0.0
 30
0.0
  0
INSERT
  5
2D8
100
AcDbEntity
  8
0
  6
Continuous
 62
     8
100
AcDbBlockReference
  2
*B43
 10
0.0
 20
0.0
 30
0.0
  0
INSERT
  5
2E9
100
AcDbEntity
  8
0
  6
Continuous
 62
     8
100
AcDbBlockReference
  2
*B44
 10
0.0
 20
0.0
 30
0.0
  0
INSERT
  5
2EE
100
AcDbEntity
  8
0
  6
Continuous
 62
     8
100
AcDbBlockReference
  2
*B45
 10
0.0
 20
0.0
 30
0.0
  0
INSERT
  5
2F3
100
AcDbEntity
  8
0
  6
Continuous
 62
     8
100
AcDbBlockReference
  2
*B46
 10
0.0
 20
0.0
 30
0.0
  0
INSERT
  5
2F8
100
AcDbEntity
  8
0
  6
Continuous
 62
     8
100
AcDbBlockReference
  2
*B47
 10
0.0
 20
0.0
 30
0.0
  0
INSERT
  5
2FD
100
AcDbEntity
  8
0
  6
Continuous
 62
     8
100
AcDbBlockReference
  2
*B48
 10
0.0
 20
0.0
 30
0.0
  0
INSERT
  5
303
100
AcDbEntity
  8
0
  6
Continuous
 62
     8
100
AcDbBlockReference
  2
*B49
 10
0.0
 20
0.0
 30
0.0
  0
INSERT
  5
309
100
AcDbEntity
  8
0
  6
Continuous
 62
     8
100
AcDbBlockReference
  2
*B50
 10
0.0
 20
0.0
 30
0.0
  0
INSERT
  5
30E
100
AcDbEntity
  8
0
  6
Continuous
 62
     8
100
AcDbBlockReference
  2
*B51
 10
0.0
 20
0.0
 30
0.0
  0
INSERT
  5
317
100
AcDbEntity
  8
0
  6
Continuous
 62
     8
100
AcDbBlockReference
  2
*B52
 10
0.0
 20
0.0
 30
0.0
  0
INSERT
  5
31D
100
AcDbEntity
  8
0
  6
Continuous
 62
     8
100
AcDbBlockReference
  2
*B53
 10
0.0
 20
0.0
 30
0.0
  0
INSERT
  5
323
100
AcDbEntity
  8
0
  6
Continuous
 62
     8
100
AcDbBlockReference
  2
*B54
 10
0.0
 20
0.0
 30
0.0
  0
INSERT
  5
329
100
AcDbEntity
  8
0
  6
Continuous
 62
     8
100
AcDbBlockReference
  2
*B55
 10
0.0
 20
0.0
 30
0.0
  0
INSERT
  5
32F
100
AcDbEntity
  8
0
  6
Continuous
 62
     8
100
AcDbBlockReference
  2
*B56
 10
0.0
 20
0.0
 30
0.0
  0
INSERT
  5
335
100
AcDbEntity
  8
0
  6
Continuous
 62
     8
100
AcDbBlockReference
  2
*B57
 10
0.0
 20
0.0
 30
0.0
  0
INSERT
  5
33B
100
AcDbEntity
  8
0
  6
Continuous
 62
     8
100
AcDbBlockReference
  2
*B58
 10
0.0
 20
0.0
 30
0.0
  0
INSERT
  5
344
100
AcDbEntity
  8
0
  6
Continuous
 62
     8
100
AcDbBlockReference
  2
*B59
 10
0.0
 20
0.0
 30
0.0
  0
INSERT
  5
34B
100
AcDbEntity
  8
0
  6
Continuous
 62
     8
100
AcDbBlockReference
  2
*B60
 10
0.0
 20
0.0
 30
0.0
  0
INSERT
  5
351
100
AcDbEntity
  8
0
  6
Continuous
 62
     8
100
AcDbBlockReference
  2
*B61
 10
0.0
 20
0.0
 30
0.0
  0
INSERT
  5
357
100
AcDbEntity
  8
0
  6
Continuous
 62
     8
100
AcDbBlockReference
  2
*B62
 10
0.0
 20
0.0
 30
0.0
  0
INSERT
  5
35D
100
AcDbEntity
  8
0
  6
Continuous
 62
     8
100
AcDbBlockReference
  2
*B63
 10
0.0
 20
0.0
 30
0.0
  0
INSERT
  5
363
100
AcDbEntity
  8
0
  6
Continuous
 62
     8
100
AcDbBlockReference
  2
*B64
 10
0.0
 20
0.0
 30
0.0
  0
INSERT
  5
369
100
AcDbEntity
  8
0
  6
Continuous
 62
     8
100
AcDbBlockReference
  2
*B65
 10
0.0
 20
0.0
 30
0.0
  0
INSERT
  5
36F
100
AcDbEntity
  8
0
  6
Continuous
 62
     8
100
AcDbBlockReference
  2
*B66
 10
0.0
 20
0.0
 30
0.0
  0
INSERT
  5
375
100
AcDbEntity
  8
0
  6
Continuous
 62
     8
100
AcDbBlockReference
  2
*B67
 10
0.0
 20
0.0
 30
0.0
  0
INSERT
  5
382
100
AcDbEntity
  8
0
  6
Continuous
 62
     8
100
AcDbBlockReference
  2
*B68
 10
0.0
 20
0.0
 30
0.0
  0
INSERT
  5
393
100
AcDbEntity
  8
0
  6
Continuous
 62
     8
100
AcDbBlockReference
  2
*B69
 10
0.0
 20
0.0
 30
0.0
  0
INSERT
  5
399
100
AcDbEntity
  8
0
  6
Continuous
 62
     8
100
AcDbBlockReference
  2
*B70
 10
0.0
 20
0.0
 30
0.0
  0
INSERT
  5
39F
100
AcDbEntity
  8
0
  6
Continuous
 62
     8
100
AcDbBlockReference
  2
*B71
 10
0.0
 20
0.0
 30
0.0
  0
INSERT
  5
3A5
100
AcDbEntity
  8
0
  6
Continuous
 62
     8
100
AcDbBlockReference
  2
*B72
 10
0.0
 20
0.0
 30
0.0
  0
INSERT
  5
3AA
100
AcDbEntity
  8
0
  6
Continuous
 62
     8
100
AcDbBlockReference
  2
*B73
 10
0.0
 20
0.0
 30
0.0
  0
INSERT
  5
3B0
100
AcDbEntity
  8
0
  6
Continuous
 62
     8
100
AcDbBlockReference
  2
*B74
 10
0.0
 20
0.0
 30
0.0
  0
INSERT
  5
3B9
100
AcDbEntity
  8
0
  6
Continuous
 62
     8
100
AcDbBlockReference
  2
*B75
 10
0.0
 20
0.0
 30
0.0
  0
INSERT
  5
3CA
100
AcDbEntity
  8
0
  6
Continuous
 62
     8
100
AcDbBlockReference
  2
*B76
 10
0.0
 20
0.0
 30
0.0
  0
INSERT
  5
3D0
100
AcDbEntity
  8
0
  6
Continuous
 62
     8
100
AcDbBlockReference
  2
*B77
 10
0.0
 20
0.0
 30
0.0
  0
INSERT
  5
3D6
100
AcDbEntity
  8
0
  6
Continuous
 62
     8
100
AcDbBlockReference
  2
*B78
 10
0.0
 20
0.0
 30
0.0
  0
INSERT
  5
3DC
100
AcDbEntity
  8
0
  6
Continuous
 62
     8
100
AcDbBlockReference
  2
*B79
 10
0.0
 20
0.0
 30
0.0
  0
INSERT
  5
3E2
100
AcDbEntity
  8
0
  6
Continuous
 62
     8
100
AcDbBlockReference
  2
*B80
 10
0.0
 20
0.0
 30
0.0
  0
INSERT
  5
3EF
100
AcDbEntity
  8
0
  6
Continuous
 62
     8
100
AcDbBlockReference
  2
*B81
 10
0.0
 20
0.0
 30
0.0
  0
INSERT
  5
3FA
100
AcDbEntity
  8
0
  6
Continuous
 62
     8
100
AcDbBlockReference
  2
*B82
 10
0.0
 20
0.0
 30
0.0
  0
INSERT
  5
405
100
AcDbEntity
  8
0
  6
Continuous
 62
     8
100
AcDbBlockReference
  2
*B83
 10
0.0
 20
0.0
 30
0.0
  0
INSERT
  5
40B
100
AcDbEntity
  8
0
  6
Continuous
 62
     8
100
AcDbBlockReference
  2
*B84
 10
0.0
 20
0.0
 30
0.0
  0
INSERT
  5
41C
100
AcDbEntity
  8
0
  6
Continuous
 62
     8
100
AcDbBlockReference
  2
*B85
 10
0.0
 20
0.0
 30
0.0
  0
INSERT
  5
42D
100
AcDbEntity
  8
0
  6
Continuous
 62
     8
100
AcDbBlockReference
  2
*B86
 10
0.0
 20
0.0
 30
0.0
  0
INSERT
  5
433
100
AcDbEntity
  8
0
  6
Continuous
 62
     8
100
AcDbBlockReference
  2
*B87
 10
0.0
 20
0.0
 30
0.0
  0
INSERT
  5
439
100
AcDbEntity
  8
0
  6
Continuous
 62
     8
100
AcDbBlockReference
  2
*B88
 10
0.0
 20
0.0
 30
0.0
  0
INSERT
  5
43F
100
AcDbEntity
  8
0
  6
Continuous
 62
     8
100
AcDbBlockReference
  2
*B89
 10
0.0
 20
0.0
 30
0.0
  0
INSERT
  5
445
100
AcDbEntity
  8
0
  6
Continuous
 62
     8
100
AcDbBlockReference
  2
*B90
 10
0.0
 20
0.0
 30
0.0
  0
INSERT
  5
44E
100
AcDbEntity
  8
0
  6
Continuous
 62
     8
100
AcDbBlockReference
  2
*B91
 10
0.0
 20
0.0
 30
0.0
  0
INSERT
  5
453
100
AcDbEntity
  8
0
  6
Continuous
 62
     8
100
AcDbBlockReference
  2
*B92
 10
0.0
 20
0.0
 30
0.0
  0
INSERT
  5
459
100
AcDbEntity
  8
0
  6
Continuous
 62
     8
100
AcDbBlockReference
  2
*B93
 10
0.0
 20
0.0
 30
0.0
  0
INSERT
  5
45F
100
AcDbEntity
  8
0
  6
Continuous
 62
     8
100
AcDbBlockReference
  2
*B94
 10
0.0
 20
0.0
 30
0.0
  0
INSERT
  5
465
100
AcDbEntity
  8
0
  6
Continuous
 62
     8
100
AcDbBlockReference
  2
*B95
 10
0.0
 20
0.0
 30
0.0
  0
INSERT
  5
472
100
AcDbEntity
  8
0
  6
Continuous
 62
     8
100
AcDbBlockReference
  2
*B96
 10
0.0
 20
0.0
 30
0.0
  0
INSERT
  5
478
100
AcDbEntity
  8
0
  6
Continuous
 62
     8
100
AcDbBlockReference
  2
*B97
 10
0.0
 20
0.0
 30
0.0
  0
INSERT
  5
47E
100
AcDbEntity
  8
0
  6
Continuous
 62
     8
100
AcDbBlockReference
  2
*B98
 10
0.0
 20
0.0
 30
0.0
  0
INSERT
  5
484
100
AcDbEntity
  8
0
  6
Continuous
 62
     8
100
AcDbBlockReference
  2
*B99
 10
0.0
 20
0.0
 30
0.0
  0
INSERT
  5
48F
100
AcDbEntity
  8
0
  6
Continuous
 62
     8
100
AcDbBlockReference
  2
*B100
 10
0.0
 20
0.0
 30
0.0
  0
INSERT
  5
49C
100
AcDbEntity
  8
0
  6
Continuous
 62
     8
100
AcDbBlockReference
  2
*B101
 10
0.0
 20
0.0
 30
0.0
  0
INSERT
  5
4A2
100
AcDbEntity
  8
0
  6
Continuous
 62
     8
100
AcDbBlockReference
  2
*B102
 10
0.0
 20
0.0
 30
0.0
  0
INSERT
  5
4A8
100
AcDbEntity
  8
0
  6
Continuous
 62
     8
100
AcDbBlockReference
  2
*B103
 10
0.0
 20
0.0
 30
0.0
  0
INSERT
  5
4AE
100
AcDbEntity
  8
0
  6
Continuous
 62
     8
100
AcDbBlockReference
  2
*B104
 10
0.0
 20
0.0
 30
0.0
  0
INSERT
  5
4B4
100
AcDbEntity
  8
0
  6
Continuous
 62
     8
100
AcDbBlockReference
  2
*B105
 10
0.0
 20
0.0
 30
0.0
  0
INSERT
  5
4B9
100
AcDbEntity
  8
0
  6
Continuous
 62
     8
100
AcDbBlockReference
  2
*B106
 10
0.0
 20
0.0
 30
0.0
  0
INSERT
  5
4BF
100
AcDbEntity
  8
0
  6
Continuous
 62
     8
100
AcDbBlockReference
  2
*B107
 10
0.0
 20
0.0
 30
0.0
  0
INSERT
  5
4C5
100
AcDbEntity
  8
0
  6
Continuous
 62
     8
100
AcDbBlockReference
  2
*B108
 10
0.0
 20
0.0
 30
0.0
  0
INSERT
  5
4CE
100
AcDbEntity
  8
0
  6
Continuous
 62
     8
100
AcDbBlockReference
  2
*B109
 10
0.0
 20
0.0
 30
0.0
  0
INSERT
  5
4D3
100
AcDbEntity
  8
0
  6
Continuous
 62
     8
100
AcDbBlockReference
  2
*B110
 10
0.0
 20
0.0
 30
0.0
  0
INSERT
  5
4D9
100
AcDbEntity
  8
0
  6
Continuous
 62
     8
100
AcDbBlockReference
  2
*B111
 10
0.0
 20
0.0
 30
0.0
  0
INSERT
  5
4DF
100
AcDbEntity
  8
0
  6
Continuous
 62
     8
100
AcDbBlockReference
  2
*B112
 10
0.0
 20
0.0
 30
0.0
  0
INSERT
  5
500
100
AcDbEntity
  8
0
  6
Continuous
 62
     8
100
AcDbBlockReference
  2
*B113
 10
0.0
 20
0.0
 30
0.0
  0
INSERT
  5
506
100
AcDbEntity
  8
0
  6
Continuous
 62
     8
100
AcDbBlockReference
  2
*B114
 10
0.0
 20
0.0
 30
0.0
  0
INSERT
  5
532
100
AcDbEntity
  8
0
  6
Continuous
 62
     8
100
AcDbBlockReference
  2
*B115
 10
0.0
 20
0.0
 30
0.0
  0
INSERT
  5
53F
100
AcDbEntity
  8
0
  6
Continuous
 62
     8
100
AcDbBlockReference
  2
*B116
 10
0.0
 20
0.0
 30
0.0
  0
INSERT
  5
562
100
AcDbEntity
  8
0
  6
Continuous
 62
     8
100
AcDbBlockReference
  2
*B117
 10
0.0
 20
0.0
 30
0.0
  0
INSERT
  5
568
100
AcDbEntity
  8
0
  6
Continuous
 62
     8
100
AcDbBlockReference
  2
*B118
 10
0.0
 20
0.0
 30
0.0
  0
INSERT
  5
571
100
AcDbEntity
  8
0
  6
Continuous
 62
     8
100
AcDbBlockReference
  2
*B119
 10
0.0
 20
0.0
 30
0.0
  0
INSERT
  5
577
100
AcDbEntity
  8
0
  6
Continuous
 62
     8
100
AcDbBlockReference
  2
*B120
 10
0.0
 20
0.0
 30
0.0
  0
INSERT
  5
57D
100
AcDbEntity
  8
0
  6
Continuous
 62
     8
100
AcDbBlockReference
  2
*B121
 10
0.0
 20
0.0
 30
0.0
  0
INSERT
  5
592
100
AcDbEntity
  8
0
  6
Continuous
 62
     8
100
AcDbBlockReference
  2
*B122
 10
0.0
 20
0.0
 30
0.0
  0
INSERT
  5
597
100
AcDbEntity
  8
0
  6
Continuous
 62
     8
100
AcDbBlockReference
  2
*B123
 10
0.0
 20
0.0
 30
0.0
  0
INSERT
  5
5A4
100
AcDbEntity
  8
0
  6
Continuous
 62
     8
100
AcDbBlockReference
  2
*B124
 10
0.0
 20
0.0
 30
0.0
  0
INSERT
  5
5AA
100
AcDbEntity
  8
0
  6
Continuous
 62
     8
100
AcDbBlockReference
  2
*B125
 10
0.0
 20
0.0
 30
0.0
  0
INSERT
  5
5AF
100
AcDbEntity
  8
0
  6
Continuous
 62
     8
100
AcDbBlockReference
  2
*B126
 10
0.0
 20
0.0
 30
0.0
  0
INSERT
  5
5B4
100
AcDbEntity
  8
0
  6
Continuous
 62
     8
100
AcDbBlockReference
  2
*B127
 10
0.0
 20
0.0
 30
0.0
  0
INSERT
  5
5BD
100
AcDbEntity
  8
0
  6
Continuous
 62
     8
100
AcDbBlockReference
  2
*B128
 10
0.0
 20
0.0
 30
0.0
  0
INSERT
  5
5CC
100
AcDbEntity
  8
0
  6
Continuous
 62
     8
100
AcDbBlockReference
  2
*B129
 10
0.0
 20
0.0
 30
0.0
  0
INSERT
  5
5D2
100
AcDbEntity
  8
0
  6
Continuous
 62
     8
100
AcDbBlockReference
  2
*B130
 10
0.0
 20
0.0
 30
0.0
  0
INSERT
  5
5D8
100
AcDbEntity
  8
0
  6
Continuous
 62
     8
100
AcDbBlockReference
  2
*B131
 10
0.0
 20
0.0
 30
0.0
  0
INSERT
  5
5E5
100
AcDbEntity
  8
0
  6
Continuous
 62
     8
100
AcDbBlockReference
  2
*B132
 10
0.0
 20
0.0
 30
0.0
  0
INSERT
  5
601
100
AcDbEntity
  8
0
  6
Continuous
 62
     8
100
AcDbBlockReference
  2
*B133
 10
0.0
 20
0.0
 30
0.0
  0
INSERT
  5
62D
100
AcDbEntity
  8
0
  6
Continuous
 62
     8
100
AcDbBlockReference
  2
*B134
 10
0.0
 20
0.0
 30
0.0
  0
INSERT
  5
636
100
AcDbEntity
  8
0
  6
Continuous
 62
     8
100
AcDbBlockReference
  2
*B135
 10
0.0
 20
0.0
 30
0.0
  0
INSERT
  5
63C
100
AcDbEntity
  8
0
  6
Continuous
 62
     8
100
AcDbBlockReference
  2
*B136
 10
0.0
 20
0.0
 30
0.0
  0
INSERT
  5
642
100
AcDbEntity
  8
0
  6
Continuous
 62
     8
100
AcDbBlockReference
  2
*B137
 10
0.0
 20
0.0
 30
0.0
  0
INSERT
  5
648
100
AcDbEntity
  8
0
  6
Continuous
 62
     8
100
AcDbBlockReference
  2
*B138
 10
0.0
 20
0.0
 30
0.0
  0
INSERT
  5
66F
100
AcDbEntity
  8
0
  6
Continuous
 62
     8
100
AcDbBlockReference
  2
*B139
 10
0.0
 20
0.0
 30
0.0
  0
INSERT
  5
68B
100
AcDbEntity
  8
0
  6
Continuous
 62
     8
100
AcDbBlockReference
  2
*B140
 10
0.0
 20
0.0
 30
0.0
  0
INSERT
  5
690
100
AcDbEntity
  8
0
  6
Continuous
 62
     8
100
AcDbBlockReference
  2
*B141
 10
0.0
 20
0.0
 30
0.0
  0
INSERT
  5
696
100
AcDbEntity
  8
0
  6
Continuous
 62
     8
100
AcDbBlockReference
  2
*B142
 10
0.0
 20
0.0
 30
0.0
  0
INSERT
  5
69C
100
AcDbEntity
  8
0
  6
Continuous
 62
     8
100
AcDbBlockReference
  2
*B143
 10
0.0
 20
0.0
 30
0.0
  0
INSERT
  5
6A2
100
AcDbEntity
  8
0
  6
Continuous
 62
     8
100
AcDbBlockReference
  2
*B144
 10
0.0
 20
0.0
 30
0.0
  0
INSERT
  5
6A8
100
AcDbEntity
  8
0
  6
Continuous
 62
     6
100
AcDbBlockReference
  2
*B145
 10
0.0
 20
0.0
 30
0.0
  0
INSERT
  5
6AE
100
AcDbEntity
  8
0
  6
Continuous
 62
     6
100
AcDbBlockReference
  2
*B146
 10
0.0
 20
0.0
 30
0.0
  0
INSERT
  5
6B4
100
AcDbEntity
  8
0
  6
Continuous
 62
     6
100
AcDbBlockReference
  2
*B147
 10
0.0
 20
0.0
 30
0.0
  0
INSERT
  5
6BA
100
AcDbEntity
  8
0
  6
Continuous
 62
     6
100
AcDbBlockReference
  2
*B148
 10
0.0
 20
0.0
 30
0.0
  0
INSERT
  5
6C0
100
AcDbEntity
  8
0
  6
Continuous
 62
     6
100
AcDbBlockReference
  2
*B149
 10
0.0
 20
0.0
 30
0.0
  0
INSERT
  5
6C6
100
AcDbEntity
  8
0
  6
Continuous
 62
     6
100
AcDbBlockReference
  2
*B150
 10
0.0
 20
0.0
 30
0.0
  0
INSERT
  5
6CC
100
AcDbEntity
  8
0
  6
Continuous
 62
     6
100
AcDbBlockReference
  2
*B151
 10
0.0
 20
0.0
 30
0.0
  0
INSERT
  5
6D2
100
AcDbEntity
  8
0
  6
Continuous
 62
     6
100
AcDbBlockReference
  2
*B152
 10
0.0
 20
0.0
 30
0.0
  0
INSERT
  5
6D8
100
AcDbEntity
  8
0
  6
Continuous
 62
     6
100
AcDbBlockReference
  2
*B153
 10
0.0
 20
0.0
 30
0.0
  0
INSERT
  5
6DE
100
AcDbEntity
  8
0
  6
Continuous
 62
     6
100
AcDbBlockReference
  2
*B154
 10
0.0
 20
0.0
 30
0.0
  0
INSERT
  5
6E4
100
AcDbEntity
  8
0
  6
Continuous
 62
     6
100
AcDbBlockReference
  2
*B155
 10
0.0
 20
0.0
 30
0.0
  0
INSERT
  5
6EA
100
AcDbEntity
  8
0
  6
Continuous
 62
     6
100
AcDbBlockReference
  2
*B156
 10
0.0
 20
0.0
 30
0.0
  0
INSERT
  5
6F0
100
AcDbEntity
  8
0
  6
Continuous
 62
     6
100
AcDbBlockReference
  2
*B157
 10
0.0
 20
0.0
 30
0.0
  0
INSERT
  5
6F6
100
AcDbEntity
  8
0
  6
Continuous
 62
     6
100
AcDbBlockReference
  2
*B158
 10
0.0
 20
0.0
 30
0.0
  0
INSERT
  5
6FC
100
AcDbEntity
  8
0
  6
Continuous
 62
     6
100
AcDbBlockReference
  2
*B159
 10
0.0
 20
0.0
 30
0.0
  0
INSERT
  5
702
100
AcDbEntity
  8
0
  6
Continuous
 62
     6
100
AcDbBlockReference
  2
*B160
 10
0.0
 20
0.0
 30
0.0
  0
INSERT
  5
708
100
AcDbEntity
  8
0
  6
Continuous
 62
     6
100
AcDbBlockReference
  2
*B161
 10
0.0
 20
0.0
 30
0.0
  0
INSERT
  5
70E
100
AcDbEntity
  8
0
  6
Continuous
 62
     6
100
AcDbBlockReference
  2
*B162
 10
0.0
 20
0.0
 30
0.0
  0
INSERT
  5
714
100
AcDbEntity
  8
0
  6
Continuous
 62
     6
100
AcDbBlockReference
  2
*B163
 10
0.0
 20
0.0
 30
0.0
  0
INSERT
  5
71A
100
AcDbEntity
  8
0
  6
Continuous
 62
     6
100
AcDbBlockReference
  2
*B164
 10
0.0
 20
0.0
 30
0.0
  0
INSERT
  5
720
100
AcDbEntity
  8
0
  6
Continuous
 62
     6
100
AcDbBlockReference
  2
*B165
 10
0.0
 20
0.0
 30
0.0
  0
INSERT
  5
726
100
AcDbEntity
  8
0
  6
Continuous
 62
     6
100
AcDbBlockReference
  2
*B166
 10
0.0
 20
0.0
 30
0.0
  0
INSERT
  5
72C
100
AcDbEntity
  8
0
  6
Continuous
 62
     6
100
AcDbBlockReference
  2
*B167
 10
0.0
 20
0.0
 30
0.0
  0
INSERT
  5
732
100
AcDbEntity
  8
0
  6
Continuous
 62
     6
100
AcDbBlockReference
  2
*B168
 10
0.0
 20
0.0
 30
0.0
  0
INSERT
  5
738
100
AcDbEntity
  8
0
  6
Continuous
 62
     6
100
AcDbBlockReference
  2
*B169
 10
0.0
 20
0.0
 30
0.0
  0
INSERT
  5
73E
100
AcDbEntity
  8
0
  6
Continuous
 62
     6
100
AcDbBlockReference
  2
*B170
 10
0.0
 20
0.0
 30
0.0
  0
INSERT
  5
744
100
AcDbEntity
  8
0
  6
Continuous
 62
     6
100
AcDbBlockReference
  2
*B171
 10
0.0
 20
0.0
 30
0.0
  0
INSERT
  5
74A
100
AcDbEntity
  8
0
  6
Continuous
 62
     6
100
AcDbBlockReference
  2
*B172
 10
0.0
 20
0.0
 30
0.0
  0
INSERT
  5
750
100
AcDbEntity
  8
0
  6
Continuous
 62
     6
100
AcDbBlockReference
  2
*B173
 10
0.0
 20
0.0
 30
0.0
  0
INSERT
  5
756
100
AcDbEntity
  8
0
  6
Continuous
 62
     6
100
AcDbBlockReference
  2
*B174
 10
0.0
 20
0.0
 30
0.0
  0
INSERT
  5
75C
100
AcDbEntity
  8
0
  6
Continuous
 62
     6
100
AcDbBlockReference
  2
*B175
 10
0.0
 20
0.0
 30
0.0
  0
INSERT
  5
762
100
AcDbEntity
  8
0
  6
Continuous
 62
     6
100
AcDbBlockReference
  2
*B176
 10
0.0
 20
0.0
 30
0.0
  0
INSERT
  5
768
100
AcDbEntity
  8
0
  6
Continuous
 62
     6
100
AcDbBlockReference
  2
*B177
 10
0.0
 20
0.0
 30
0.0
  0
INSERT
  5
76E
100
AcDbEntity
  8
0
  6
Continuous
 62
     6
100
AcDbBlockReference
  2
*B178
 10
0.0
 20
0.0
 30
0.0
  0
INSERT
  5
774
100
AcDbEntity
  8
0
  6
Continuous
 62
     6
100
AcDbBlockReference
  2
*B179
 10
0.0
 20
0.0
 30
0.0
  0
INSERT
  5
77A
100
AcDbEntity
  8
0
  6
Continuous
 62
     6
100
AcDbBlockReference
  2
*B180
 10
0.0
 20
0.0
 30
0.0
  0
INSERT
  5
780
100
AcDbEntity
  8
0
  6
Continuous
 62
     6
100
AcDbBlockReference
  2
*B181
 10
0.0
 20
0.0
 30
0.0
  0
INSERT
  5
786
100
AcDbEntity
  8
0
  6
Continuous
 62
     6
100
AcDbBlockReference
  2
*B182
 10
0.0
 20
0.0
 30
0.0
  0
INSERT
  5
78C
100
AcDbEntity
  8
0
  6
Continuous
 62
     6
100
AcDbBlockReference
  2
*B183
 10
0.0
 20
0.0
 30
0.0
  0
INSERT
  5
792
100
AcDbEntity
  8
0
  6
Continuous
 62
     6
100
AcDbBlockReference
  2
*B184
 10
0.0
 20
0.0
 30
0.0
  0
INSERT
  5
798
100
AcDbEntity
  8
0
  6
Continuous
 62
     6
100
AcDbBlockReference
  2
*B185
 10
0.0
 20
0.0
 30
0.0
  0
INSERT
  5
79E
100
AcDbEntity
  8
0
  6
Continuous
 62
     6
100
AcDbBlockReference
  2
*B186
 10
0.0
 20
0.0
 30
0.0
  0
INSERT
  5
7A4
100
AcDbEntity
  8
0
  6
Continuous
 62
     6
100
AcDbBlockReference
  2
*B187
 10
0.0
 20
0.0
 30
0.0
  0
INSERT
  5
7AA
100
AcDbEntity
  8
0
  6
Continuous
 62
     6
100
AcDbBlockReference
  2
*B188
 10
0.0
 20
0.0
 30
0.0
  0
INSERT
  5
7B0
100
AcDbEntity
  8
0
  6
Continuous
 62
     6
100
AcDbBlockReference
  2
*B189
 10
0.0
 20
0.0
 30
0.0
  0
INSERT
  5
7B6
100
AcDbEntity
  8
0
  6
Continuous
 62
     6
100
AcDbBlockReference
  2
*B190
 10
0.0
 20
0.0
 30
0.0
  0
INSERT
  5
7BC
100
AcDbEntity
  8
0
  6
Continuous
 62
     6
100
AcDbBlockReference
  2
*B191
 10
0.0
 20
0.0
 30
0.0
  0
INSERT
  5
7C2
100
AcDbEntity
  8
0
  6
Continuous
 62
     6
100
AcDbBlockReference
  2
*B192
 10
0.0
 20
0.0
 30
0.0
  0
INSERT
  5
7C8
100
AcDbEntity
  8
0
  6
Continuous
 62
     6
100
AcDbBlockReference
  2
*B193
 10
0.0
 20
0.0
 30
0.0
  0
INSERT
  5
7CF
100
AcDbEntity
  8
0
  6
Continuous
 62
     0
100
AcDbBlockReference
  2
*B194
 10
0.0
 20
0.0
 30
0.0
  0
INSERT
  5
7D6
100
AcDbEntity
  8
0
  6
Continuous
 62
     0
100
AcDbBlockReference
  2
*B195
 10
0.0
 20
0.0
 30
0.0
  0
INSERT
  5
7DB
100
AcDbEntity
  8
TEXT
  6
Continuous
 62
     0
100
AcDbBlockReference
  2
*B196
 10
0.0
 20
0.0
 30
0.0
  0
INSERT
  5
7E0
100
AcDbEntity
  8
TEXT
  6
Continuous
 62
     0
100
AcDbBlockReference
  2
*B197
 10
0.0
 20
0.0
 30
0.0
  0
INSERT
  5
7E5
100
AcDbEntity
  8
TEXT
  6
Continuous
 62
     0
100
AcDbBlockReference
  2
*B198
 10
0.0
 20
0.0
 30
0.0
  0
INSERT
  5
7EA
100
AcDbEntity
  8
TEXT
  6
Continuous
 62
     0
100
AcDbBlockReference
  2
*B199
 10
0.0
 20
0.0
 30
0.0
  0
INSERT
  5
7EF
100
AcDbEntity
  8
TEXT
  6
Continuous
 62
     0
100
AcDbBlockReference
  2
*B200
 10
0.0
 20
0.0
 30
0.0
  0
INSERT
  5
7F4
100
AcDbEntity
  8
TEXT
  6
Continuous
 62
     0
100
AcDbBlockReference
  2
*B201
 10
0.0
 20
0.0
 30
0.0
  0
INSERT
  5
7F9
100
AcDbEntity
  8
TEXT
  6
Continuous
 62
     0
100
AcDbBlockReference
  2
*B202
 10
0.0
 20
0.0
 30
0.0
  0
INSERT
  5
7FE
100
AcDbEntity
  8
TEXT
  6
Continuous
 62
     0
100
AcDbBlockReference
  2
*B203
 10
0.0
 20
0.0
 30
0.0
  0
INSERT
  5
803
100
AcDbEntity
  8
TEXT
  6
Continuous
 62
     0
100
AcDbBlockReference
  2
*B204
 10
0.0
 20
0.0
 30
0.0
  0
INSERT
  5
808
100
AcDbEntity
  8
TEXT
  6
Continuous
 62
     0
100
AcDbBlockReference
  2
*B205
 10
0.0
 20
0.0
 30
0.0
  0
INSERT
  5
80D
100
AcDbEntity
  8
TEXT
  6
Continuous
 62
     0
100
AcDbBlockReference
  2
*B206
 10
0.0
 20
0.0
 30
0.0
  0
INSERT
  5
812
100
AcDbEntity
  8
TEXT
  6
Continuous
 62
     0
100
AcDbBlockReference
  2
*B207
 10
0.0
 20
0.0
 30
0.0
  0
INSERT
  5
817
100
AcDbEntity
  8
TEXT
  6
Continuous
 62
     0
100
AcDbBlockReference
  2
*B208
 10
0.0
 20
0.0
 30
0.0
  0
INSERT
  5
81C
100
AcDbEntity
  8
TEXT
  6
Continuous
 62
     0
100
AcDbBlockReference
  2
*B209
 10
0.0
 20
0.0
 30
0.0
  0
INSERT
  5
821
100
AcDbEntity
  8
TEXT
  6
Continuous
 62
     0
100
AcDbBlockReference
  2
*B210
 10
0.0
 20
0.0
 30
0.0
  0
INSERT
  5
826
100
AcDbEntity
  8
TEXT
  6
Continuous
 62
     0
100
AcDbBlockReference
  2
*B211
 10
0.0
 20
0.0
 30
0.0
  0
INSERT
  5
82B
100
AcDbEntity
  8
TEXT
  6
Continuous
 62
     0
100
AcDbBlockReference
  2
*B212
 10
0.0
 20
0.0
 30
0.0
  0
INSERT
  5
830
100
AcDbEntity
  8
TEXT
  6
Continuous
 62
     0
100
AcDbBlockReference
  2
*B213
 10
0.0
 20
0.0
 30
0.0
  0
INSERT
  5
835
100
AcDbEntity
  8
TEXT
  6
Continuous
 62
     0
100
AcDbBlockReference
  2
*B214
 10
0.0
 20
0.0
 30
0.0
  0
INSERT
  5
83A
100
AcDbEntity
  8
TEXT
  6
Continuous
 62
     0
100
AcDbBlockReference
  2
*B215
 10
0.0
 20
0.0
 30
0.0
  0
INSERT
  5
83F
100
AcDbEntity
  8
TEXT
  6
Continuous
 62
     0
100
AcDbBlockReference
  2
*B216
 10
0.0
 20
0.0
 30
0.0
  0
INSERT
  5
844
100
AcDbEntity
  8
TEXT
  6
Continuous
 62
     0
100
AcDbBlockReference
  2
*B217
 10
0.0
 20
0.0
 30
0.0
  0
INSERT
  5
849
100
AcDbEntity
  8
TEXT
  6
Continuous
 62
     0
100
AcDbBlockReference
  2
*B218
 10
0.0
 20
0.0
 30
0.0
  0
INSERT
  5
84E
100
AcDbEntity
  8
TEXT
  6
Continuous
 62
     0
100
AcDbBlockReference
  2
*B219
 10
0.0
 20
0.0
 30
0.0
  0
INSERT
  5
853
100
AcDbEntity
  8
TEXT
  6
Continuous
 62
     0
100
AcDbBlockReference
  2
*B220
 10
0.0
 20
0.0
 30
0.0
  0
INSERT
  5
858
100
AcDbEntity
  8
TEXT
  6
Continuous
 62
     0
100
AcDbBlockReference
  2
*B221
 10
0.0
 20
0.0
 30
0.0
  0
INSERT
  5
85D
100
AcDbEntity
  8
TEXT
  6
Continuous
 62
     0
100
AcDbBlockReference
  2
*B222
 10
0.0
 20
0.0
 30
0.0
  0
INSERT
  5
862
100
AcDbEntity
  8
TEXT
  6
Continuous
 62
     0
100
AcDbBlockReference
  2
*B223
 10
0.0
 20
0.0
 30
0.0
  0
INSERT
  5
867
100
AcDbEntity
  8
TEXT
  6
Continuous
 62
     0
100
AcDbBlockReference
  2
*B224
 10
0.0
 20
0.0
 30
0.0
  0
INSERT
  5
86C
100
AcDbEntity
  8
TEXT
  6
Continuous
 62
     0
100
AcDbBlockReference
  2
*B225
 10
0.0
 20
0.0
 30
0.0
  0
INSERT
  5
871
100
AcDbEntity
  8
TEXT
  6
Continuous
 62
     0
100
AcDbBlockReference
  2
*B226
 10
0.0
 20
0.0
 30
0.0
  0
INSERT
  5
876
100
AcDbEntity
  8
TEXT
  6
Continuous
 62
     0
100
AcDbBlockReference
  2
*B227
 10
0.0
 20
0.0
 30
0.0
  0
INSERT
  5
87B
100
AcDbEntity
  8
TEXT
  6
Continuous
 62
     0
100
AcDbBlockReference
  2
*B228
 10
0.0
 20
0.0
 30
0.0
  0
INSERT
  5
880
100
AcDbEntity
  8
TEXT
  6
Continuous
 62
     0
100
AcDbBlockReference
  2
*B229
 10
0.0
 20
0.0
 30
0.0
  0
INSERT
  5
885
100
AcDbEntity
  8
TEXT
  6
Continuous
 62
     0
100
AcDbBlockReference
  2
*B230
 10
0.0
 20
0.0
 30
0.0
  0
INSERT
  5
88A
100
AcDbEntity
  8
TEXT
  6
Continuous
 62
     0
100
AcDbBlockReference
  2
*B231
 10
0.0
 20
0.0
 30
0.0
  0
INSERT
  5
88F
100
AcDbEntity
  8
TEXT
  6
Continuous
 62
     0
100
AcDbBlockReference
  2
*B232
 10
0.0
 20
0.0
 30
0.0
  0
INSERT
  5
894
100
AcDbEntity
  8
TEXT
  6
Continuous
 62
     0
100
AcDbBlockReference
  2
*B233
 10
0.0
 20
0.0
 30
0.0
  0
INSERT
  5
899
100
AcDbEntity
  8
TEXT
  6
Continuous
 62
     0
100
AcDbBlockReference
  2
*B234
 10
0.0
 20
0.0
 30
0.0
  0
INSERT
  5
89E
100
AcDbEntity
  8
TEXT
  6
Continuous
 62
     0
100
AcDbBlockReference
  2
*B235
 10
0.0
 20
0.0
 30
0.0
  0
INSERT
  5
8A3
100
AcDbEntity
  8
TEXT
  6
Continuous
 62
     0
100
AcDbBlockReference
  2
*B236
 10
0.0
 20
0.0
 30
0.0
  0
INSERT
  5
8A8
100
AcDbEntity
  8
TEXT
  6
Continuous
 62
     0
100
AcDbBlockReference
  2
*B237
 10
0.0
 20
0.0
 30
0.0
  0
INSERT
  5
8AD
100
AcDbEntity
  8
TEXT
  6
Continuous
 62
     0
100
AcDbBlockReference
  2
*B238
 10
0.0
 20
0.0
 30
0.0
  0
INSERT
  5
8B2
100
AcDbEntity
  8
TEXT
  6
Continuous
 62
     0
100
AcDbBlockReference
  2
*B239
 10
0.0
 20
0.0
 30
0.0
  0
INSERT
  5
8B7
100
AcDbEntity
  8
TEXT
  6
Continuous
 62
     0
100
AcDbBlockReference
  2
*B240
 10
0.0
 20
0.0
 30
0.0
  0
INSERT
  5
8BC
100
AcDbEntity
  8
TEXT
  6
Continuous
 62
     0
100
AcDbBlockReference
  2
*B241
 10
0.0
 20
0.0
 30
0.0
  0
INSERT
  5
8C1
100
AcDbEntity
  8
TEXT
  6
Continuous
 62
     0
100
AcDbBlockReference
  2
*B242
 10
0.0
 20
0.0
 30
0.0
  0
INSERT
  5
8C6
100
AcDbEntity
  8
TEXT
  6
Continuous
 62
     0
100
AcDbBlockReference
  2
*B243
 10
0.0
 20
0.0
 30
0.0
  0
INSERT
  5
8CB
100
AcDbEntity
  8
TEXT
  6
Continuous
 62
     0
100
AcDbBlockReference
  2
*B244
 10
0.0
 20
0.0
 30
0.0
  0
INSERT
  5
8D0
100
AcDbEntity
  8
TEXT
  6
Continuous
 62
     0
100
AcDbBlockReference
  2
*B245
 10
0.0
 20
0.0
 30
0.0
  0
INSERT
  5
8D5
100
AcDbEntity
  8
TEXT
  6
Continuous
 62
     0
100
AcDbBlockReference
  2
*B246
 10
0.0
 20
0.0
 30
0.0
  0
ENDSEC
  0
SECTION
  2
OBJECTS
  0
DICTIONARY
  5
19
100
AcDbDictionary
280
     0
281
     1
  3
ACAD_GROUP
350
1A
  3
ACAD_MLINESTYLE
350
1B
  3
ACAD_LAYOUT
350
1E
  3
ACAD_PLOTSETTINGS
350
22
  3
ACAD_PLOTSTYLENAME
350
1F
  3
ACAD_WIPEOUT_VARS
350
23
  0
DICTIONARY
  5
1A
102
{ACAD_REACTORS
330
19
102
}
100
AcDbDictionary
280
     0
281
     1
  0
DICTIONARY
  5
1B
102
{ACAD_REACTORS
330
19
102
}
100
AcDbDictionary
280
     0
281
     1
  3
Standard
350
1C
  0
MLINESTYLE
  5
1C
102
{ACAD_REACTORS
330
1B
102
}
100
AcDbMlineStyle
  2
Standard
 70
     0
  3

 62
     0
 51
90.0
 52
90.0
 71
     2
 49
0.5
 62
   256
  6
BYLAYER
 49
-0.5
 62
   256
  6
BYLAYER
  0
ACDBDICTIONARYWDFLT
  5
1F
102
{ACAD_REACTORS
330
19
102
}
100
AcDbDictionary
281
     1
  3
Normal
350
1D
100
AcDbDictionaryWithDefault
340
1D
  0
ACDBPLACEHOLDER
  5
1D
102
{ACAD_REACTORS
330
1F
102
}
  0
LAYOUT
  5
20
102
{ACAD_REACTORS
330
1E
102
}
100
AcDbPlotSettings
  1

  2

  4

  6

 40
0.0
 41
0.0
 42
0.0
 43
0.0
 44
0.0
 45
0.0
 46
0.0
 47
0.0
 48
0.0
 49
0.0
140
0.0
141
0.0
142
1.0
143
1.0
 70
     0
 72
     0
 73
     0
 74
     0
  7

 75
     0
147
1.0
148
0.0
149
0.0
100
AcDbLayout
  1
Model
 70
     0
 71
     0
 10
0.0
 20
0.0
 11
0.0
 21
0.0
 12
0.0
 22
0.0
 32
0.0
 14
0.0
 24
0.0
 34
0.0
 15
0.0
 25
0.0
 35
0.0
146
0.0
 13
0.0
 23
0.0
 33
0.0
 16
0.0
 26
0.0
 36
0.0
 17
0.0
 27
0.0
 37
0.0
 76
     0
330
A
331
0
345
0
346
0
  0
LAYOUT
  5
21
102
{ACAD_REACTORS
330
1E
102
}
100
AcDbPlotSettings
  1

  2

  4

  6

 40
0.0
 41
0.0
 42
0.0
 43
0.0
 44
0.0
 45
0.0
 46
0.0
 47
0.0
 48
0.0
 49
0.0
140
0.0
141
0.0
142
1.0
143
1.0
 70
     0
 72
     0
 73
     0
 74
     0
  7

 75
     0
147
1.0
148
0.0
149
0.0
100
AcDbLayout
  1
Layout1
 70
     0
 71
     0
 10
0.0
 20
0.0
 11
0.0
 21
0.0
 12
0.0
 22
0.0
 32
0.0
 14
0.0
 24
0.0
 34
0.0
 15
0.0
 25
0.0
 35
0.0
146
0.0
 13
0.0
 23
0.0
 33
0.0
 16
0.0
 26
0.0
 36
0.0
 17
0.0
 27
0.0
 37
0.0
 76
     0
330
B
331
0
345
0
346
0
  0
DICTIONARY
  5
1E
102
{ACAD_REACTORS
330
19
102
}
100
AcDbDictionary
280
     0
281
     1
  3
Layout1
350
21
  3
Model
350
20
  0
DICTIONARY
  5
22
102
{ACAD_REACTORS
330
19
102
}
100
AcDbDictionary
280
     0
281
     1
  0
WIPEOUTVARIABLES
  5
23
100
AcDbWipeoutVariables
 70
     1
  0
ENDSEC
  0
EOF
