  0
SECTION
  2
HEADER
  9
$ACADVER
  1
AC1015
  9
$ACADMAINTVER
 70
     6
  9
$DWGCODEPAGE
  3
DOS850
  9
$INSBASE
 10
0.0
 20
0.0
 30
0.0
  9
$EXTMIN
 10
0.0
 20
0.0
 30
0.0
  9
$EXTMAX
 10
595.0
 20
420.0
 30
0.0
  9
$LIMMIN
 10
0.0
 20
0.0
  9
$LIMMAX
 10
595.0
 20
420.0
  9
$ORTHOMODE
 70
     0
  9
$REGENMODE
 70
     1
  9
$FILLMODE
 70
     1
  9
$QTEXTMODE
 70
     0
  9
$MIRRTEXT
 70
     1
  9
$LTSCALE
 40
25.4
  9
$ATTMODE
 70
     1
  9
$TEXTSIZE
 40
3.5
  9
$TRACEWID
 40
0.05
  9
$TEXTSTYLE
  7
Standard
  9
$CLAYER
  8
0
  9
$CELTYPE
  6
Continuous
  9
$CECOLOR
 62
   256
  9
$CELTSCALE
 40
1.0
  9
$DISPSILH
 70
     0
  9
$DIMSCALE
 40
1.0
  9
$DIMASZ
 40
5.0
  9
$DIMEXO
 40
3.0
  9
$DIMDLI
 40
0.38
  9
$DIMRND
 40
0.0
  9
$DIMDLE
 40
0.0
  9
$DIMEXE
 40
2.0
  9
$DIMTP
 40
0.0
  9
$DIMTM
 40
0.0
  9
$DIMTXT
 40
3.5
  9
$DIMCEN
 40
4.0
  9
$DIMTSZ
 40
0.0
  9
$DIMTOL
 70
     0
  9
$DIMLIM
 70
     0
  9
$DIMTIH
 70
     1
  9
$DIMTOH
 70
     1
  9
$DIMSE1
 70
     0
  9
$DIMSE2
 70
     0
  9
$DIMTAD
 70
     0
  9
$DIMZIN
 70
     0
  9
$DIMBLK
  1

  9
$DIMASO
 70
     1
  9
$DIMSHO
 70
     1
  9
$DIMPOST
  1

  9
$DIMAPOST
  1

  9
$DIMALT
 70
     0
  9
$DIMALTD
 70
     2
  9
$DIMALTF
 40
25.4
  9
$DIMLFAC
 40
1.0
  9
$DIMTOFL
 70
     0
  9
$DIMTVP
 40
0.0
  9
$DIMTIX
 70
     0
  9
$DIMSOXD
 70
     0
  9
$DIMSAH
 70
     0
  9
$DIMBLK1
  1

  9
$DIMBLK2
  1

  9
$DIMSTYLE
  2
Standard
  9
$DIMCLRD
 70
     0
  9
$DIMCLRE
 70
     0
  9
$DIMCLRT
 70
     0
  9
$DIMTFAC
 40
1.0
  9
$DIMGAP
 40
1.0
  9
$DIMJUST
 70
     0
  9
$DIMSD1
 70
     0
  9
$DIMSD2
 70
     0
  9
$DIMTOLJ
 70
     1
  9
$DIMTZIN
 70
     0
  9
$DIMALTZ
 70
     0
  9
$DIMALTTZ
 70
     0
  9
$DIMUPT
 70
     0
  9
$DIMDEC
 70
     4
  9
$DIMTDEC
 70
     4
  9
$DIMALTU
 70
     2
  9
$DIMALTTD
 70
     2
  9
$DIMTXSTY
  7
Standard
  9
$DIMAUNIT
 70
     0
  9
$DIMADEC
 70
     0
  9
$DIMALTRND
 40
0.0
  9
$DIMAZIN
 70
     0
  9
$DIMDSEP
 70
     0
  9
$DIMATFIT
 70
     3
  9
$DIMFRAC
 70
     0
  9
$DIMLDRBLK
  1

  9
$DIMLUNIT
 70
     2
  9
$DIMLWD
 70
     0
  9
$DIMLWE
 70
     0
  9
$DIMTMOVE
 70
     0
  9
$LUNITS
 70
     2
  9
$LUPREC
 70
     4
  9
$SKETCHINC
 40
0.1
  9
$FILLETRAD
 40
0.0
  9
$AUNITS
 70
     0
  9
$AUPREC
 70
     0
  9
$MENU
  1
acad
  9
$ELEVATION
 40
0.0
  9
$PELEVATION
 40
0.0
  9
$THICKNESS
 40
0.0
  9
$LIMCHECK
 70
     0
  9
$CHAMFERA
 40
0.0
  9
$CHAMFERB
 40
0.0
  9
$CHAMFERC
 40
0.0
  9
$CHAMFERD
 40
0.0
  9
$SKPOLY
 70
     0
  9
$TDCREATE
 40
0.000000000
  9
$TDUCREATE
 40
0.000000000
  9
$TDUPDATE
 40
0.000000000
  9
$TDUUPDATE
 40
0.000000000
  9
$TDINDWG
 40
0.0000000000
  9
$TDUSRTIMER
 40
0.0000000000
  9
$USRTIMER
 70
     1
  9
$ANGBASE
 50
0.0
  9
$ANGDIR
 70
     0
  9
$PDMODE
 70
     0
  9
$PDSIZE
 40
0.0
  9
$PLINEWID
 40
0.0
  9
$SPLFRAME
 70
     0
  9
$SPLINETYPE
 70
     6
  9
$SPLINESEGS
 70
     8
  9
$HANDSEED
  5
89E
  9
$SURFTAB1
 70
     6
  9
$SURFTAB2
 70
     6
  9
$SURFTYPE
 70
     6
  9
$SURFU
 70
     6
  9
$SURFV
 70
     6
  9
$UCSBASE
  2

  9
$UCSNAME
  2

  9
$UCSORG
 10
0.0
 20
0.0
 30
0.0
  9
$UCSXDIR
 10
1.0
 20
0.0
 30
0.0
  9
$UCSYDIR
 10
0.0
 20
1.0
 30
0.0
  9
$UCSORTHOREF
  2

  9
$UCSORTHOVIEW
 70
     0
  9
$UCSORGTOP
 10
0.0
 20
0.0
 30
0.0
  9
$UCSORGBOTTOM
 10
0.0
 20
0.0
 30
0.0
  9
$UCSORGLEFT
 10
0.0
 20
0.0
 30
0.0
  9
$UCSORGRIGHT
 10
0.0
 20
0.0
 30
0.0
  9
$UCSORGFRONT
 10
0.0
 20
0.0
 30
0.0
  9
$UCSORGBACK
 10
0.0
 20
0.0
 30
0.0
  9
$PUCSBASE
  2

  9
$PUCSNAME
  2

  9
$PUCSORG
 10
0.0
 20
0.0
 30
0.0
  9
$PUCSXDIR
 10
1.0
 20
0.0
 30
0.0
  9
$PUCSYDIR
 10
0.0
 20
1.0
 30
0.0
  9
$PUCSORTHOREF
  2

  9
$PUCSORTHOVIEW
 70
     0
  9
$PUCSORGTOP
 10
0.0
 20
0.0
 30
0.0
  9
$PUCSORGBOTTOM
 10
0.0
 20
0.0
 30
0.0
  9
$PUCSORGLEFT
 10
0.0
 20
0.0
 30
0.0
  9
$PUCSORGRIGHT
 10
0.0
 20
0.0
 30
0.0
  9
$PUCSORGFRONT
 10
0.0
 20
0.0
 30
0.0
  9
$PUCSORGBACK
 10
0.0
 20
0.0
 30
0.0
  9
$USERI1
 70
     0
  9
$USERI2
 70
     0
  9
$USERI3
 70
     0
  9
$USERI4
 70
     0
  9
$USERI5
 70
     0
  9
$USERR1
 40
0.0
  9
$USERR2
 40
0.0
  9
$USERR3
 40
0.0
  9
$USERR4
 40
0.0
  9
$USERR5
 40
0.0
  9
$WORLDVIEW
 70
     1
  9
$SHADEDGE
 70
     3
  9
$SHADEDIF
 70
    70
  9
$TILEMODE
 70
     1
  9
$MAXACTVP
 70
    16
  9
$PINSBASE
 10
0.0
 20
0.0
 30
0.0
  9
$PLIMCHECK
 70
     0
  9
$PEXTMIN
 10
1.000000E+20
 20
1.000000E+20
 30
1.000000E+20
  9
$PEXTMAX
 10
-1.000000E+20
 20
-1.000000E+20
 30
-1.000000E+20
  9
$PLIMMIN
 10
0.0
 20
0.0
  9
$PLIMMAX
 10
595.0
 20
420.0
  9
$UNITMODE
 70
     0
  9
$VISRETAIN
 70
     0
  9
$PLINEGEN
 70
     1
  9
$PSLTSCALE
 70
     0
  9
$TREEDEPTH
 70
  3020
  9
$CMLSTYLE
  2
Standard
  9
$CMLJUST
 70
     0
  9
$CMLSCALE
 40
1.0
  9
$PROXYGRAPHICS
 70
     0
  9
$MEASUREMENT
 70
     0
  9
$CELWEIGHT
370
     0
  9
$ENDCAPS
280
     0
  9
$JOINSTYLE
280
     0
  9
$LWDISPLAY
290
     0
  9
$INSUNITS
 70
     0
  9
$HYPERLINKBASE
  1

  9
$XEDIT
290
     1
  9
$CEPSNTYPE
380
     0
  9
$PSTYLEMODE
290
     0
  9
$FINGERPRINTGUID
  2

  9
$VERSIONGUID
  2

  9
$EXTNAMES
290
     1
  9
$PSVPSCALE
 40
0.0
  0
ENDSEC
  0
SECTION
  2
CLASSES
  0
CLASS
  1
LWPOLYLINE
  2
AcDbPolyline
  3
"AutoCAD"
 90
        0
280
     0
281
     1
  0
CLASS
  1
IMAGE
  2
AcDbRasterImage
  3
ISM
 90
      127
280
     0
281
     1
  0
CLASS
  1
OLE2FRAME
  2
AcDbOle2Frame
  3
""
 90
        0
280
     0
281
     1
  0
CLASS
  1
HATCH
  2
AcDbHatch
  3
"ACAD_SEDONA"
 90
        0
280
     0
281
     1
  0
CLASS
  1
DICTIONARYVAR
  2
AcDbDictionaryVar
  3
"AutoCAD"
 90
        0
280
     0
281
     0
  0
CLASS
  1
RASTERVARIABLES
  2
AcDbRasterVariables
  3
ISM
 90
        0
280
     0
281
     0
  0
CLASS
  1
IMAGEDEF
  2
AcDbRasterImageDef
  3
ISM
 90
        0
280
     0
281
     0
  0
CLASS
  1
IMAGEDEF_REACTOR
  2
AcDbRasterImageDefReactor
  3
ISM
 90
        1
280
     0
281
     0
  0
CLASS
  1
IDBUFFER
  2
AcDbIdBuffer
  3
"Acad"
 90
        0
280
     0
281
     0
  0
CLASS
  1
SPATIAL_FILTER
  2
AcDbSpatialFilter
  3
"Acad"
 90
        0
280
     0
281
     0
  0
CLASS
  1
XRECORD
  2
AcDbXrecord
  3
"<Built In>"
 90
        0
280
     0
281
     0
  0
CLASS
  1
SORTENTSTABLE
  2
AcDbSortentsTable
  3
"AutoCAD"
 90
        0
280
     0
281
     0
  0
CLASS
  1
LAYER_INDEX
  2
AcDbLayerIndex
  3
"Acad"
 90
        0
280
     0
281
     0
  0
CLASS
  1
SPATIAL_INDEX
  2
AcDbSpatialIndex
  3
"Acad"
 90
        0
280
     0
281
     0
  0
CLASS
  1
OBJECT_PTR
  2
CAseDLPNTableRecord
  3
"ASE-LPNTableRecord"
 90
        1
280
     0
281
     0
  0
CLASS
  1
LAYOUT
  2
AcDbLayout
  3
"AutoCAD 2000"
 90
        1
280
     0
281
     0
  0
CLASS
  1
PLOTSETTINGS
  2
AcDbPlotSettings
  3
"AutoCAD 2000"
 90
        1
280
     0
281
     0
  0
CLASS
  1
ACDBDICTIONARYWDFLT
  2
AcDbDictionaryWithDefault
  3
"AutoCAD 2000"
 90
        1
280
     0
281
     0
  0
CLASS
  1
ACDBPLACEHOLDER
  2
AcDbPlaceHolder
  3
"AutoCAD 2000"
 90
        1
280
     0
281
     0
  0
CLASS
  1
VBA_PROJECT
  2
AcDbVbaProject
  3
"acadvba"
 90
        1
280
     0
281
     0
  0
CLASS
  1
WIPEOUT
  2
AcDbWipeout
  3
WipeOut|AutoCAD Express Tool|expresstools@autodesk.com
 90
      127
280
     0
281
     1
  0
CLASS
  1
WIPEOUTVARIABLES
  2
AcDbWipeoutVariables
  3
WipeOut|AutoCAD Express Tool|expresstools@autodesk.com
 90
        0
280
     0
281
     0
  0
CLASS
  1
RTEXT
  2
RText
  3
RText|AutoCAD Express Tool|expresstools@autodesk.com
 90
        0
280
     0
281
     1
  0
CLASS
  1
ARCALIGNEDTEXT
  2
AcDbArcAlignedText
  3
ATEXT|AutoCAD Express Tool|expresstools@autodesk.com
 90
        0
280
     0
281
     1
  0
ENDSEC
  0
SECTION
  2
TABLES
  0
TABLE
  2
VPORT
  5
7
100
AcDbSymbolTable
 70
     1
  0
VPORT
  5
15
100
AcDbSymbolTableRecord
100
AcDbViewportTableRecord
  2
*ACTIVE
 70
     0
 10
0.0
 20
0.0
 11
1.0
 21
1.0
 12
6.591288
 22
4.579184
 13
0.0
 23
0.0
 14
1.0
 24
1.0
 15
0.0
 25
0.0
 16
0.0
 26
0.0
 36
1.0
 17
0.0
 27
0.0
 37
0.0
 40
9.158369
 41
0.688564
 42
50.0
 43
0.0
 44
0.0
 50
0.0
 51
0.0
 71
     0
 72
   100
 73
     1
 74
     1
 75
     0
 76
     0
 77
     0
 78
     0
281
     0
 65
     0
110
0.0
120
0.0
130
0.0
111
1.0
121
0.0
131
0.0
112
0.0
122
1.0
132
0.0
345
0
346
0
 79
     0
146
0.0
  0
ENDTAB
  0
TABLE
  2
LTYPE
  5
4
100
AcDbSymbolTable
 70
     7
  0
LTYPE
  5
11
100
AcDbSymbolTableRecord
100
AcDbLinetypeTableRecord
  2
ByBlock
 70
    64
  3

 72
    65
 73
     0
 40
0.0
  0
LTYPE
  5
12
100
AcDbSymbolTableRecord
100
AcDbLinetypeTableRecord
  2
ByLayer
 70
    64
  3

 72
    65
 73
     0
 40
0.0
  0
LTYPE
  5
13
100
AcDbSymbolTableRecord
100
AcDbLinetypeTableRecord
  2
Continuous
 70
    64
  3
Solid line
 72
    65
 73
     0
 40
0.0
  0
LTYPE
  5
24
100
AcDbSymbolTableRecord
100
AcDbLinetypeTableRecord
  2
HIDDEN
 70
    64
  3
_ _ _ _ _ _ _ _ _ _ _ _ _ _ _ _ _ _ _ _ _ _ _ _
 72
    65
 73
     2
 40
0.1875
 49
0.125
 74
     0
 49
-0.0625
 74
     0
  0
LTYPE
  5
25
100
AcDbSymbolTableRecord
100
AcDbLinetypeTableRecord
  2
DOTTED
 70
    64
  3
...............................................
 72
    65
 73
     2
 40
0.125
 49
0.0
 74
     0
 49
-0.125
 74
     0
  0
LTYPE
  5
26
100
AcDbSymbolTableRecord
100
AcDbLinetypeTableRecord
  2
CENTER
 70
    64
  3
____ _ ____ _ ____ _ ____ _ ____ _ ____ _ ____ 
 72
    65
 73
     4
 40
1.125
 49
0.75
 74
     0
 49
-0.125
 74
     0
 49
0.125
 74
     0
 49
-0.125
 74
     0
  0
LTYPE
  5
27
100
AcDbSymbolTableRecord
100
AcDbLinetypeTableRecord
  2
PHANTOM
 70
    64
  3
______  __  __  ______  __  __  ______  __  __ 
 72
    65
 73
     6
 40
1.25
 49
0.625
 74
     0
 49
-0.125
 74
     0
 49
0.125
 74
     0
 49
-0.125
 74
     0
 49
0.125
 74
     0
 49
-0.125
 74
     0
  0
ENDTAB
  0
TABLE
  2
LAYER
  5
2
100
AcDbSymbolTable
 70
     2
  0
LAYER
  5
14
100
AcDbSymbolTableRecord
100
AcDbLayerTableRecord
  2
0
 70
     0
 62
     7
  6
Continuous
290
     1
370
    -3
390
1D
  0
LAYER
  5
28
100
AcDbSymbolTableRecord
100
AcDbLayerTableRecord
  2
TEXT
 70
     0
 62
     8
  6
Continuous
290
     1
370
    -3
390
1F
  0
ENDTAB
  0
TABLE
  2
STYLE
  5
3
100
AcDbSymbolTable
 70
     1
  0
STYLE
  5
17
100
AcDbSymbolTableRecord
100
AcDbTextStyleTableRecord
  2
Standard
 70
     0
 40
0.0
 41
1.0
 50
0.0
 71
     0
 42
0.0
  3
txt
  4

  0
ENDTAB
  0
TABLE
  2
VIEW
  5
5
100
AcDbSymbolTable
 70
     0
  0
ENDTAB
  0
TABLE
  2
UCS
  5
6
100
AcDbSymbolTable
 70
     0
  0
ENDTAB
  0
TABLE
  2
APPID
  5
8
100
AcDbSymbolTable
 70
     1
  0
APPID
  5
16
100
AcDbSymbolTableRecord
100
AcDbRegAppTableRecord
  2
ACAD
 70
     0
  0
ENDTAB
  0
TABLE
  2
DIMSTYLE
  5
9
100
AcDbSymbolTable
 70
     1
100
AcDbDimStyleTable
 71
     0
  0
DIMSTYLE
105
18
100
AcDbSymbolTableRecord
100
AcDbDimStyleTableRecord
  2
Standard
 70
     0
  3

  4

 40
1.0
 41
0.18
 42
0.0625
 43
0.38
 44
0.18
 45
0.0
 46
0.0
 47
0.0
 48
0.0
 71
     0
 72
     0
 73
     1
 74
     1
 75
     0
 76
     0
 77
     0
 78
     0
 79
     0
140
0.18
141
0.09
142
0.0
143
25.4
144
1.0
145
0.0
146
1.0
147
0.09
148
0.0
170
     0
171
     2
172
     0
173
     0
174
     0
175
     0
176
     0
177
     0
178
     0
179
     0
271
     4
272
     4
273
     2
274
     2
275
     0
276
     0
277
     2
278
    46
279
     0
280
     0
281
     0
282
     0
283
     1
284
     0
285
     0
286
     0
288
     0
340
17
341
0
342
0
343
0
344
0
371
    -2
372
    -2
  0
ENDTAB
  0
TABLE
  2
BLOCK_RECORD
  5
1
100
AcDbSymbolTable
 70
   237
  0
BLOCK_RECORD
  5
A
100
AcDbSymbolTableRecord
100
AcDbBlockTableRecord
  2
*MODEL_SPACE
340
20
  0
BLOCK_RECORD
  5
B
100
AcDbSymbolTableRecord
100
AcDbBlockTableRecord
  2
*PAPER_SPACE
340
21
  0
BLOCK_RECORD
  5
29
100
AcDbSymbolTableRecord
100
AcDbBlockTableRecord
  2
*B0
340
0
  0
BLOCK_RECORD
  5
2C
100
AcDbSymbolTableRecord
100
AcDbBlockTableRecord
  2
*B1
340
0
  0
BLOCK_RECORD
  5
DA
100
AcDbSymbolTableRecord
100
AcDbBlockTableRecord
  2
*B2
340
0
  0
BLOCK_RECORD
  5
17A
100
AcDbSymbolTableRecord
100
AcDbBlockTableRecord
  2
*B3
340
0
  0
BLOCK_RECORD
  5
191
100
AcDbSymbolTableRecord
100
AcDbBlockTableRecord
  2
*B4
340
0
  0
BLOCK_RECORD
  5
198
100
AcDbSymbolTableRecord
100
AcDbBlockTableRecord
  2
*B5
340
0
  0
BLOCK_RECORD
  5
19F
100
AcDbSymbolTableRecord
100
AcDbBlockTableRecord
  2
*B6
340
0
  0
BLOCK_RECORD
  5
1A6
100
AcDbSymbolTableRecord
100
AcDbBlockTableRecord
  2
*B7
340
0
  0
BLOCK_RECORD
  5
1AD
100
AcDbSymbolTableRecord
100
AcDbBlockTableRecord
  2
*B8
340
0
  0
BLOCK_RECORD
  5
1B4
100
AcDbSymbolTableRecord
100
AcDbBlockTableRecord
  2
*B9
340
0
  0
BLOCK_RECORD
  5
1BB
100
AcDbSymbolTableRecord
100
AcDbBlockTableRecord
  2
*B10
340
0
  0
BLOCK_RECORD
  5
1C2
100
AcDbSymbolTableRecord
100
AcDbBlockTableRecord
  2
*B11
340
0
  0
BLOCK_RECORD
  5
1C9
100
AcDbSymbolTableRecord
100
AcDbBlockTableRecord
  2
*B12
340
0
  0
BLOCK_RECORD
  5
1D0
100
AcDbSymbolTableRecord
100
AcDbBlockTableRecord
  2
*B13
340
0
  0
BLOCK_RECORD
  5
1D7
100
AcDbSymbolTableRecord
100
AcDbBlockTableRecord
  2
*B14
340
0
  0
BLOCK_RECORD
  5
1DE
100
AcDbSymbolTableRecord
100
AcDbBlockTableRecord
  2
*B15
340
0
  0
BLOCK_RECORD
  5
1E5
100
AcDbSymbolTableRecord
100
AcDbBlockTableRecord
  2
*B16
340
0
  0
BLOCK_RECORD
  5
1EC
100
AcDbSymbolTableRecord
100
AcDbBlockTableRecord
  2
*B17
340
0
  0
BLOCK_RECORD
  5
1F3
100
AcDbSymbolTableRecord
100
AcDbBlockTableRecord
  2
*B18
340
0
  0
BLOCK_RECORD
  5
1FA
100
AcDbSymbolTableRecord
100
AcDbBlockTableRecord
  2
*B19
340
0
  0
BLOCK_RECORD
  5
201
100
AcDbSymbolTableRecord
100
AcDbBlockTableRecord
  2
*B20
340
0
  0
BLOCK_RECORD
  5
208
100
AcDbSymbolTableRecord
100
AcDbBlockTableRecord
  2
*B21
340
0
  0
BLOCK_RECORD
  5
20F
100
AcDbSymbolTableRecord
100
AcDbBlockTableRecord
  2
*B22
340
0
  0
BLOCK_RECORD
  5
216
100
AcDbSymbolTableRecord
100
AcDbBlockTableRecord
  2
*B23
340
0
  0
BLOCK_RECORD
  5
21D
100
AcDbSymbolTableRecord
100
AcDbBlockTableRecord
  2
*B24
340
0
  0
BLOCK_RECORD
  5
224
100
AcDbSymbolTableRecord
100
AcDbBlockTableRecord
  2
*B25
340
0
  0
BLOCK_RECORD
  5
22B
100
AcDbSymbolTableRecord
100
AcDbBlockTableRecord
  2
*B26
340
0
  0
BLOCK_RECORD
  5
232
100
AcDbSymbolTableRecord
100
AcDbBlockTableRecord
  2
*B27
340
0
  0
BLOCK_RECORD
  5
239
100
AcDbSymbolTableRecord
100
AcDbBlockTableRecord
  2
*B28
340
0
  0
BLOCK_RECORD
  5
240
100
AcDbSymbolTableRecord
100
AcDbBlockTableRecord
  2
*B29
340
0
  0
BLOCK_RECORD
  5
247
100
AcDbSymbolTableRecord
100
AcDbBlockTableRecord
  2
*B30
340
0
  0
BLOCK_RECORD
  5
24E
100
AcDbSymbolTableRecord
100
AcDbBlockTableRecord
  2
*B31
340
0
  0
BLOCK_RECORD
  5
255
100
AcDbSymbolTableRecord
100
AcDbBlockTableRecord
  2
*B32
340
0
  0
BLOCK_RECORD
  5
25C
100
AcDbSymbolTableRecord
100
AcDbBlockTableRecord
  2
*B33
340
0
  0
BLOCK_RECORD
  5
263
100
AcDbSymbolTableRecord
100
AcDbBlockTableRecord
  2
*B34
340
0
  0
BLOCK_RECORD
  5
26A
100
AcDbSymbolTableRecord
100
AcDbBlockTableRecord
  2
*B35
340
0
  0
BLOCK_RECORD
  5
271
100
AcDbSymbolTableRecord
100
AcDbBlockTableRecord
  2
*B36
340
0
  0
BLOCK_RECORD
  5
277
100
AcDbSymbolTableRecord
100
AcDbBlockTableRecord
  2
*B37
340
0
  0
BLOCK_RECORD
  5
27D
100
AcDbSymbolTableRecord
100
AcDbBlockTableRecord
  2
*B38
340
0
  0
BLOCK_RECORD
  5
283
100
AcDbSymbolTableRecord
100
AcDbBlockTableRecord
  2
*B39
340
0
  0
BLOCK_RECORD
  5
288
100
AcDbSymbolTableRecord
100
AcDbBlockTableRecord
  2
*B40
340
0
  0
BLOCK_RECORD
  5
295
100
AcDbSymbolTableRecord
100
AcDbBlockTableRecord
  2
*B41
340
0
  0
BLOCK_RECORD
  5
2BB
100
AcDbSymbolTableRecord
100
AcDbBlockTableRecord
  2
*B42
340
0
  0
BLOCK_RECORD
  5
2C1
100
AcDbSymbolTableRecord
100
AcDbBlockTableRecord
  2
*B43
340
0
  0
BLOCK_RECORD
  5
2C7
100
AcDbSymbolTableRecord
100
AcDbBlockTableRecord
  2
*B44
340
0
  0
BLOCK_RECORD
  5
2D4
100
AcDbSymbolTableRecord
100
AcDbBlockTableRecord
  2
*B45
340
0
  0
BLOCK_RECORD
  5
2DA
100
AcDbSymbolTableRecord
100
AcDbBlockTableRecord
  2
*B46
340
0
  0
BLOCK_RECORD
  5
2E0
100
AcDbSymbolTableRecord
100
AcDbBlockTableRecord
  2
*B47
340
0
  0
BLOCK_RECORD
  5
2E6
100
AcDbSymbolTableRecord
100
AcDbBlockTableRecord
  2
*B48
340
0
  0
BLOCK_RECORD
  5
305
100
AcDbSymbolTableRecord
100
AcDbBlockTableRecord
  2
*B49
340
0
  0
BLOCK_RECORD
  5
314
100
AcDbSymbolTableRecord
100
AcDbBlockTableRecord
  2
*B50
340
0
  0
BLOCK_RECORD
  5
31A
100
AcDbSymbolTableRecord
100
AcDbBlockTableRecord
  2
*B51
340
0
  0
BLOCK_RECORD
  5
327
100
AcDbSymbolTableRecord
100
AcDbBlockTableRecord
  2
*B52
340
0
  0
BLOCK_RECORD
  5
32C
100
AcDbSymbolTableRecord
100
AcDbBlockTableRecord
  2
*B53
340
0
  0
BLOCK_RECORD
  5
337
100
AcDbSymbolTableRecord
100
AcDbBlockTableRecord
  2
*B54
340
0
  0
BLOCK_RECORD
  5
33C
100
AcDbSymbolTableRecord
100
AcDbBlockTableRecord
  2
*B55
340
0
  0
BLOCK_RECORD
  5
342
100
AcDbSymbolTableRecord
100
AcDbBlockTableRecord
  2
*B56
340
0
  0
BLOCK_RECORD
  5
347
100
AcDbSymbolTableRecord
100
AcDbBlockTableRecord
  2
*B57
340
0
  0
BLOCK_RECORD
  5
34C
100
AcDbSymbolTableRecord
100
AcDbBlockTableRecord
  2
*B58
340
0
  0
BLOCK_RECORD
  5
352
100
AcDbSymbolTableRecord
100
AcDbBlockTableRecord
  2
*B59
340
0
  0
BLOCK_RECORD
  5
358
100
AcDbSymbolTableRecord
100
AcDbBlockTableRecord
  2
*B60
340
0
  0
BLOCK_RECORD
  5
363
100
AcDbSymbolTableRecord
100
AcDbBlockTableRecord
  2
*B61
340
0
  0
BLOCK_RECORD
  5
369
100
AcDbSymbolTableRecord
100
AcDbBlockTableRecord
  2
*B62
340
0
  0
BLOCK_RECORD
  5
376
100
AcDbSymbolTableRecord
100
AcDbBlockTableRecord
  2
*B63
340
0
  0
BLOCK_RECORD
  5
381
100
AcDbSymbolTableRecord
100
AcDbBlockTableRecord
  2
*B64
340
0
  0
BLOCK_RECORD
  5
387
100
AcDbSymbolTableRecord
100
AcDbBlockTableRecord
  2
*B65
340
0
  0
BLOCK_RECORD
  5
3AD
100
AcDbSymbolTableRecord
100
AcDbBlockTableRecord
  2
*B66
340
0
  0
BLOCK_RECORD
  5
3B2
100
AcDbSymbolTableRecord
100
AcDbBlockTableRecord
  2
*B67
340
0
  0
BLOCK_RECORD
  5
3B7
100
AcDbSymbolTableRecord
100
AcDbBlockTableRecord
  2
*B68
340
0
  0
BLOCK_RECORD
  5
3BD
100
AcDbSymbolTableRecord
100
AcDbBlockTableRecord
  2
*B69
340
0
  0
BLOCK_RECORD
  5
3D1
100
AcDbSymbolTableRecord
100
AcDbBlockTableRecord
  2
*B70
340
0
  0
BLOCK_RECORD
  5
3D7
100
AcDbSymbolTableRecord
100
AcDbBlockTableRecord
  2
*B71
340
0
  0
BLOCK_RECORD
  5
3DC
100
AcDbSymbolTableRecord
100
AcDbBlockTableRecord
  2
*B72
340
0
  0
BLOCK_RECORD
  5
3E2
100
AcDbSymbolTableRecord
100
AcDbBlockTableRecord
  2
*B73
340
0
  0
BLOCK_RECORD
  5
3E8
100
AcDbSymbolTableRecord
100
AcDbBlockTableRecord
  2
*B74
340
0
  0
BLOCK_RECORD
  5
3EE
100
AcDbSymbolTableRecord
100
AcDbBlockTableRecord
  2
*B75
340
0
  0
BLOCK_RECORD
  5
3F4
100
AcDbSymbolTableRecord
100
AcDbBlockTableRecord
  2
*B76
340
0
  0
BLOCK_RECORD
  5
401
100
AcDbSymbolTableRecord
100
AcDbBlockTableRecord
  2
*B77
340
0
  0
BLOCK_RECORD
  5
40A
100
AcDbSymbolTableRecord
100
AcDbBlockTableRecord
  2
*B78
340
0
  0
BLOCK_RECORD
  5
410
100
AcDbSymbolTableRecord
100
AcDbBlockTableRecord
  2
*B79
340
0
  0
BLOCK_RECORD
  5
415
100
AcDbSymbolTableRecord
100
AcDbBlockTableRecord
  2
*B80
340
0
  0
BLOCK_RECORD
  5
41B
100
AcDbSymbolTableRecord
100
AcDbBlockTableRecord
  2
*B81
340
0
  0
BLOCK_RECORD
  5
421
100
AcDbSymbolTableRecord
100
AcDbBlockTableRecord
  2
*B82
340
0
  0
BLOCK_RECORD
  5
427
100
AcDbSymbolTableRecord
100
AcDbBlockTableRecord
  2
*B83
340
0
  0
BLOCK_RECORD
  5
42D
100
AcDbSymbolTableRecord
100
AcDbBlockTableRecord
  2
*B84
340
0
  0
BLOCK_RECORD
  5
453
100
AcDbSymbolTableRecord
100
AcDbBlockTableRecord
  2
*B85
340
0
  0
BLOCK_RECORD
  5
472
100
AcDbSymbolTableRecord
100
AcDbBlockTableRecord
  2
*B86
340
0
  0
BLOCK_RECORD
  5
47F
100
AcDbSymbolTableRecord
100
AcDbBlockTableRecord
  2
*B87
340
0
  0
BLOCK_RECORD
  5
485
100
AcDbSymbolTableRecord
100
AcDbBlockTableRecord
  2
*B88
340
0
  0
BLOCK_RECORD
  5
490
100
AcDbSymbolTableRecord
100
AcDbBlockTableRecord
  2
*B89
340
0
  0
BLOCK_RECORD
  5
49D
100
AcDbSymbolTableRecord
100
AcDbBlockTableRecord
  2
*B90
340
0
  0
BLOCK_RECORD
  5
4A3
100
AcDbSymbolTableRecord
100
AcDbBlockTableRecord
  2
*B91
340
0
  0
BLOCK_RECORD
  5
4A9
100
AcDbSymbolTableRecord
100
AcDbBlockTableRecord
  2
*B92
340
0
  0
BLOCK_RECORD
  5
4B2
100
AcDbSymbolTableRecord
100
AcDbBlockTableRecord
  2
*B93
340
0
  0
BLOCK_RECORD
  5
4B8
100
AcDbSymbolTableRecord
100
AcDbBlockTableRecord
  2
*B94
340
0
  0
BLOCK_RECORD
  5
4BE
100
AcDbSymbolTableRecord
100
AcDbBlockTableRecord
  2
*B95
340
0
  0
BLOCK_RECORD
  5
4C4
100
AcDbSymbolTableRecord
100
AcDbBlockTableRecord
  2
*B96
340
0
  0
BLOCK_RECORD
  5
4C9
100
AcDbSymbolTableRecord
100
AcDbBlockTableRecord
  2
*B97
340
0
  0
BLOCK_RECORD
  5
4D6
100
AcDbSymbolTableRecord
100
AcDbBlockTableRecord
  2
*B98
340
0
  0
BLOCK_RECORD
  5
4DF
100
AcDbSymbolTableRecord
100
AcDbBlockTableRecord
  2
*B99
340
0
  0
BLOCK_RECORD
  5
4E4
100
AcDbSymbolTableRecord
100
AcDbBlockTableRecord
  2
*B100
340
0
  0
BLOCK_RECORD
  5
4E9
100
AcDbSymbolTableRecord
100
AcDbBlockTableRecord
  2
*B101
340
0
  0
BLOCK_RECORD
  5
4EF
100
AcDbSymbolTableRecord
100
AcDbBlockTableRecord
  2
*B102
340
0
  0
BLOCK_RECORD
  5
4F5
100
AcDbSymbolTableRecord
100
AcDbBlockTableRecord
  2
*B103
340
0
  0
BLOCK_RECORD
  5
4FB
100
AcDbSymbolTableRecord
100
AcDbBlockTableRecord
  2
*B104
340
0
  0
BLOCK_RECORD
  5
506
100
AcDbSymbolTableRecord
100
AcDbBlockTableRecord
  2
*B105
340
0
  0
BLOCK_RECORD
  5
513
100
AcDbSymbolTableRecord
100
AcDbBlockTableRecord
  2
*B106
340
0
  0
BLOCK_RECORD
  5
520
100
AcDbSymbolTableRecord
100
AcDbBlockTableRecord
  2
*B107
340
0
  0
BLOCK_RECORD
  5
52B
100
AcDbSymbolTableRecord
100
AcDbBlockTableRecord
  2
*B108
340
0
  0
BLOCK_RECORD
  5
530
100
AcDbSymbolTableRecord
100
AcDbBlockTableRecord
  2
*B109
340
0
  0
BLOCK_RECORD
  5
536
100
AcDbSymbolTableRecord
100
AcDbBlockTableRecord
  2
*B110
340
0
  0
BLOCK_RECORD
  5
53C
100
AcDbSymbolTableRecord
100
AcDbBlockTableRecord
  2
*B111
340
0
  0
BLOCK_RECORD
  5
542
100
AcDbSymbolTableRecord
100
AcDbBlockTableRecord
  2
*B112
340
0
  0
BLOCK_RECORD
  5
54F
100
AcDbSymbolTableRecord
100
AcDbBlockTableRecord
  2
*B113
340
0
  0
BLOCK_RECORD
  5
555
100
AcDbSymbolTableRecord
100
AcDbBlockTableRecord
  2
*B114
340
0
  0
BLOCK_RECORD
  5
580
100
AcDbSymbolTableRecord
100
AcDbBlockTableRecord
  2
*B115
340
0
  0
BLOCK_RECORD
  5
595
100
AcDbSymbolTableRecord
100
AcDbBlockTableRecord
  2
*B116
340
0
  0
BLOCK_RECORD
  5
59B
100
AcDbSymbolTableRecord
100
AcDbBlockTableRecord
  2
*B117
340
0
  0
BLOCK_RECORD
  5
5A8
100
AcDbSymbolTableRecord
100
AcDbBlockTableRecord
  2
*B118
340
0
  0
BLOCK_RECORD
  5
5AE
100
AcDbSymbolTableRecord
100
AcDbBlockTableRecord
  2
*B119
340
0
  0
BLOCK_RECORD
  5
5B4
100
AcDbSymbolTableRecord
100
AcDbBlockTableRecord
  2
*B120
340
0
  0
BLOCK_RECORD
  5
5C3
100
AcDbSymbolTableRecord
100
AcDbBlockTableRecord
  2
*B121
340
0
  0
BLOCK_RECORD
  5
5C9
100
AcDbSymbolTableRecord
100
AcDbBlockTableRecord
  2
*B122
340
0
  0
BLOCK_RECORD
  5
5D6
100
AcDbSymbolTableRecord
100
AcDbBlockTableRecord
  2
*B123
340
0
  0
BLOCK_RECORD
  5
5DC
100
AcDbSymbolTableRecord
100
AcDbBlockTableRecord
  2
*B124
340
0
  0
BLOCK_RECORD
  5
608
100
AcDbSymbolTableRecord
100
AcDbBlockTableRecord
  2
*B125
340
0
  0
BLOCK_RECORD
  5
60E
100
AcDbSymbolTableRecord
100
AcDbBlockTableRecord
  2
*B126
340
0
  0
BLOCK_RECORD
  5
613
100
AcDbSymbolTableRecord
100
AcDbBlockTableRecord
  2
*B127
340
0
  0
BLOCK_RECORD
  5
618
100
AcDbSymbolTableRecord
100
AcDbBlockTableRecord
  2
*B128
340
0
  0
BLOCK_RECORD
  5
61E
100
AcDbSymbolTableRecord
100
AcDbBlockTableRecord
  2
*B129
340
0
  0
BLOCK_RECORD
  5
623
100
AcDbSymbolTableRecord
100
AcDbBlockTableRecord
  2
*B130
340
0
  0
BLOCK_RECORD
  5
630
100
AcDbSymbolTableRecord
100
AcDbBlockTableRecord
  2
*B131
340
0
  0
BLOCK_RECORD
  5
635
100
AcDbSymbolTableRecord
100
AcDbBlockTableRecord
  2
*B132
340
0
  0
BLOCK_RECORD
  5
65D
100
AcDbSymbolTableRecord
100
AcDbBlockTableRecord
  2
*B133
340
0
  0
BLOCK_RECORD
  5
663
100
AcDbSymbolTableRecord
100
AcDbBlockTableRecord
  2
*B134
340
0
  0
BLOCK_RECORD
  5
669
100
AcDbSymbolTableRecord
100
AcDbBlockTableRecord
  2
*B135
340
0
  0
BLOCK_RECORD
  5
66F
100
AcDbSymbolTableRecord
100
AcDbBlockTableRecord
  2
*B136
340
0
  0
BLOCK_RECORD
  5
675
100
AcDbSymbolTableRecord
100
AcDbBlockTableRecord
  2
*B137
340
0
  0
BLOCK_RECORD
  5
67B
100
AcDbSymbolTableRecord
100
AcDbBlockTableRecord
  2
*B138
340
0
  0
BLOCK_RECORD
  5
681
100
AcDbSymbolTableRecord
100
AcDbBlockTableRecord
  2
*B139
340
0
  0
BLOCK_RECORD
  5
687
100
AcDbSymbolTableRecord
100
AcDbBlockTableRecord
  2
*B140
340
0
  0
BLOCK_RECORD
  5
68D
100
AcDbSymbolTableRecord
100
AcDbBlockTableRecord
  2
*B141
340
0
  0
BLOCK_RECORD
  5
693
100
AcDbSymbolTableRecord
100
AcDbBlockTableRecord
  2
*B142
340
0
  0
BLOCK_RECORD
  5
699
100
AcDbSymbolTableRecord
100
AcDbBlockTableRecord
  2
*B143
340
0
  0
BLOCK_RECORD
  5
69F
100
AcDbSymbolTableRecord
100
AcDbBlockTableRecord
  2
*B144
340
0
  0
BLOCK_RECORD
  5
6A5
100
AcDbSymbolTableRecord
100
AcDbBlockTableRecord
  2
*B145
340
0
  0
BLOCK_RECORD
  5
6AB
100
AcDbSymbolTableRecord
100
AcDbBlockTableRecord
  2
*B146
340
0
  0
BLOCK_RECORD
  5
6B1
100
AcDbSymbolTableRecord
100
AcDbBlockTableRecord
  2
*B147
340
0
  0
BLOCK_RECORD
  5
6B7
100
AcDbSymbolTableRecord
100
AcDbBlockTableRecord
  2
*B148
340
0
  0
BLOCK_RECORD
  5
6BD
100
AcDbSymbolTableRecord
100
AcDbBlockTableRecord
  2
*B149
340
0
  0
BLOCK_RECORD
  5
6C3
100
AcDbSymbolTableRecord
100
AcDbBlockTableRecord
  2
*B150
340
0
  0
BLOCK_RECORD
  5
6C9
100
AcDbSymbolTableRecord
100
AcDbBlockTableRecord
  2
*B151
340
0
  0
BLOCK_RECORD
  5
6CF
100
AcDbSymbolTableRecord
100
AcDbBlockTableRecord
  2
*B152
340
0
  0
BLOCK_RECORD
  5
6D5
100
AcDbSymbolTableRecord
100
AcDbBlockTableRecord
  2
*B153
340
0
  0
BLOCK_RECORD
  5
6DB
100
AcDbSymbolTableRecord
100
AcDbBlockTableRecord
  2
*B154
340
0
  0
BLOCK_RECORD
  5
6E1
100
AcDbSymbolTableRecord
100
AcDbBlockTableRecord
  2
*B155
340
0
  0
BLOCK_RECORD
  5
6E7
100
AcDbSymbolTableRecord
100
AcDbBlockTableRecord
  2
*B156
340
0
  0
BLOCK_RECORD
  5
6ED
100
AcDbSymbolTableRecord
100
AcDbBlockTableRecord
  2
*B157
340
0
  0
BLOCK_RECORD
  5
6F3
100
AcDbSymbolTableRecord
100
AcDbBlockTableRecord
  2
*B158
340
0
  0
BLOCK_RECORD
  5
6F9
100
AcDbSymbolTableRecord
100
AcDbBlockTableRecord
  2
*B159
340
0
  0
BLOCK_RECORD
  5
6FF
100
AcDbSymbolTableRecord
100
AcDbBlockTableRecord
  2
*B160
340
0
  0
BLOCK_RECORD
  5
705
100
AcDbSymbolTableRecord
100
AcDbBlockTableRecord
  2
*B161
340
0
  0
BLOCK_RECORD
  5
70B
100
AcDbSymbolTableRecord
100
AcDbBlockTableRecord
  2
*B162
340
0
  0
BLOCK_RECORD
  5
711
100
AcDbSymbolTableRecord
100
AcDbBlockTableRecord
  2
*B163
340
0
  0
BLOCK_RECORD
  5
717
100
AcDbSymbolTableRecord
100
AcDbBlockTableRecord
  2
*B164
340
0
  0
BLOCK_RECORD
  5
71D
100
AcDbSymbolTableRecord
100
AcDbBlockTableRecord
  2
*B165
340
0
  0
BLOCK_RECORD
  5
723
100
AcDbSymbolTableRecord
100
AcDbBlockTableRecord
  2
*B166
340
0
  0
BLOCK_RECORD
  5
729
100
AcDbSymbolTableRecord
100
AcDbBlockTableRecord
  2
*B167
340
0
  0
BLOCK_RECORD
  5
72F
100
AcDbSymbolTableRecord
100
AcDbBlockTableRecord
  2
*B168
340
0
  0
BLOCK_RECORD
  5
735
100
AcDbSymbolTableRecord
100
AcDbBlockTableRecord
  2
*B169
340
0
  0
BLOCK_RECORD
  5
73B
100
AcDbSymbolTableRecord
100
AcDbBlockTableRecord
  2
*B170
340
0
  0
BLOCK_RECORD
  5
741
100
AcDbSymbolTableRecord
100
AcDbBlockTableRecord
  2
*B171
340
0
  0
BLOCK_RECORD
  5
747
100
AcDbSymbolTableRecord
100
AcDbBlockTableRecord
  2
*B172
340
0
  0
BLOCK_RECORD
  5
74D
100
AcDbSymbolTableRecord
100
AcDbBlockTableRecord
  2
*B173
340
0
  0
BLOCK_RECORD
  5
753
100
AcDbSymbolTableRecord
100
AcDbBlockTableRecord
  2
*B174
340
0
  0
BLOCK_RECORD
  5
759
100
AcDbSymbolTableRecord
100
AcDbBlockTableRecord
  2
*B175
340
0
  0
BLOCK_RECORD
  5
75F
100
AcDbSymbolTableRecord
100
AcDbBlockTableRecord
  2
*B176
340
0
  0
BLOCK_RECORD
  5
765
100
AcDbSymbolTableRecord
100
AcDbBlockTableRecord
  2
*B177
340
0
  0
BLOCK_RECORD
  5
76B
100
AcDbSymbolTableRecord
100
AcDbBlockTableRecord
  2
*B178
340
0
  0
BLOCK_RECORD
  5
771
100
AcDbSymbolTableRecord
100
AcDbBlockTableRecord
  2
*B179
340
0
  0
BLOCK_RECORD
  5
777
100
AcDbSymbolTableRecord
100
AcDbBlockTableRecord
  2
*B180
340
0
  0
BLOCK_RECORD
  5
77D
100
AcDbSymbolTableRecord
100
AcDbBlockTableRecord
  2
*B181
340
0
  0
BLOCK_RECORD
  5
783
100
AcDbSymbolTableRecord
100
AcDbBlockTableRecord
  2
*B182
340
0
  0
BLOCK_RECORD
  5
789
100
AcDbSymbolTableRecord
100
AcDbBlockTableRecord
  2
*B183
340
0
  0
BLOCK_RECORD
  5
78F
100
AcDbSymbolTableRecord
100
AcDbBlockTableRecord
  2
*B184
340
0
  0
BLOCK_RECORD
  5
795
100
AcDbSymbolTableRecord
100
AcDbBlockTableRecord
  2
*B185
340
0
  0
BLOCK_RECORD
  5
79B
100
AcDbSymbolTableRecord
100
AcDbBlockTableRecord
  2
*B186
340
0
  0
BLOCK_RECORD
  5
7A1
100
AcDbSymbolTableRecord
100
AcDbBlockTableRecord
  2
*B187
340
0
  0
BLOCK_RECORD
  5
7A7
100
AcDbSymbolTableRecord
100
AcDbBlockTableRecord
  2
*B188
340
0
  0
BLOCK_RECORD
  5
7AD
100
AcDbSymbolTableRecord
100
AcDbBlockTableRecord
  2
*B189
340
0
  0
BLOCK_RECORD
  5
7B3
100
AcDbSymbolTableRecord
100
AcDbBlockTableRecord
  2
*B190
340
0
  0
BLOCK_RECORD
  5
7B8
100
AcDbSymbolTableRecord
100
AcDbBlockTableRecord
  2
*B191
340
0
  0
BLOCK_RECORD
  5
7BD
100
AcDbSymbolTableRecord
100
AcDbBlockTableRecord
  2
*B192
340
0
  0
BLOCK_RECORD
  5
7C2
100
AcDbSymbolTableRecord
100
AcDbBlockTableRecord
  2
*B193
340
0
  0
BLOCK_RECORD
  5
7C7
100
AcDbSymbolTableRecord
100
AcDbBlockTableRecord
  2
*B194
340
0
  0
BLOCK_RECORD
  5
7CC
100
AcDbSymbolTableRecord
100
AcDbBlockTableRecord
  2
*B195
340
0
  0
BLOCK_RECORD
  5
7D1
100
AcDbSymbolTableRecord
100
AcDbBlockTableRecord
  2
*B196
340
0
  0
BLOCK_RECORD
  5
7D6
100
AcDbSymbolTableRecord
100
AcDbBlockTableRecord
  2
*B197
340
0
  0
BLOCK_RECORD
  5
7DB
100
AcDbSymbolTableRecord
100
AcDbBlockTableRecord
  2
*B198
340
0
  0
BLOCK_RECORD
  5
7E0
100
AcDbSymbolTableRecord
100
AcDbBlockTableRecord
  2
*B199
340
0
  0
BLOCK_RECORD
  5
7E5
100
AcDbSymbolTableRecord
100
AcDbBlockTableRecord
  2
*B200
340
0
  0
BLOCK_RECORD
  5
7EA
100
AcDbSymbolTableRecord
100
AcDbBlockTableRecord
  2
*B201
340
0
  0
BLOCK_RECORD
  5
7EF
100
AcDbSymbolTableRecord
100
AcDbBlockTableRecord
  2
*B202
340
0
  0
BLOCK_RECORD
  5
7F4
100
AcDbSymbolTableRecord
100
AcDbBlockTableRecord
  2
*B203
340
0
  0
BLOCK_RECORD
  5
7F9
100
AcDbSymbolTableRecord
100
AcDbBlockTableRecord
  2
*B204
340
0
  0
BLOCK_RECORD
  5
7FE
100
AcDbSymbolTableRecord
100
AcDbBlockTableRecord
  2
*B205
340
0
  0
BLOCK_RECORD
  5
803
100
AcDbSymbolTableRecord
100
AcDbBlockTableRecord
  2
*B206
340
0
  0
BLOCK_RECORD
  5
808
100
AcDbSymbolTableRecord
100
AcDbBlockTableRecord
  2
*B207
340
0
  0
BLOCK_RECORD
  5
80D
100
AcDbSymbolTableRecord
100
AcDbBlockTableRecord
  2
*B208
340
0
  0
BLOCK_RECORD
  5
812
100
AcDbSymbolTableRecord
100
AcDbBlockTableRecord
  2
*B209
340
0
  0
BLOCK_RECORD
  5
817
100
AcDbSymbolTableRecord
100
AcDbBlockTableRecord
  2
*B210
340
0
  0
BLOCK_RECORD
  5
81C
100
AcDbSymbolTableRecord
100
AcDbBlockTableRecord
  2
*B211
340
0
  0
BLOCK_RECORD
  5
821
100
AcDbSymbolTableRecord
100
AcDbBlockTableRecord
  2
*B212
340
0
  0
BLOCK_RECORD
  5
826
100
AcDbSymbolTableRecord
100
AcDbBlockTableRecord
  2
*B213
340
0
  0
BLOCK_RECORD
  5
82B
100
AcDbSymbolTableRecord
100
AcDbBlockTableRecord
  2
*B214
340
0
  0
BLOCK_RECORD
  5
830
100
AcDbSymbolTableRecord
100
AcDbBlockTableRecord
  2
*B215
340
0
  0
BLOCK_RECORD
  5
835
100
AcDbSymbolTableRecord
100
AcDbBlockTableRecord
  2
*B216
340
0
  0
BLOCK_RECORD
  5
83A
100
AcDbSymbolTableRecord
100
AcDbBlockTableRecord
  2
*B217
340
0
  0
BLOCK_RECORD
  5
83F
100
AcDbSymbolTableRecord
100
AcDbBlockTableRecord
  2
*B218
340
0
  0
BLOCK_RECORD
  5
844
100
AcDbSymbolTableRecord
100
AcDbBlockTableRecord
  2
*B219
340
0
  0
BLOCK_RECORD
  5
849
100
AcDbSymbolTableRecord
100
AcDbBlockTableRecord
  2
*B220
340
0
  0
BLOCK_RECORD
  5
84E
100
AcDbSymbolTableRecord
100
AcDbBlockTableRecord
  2
*B221
340
0
  0
BLOCK_RECORD
  5
853
100
AcDbSymbolTableRecord
100
AcDbBlockTableRecord
  2
*B222
340
0
  0
BLOCK_RECORD
  5
858
100
AcDbSymbolTableRecord
100
AcDbBlockTableRecord
  2
*B223
340
0
  0
BLOCK_RECORD
  5
85D
100
AcDbSymbolTableRecord
100
AcDbBlockTableRecord
  2
*B224
340
0
  0
BLOCK_RECORD
  5
862
100
AcDbSymbolTableRecord
100
AcDbBlockTableRecord
  2
*B225
340
0
  0
BLOCK_RECORD
  5
867
100
AcDbSymbolTableRecord
100
AcDbBlockTableRecord
  2
*B226
340
0
  0
BLOCK_RECORD
  5
86C
100
AcDbSymbolTableRecord
100
AcDbBlockTableRecord
  2
*B227
340
0
  0
BLOCK_RECORD
  5
871
100
AcDbSymbolTableRecord
100
AcDbBlockTableRecord
  2
*B228
340
0
  0
BLOCK_RECORD
  5
876
100
AcDbSymbolTableRecord
100
AcDbBlockTableRecord
  2
*B229
340
0
  0
BLOCK_RECORD
  5
87B
100
AcDbSymbolTableRecord
100
AcDbBlockTableRecord
  2
*B230
340
0
  0
BLOCK_RECORD
  5
880
100
AcDbSymbolTableRecord
100
AcDbBlockTableRecord
  2
*B231
340
0
  0
BLOCK_RECORD
  5
885
100
AcDbSymbolTableRecord
100
AcDbBlockTableRecord
  2
*B232
340
0
  0
BLOCK_RECORD
  5
88A
100
AcDbSymbolTableRecord
100
AcDbBlockTableRecord
  2
*B233
340
0
  0
BLOCK_RECORD
  5
88F
100
AcDbSymbolTableRecord
100
AcDbBlockTableRecord
  2
*B234
340
0
  0
BLOCK_RECORD
  5
894
100
AcDbSymbolTableRecord
100
AcDbBlockTableRecord
  2
*B235
340
0
  0
BLOCK_RECORD
  5
899
100
AcDbSymbolTableRecord
100
AcDbBlockTableRecord
  2
*B236
340
0
  0
ENDTAB
  0
ENDSEC
  0
SECTION
  2
BLOCKS
  0
BLOCK
  5
D
100
AcDbEntity
  8
0
100
AcDbBlockBegin
  2
*MODEL_SPACE
 70
     0
 10
0.0
 20
0.0
 30
0.0
  3
*MODEL_SPACE
  1

  0
ENDBLK
  5
E
100
AcDbEntity
  8
0
100
AcDbBlockEnd
  0
BLOCK
  5
F
100
AcDbEntity
 67
     1
  8
0
100
AcDbBlockBegin
  2
*PAPER_SPACE
 70
     0
 10
0.0
 20
0.0
 30
0.0
  3
*PAPER_SPACE
  1

  0
ENDBLK
  5
10
100
AcDbEntity
 67
     1
  8
0
100
AcDbBlockEnd
  0
BLOCK
  5
2A
100
AcDbEntity
  8
0
100
AcDbBlockBegin
  2
*B0
 70
     0
 10
0.0
 20
0.0
 30
0.0
  3
*B0
  1

  0
ENDBLK
  5
2B
100
AcDbEntity
  8
0
100
AcDbBlockEnd
  0
BLOCK
  5
2D
100
AcDbEntity
  8
0
100
AcDbBlockBegin
  2
*B1
 70
     0
 10
0.0
 20
0.0
 30
0.0
  3
*B1
  1

  0
ARC
  5
2E
100
AcDbEntity
  8
0
  6
Continuous
 62
   174
100
AcDbCircle
 10
184.980323
 20
150.041103
 30
0.0
 40
4.0
100
AcDbArc
 50
0.0
 51
180.0
  0
ARC
  5
2F
100
AcDbEntity
  8
0
  6
Continuous
 62
   174
100
AcDbCircle
 10
184.980323
 20
150.041103
 30
0.0
 40
4.0
100
AcDbArc
 50
-180.0
 51
0.0
  0
ARC
  5
30
100
AcDbEntity
  8
0
  6
Continuous
 62
   174
100
AcDbCircle
 10
184.980323
 20
126.041103
 30
0.0
 40
4.0
100
AcDbArc
 50
0.0
 51
180.0
  0
ARC
  5
31
100
AcDbEntity
  8
0
  6
Continuous
 62
   174
100
AcDbCircle
 10
184.980323
 20
126.041103
 30
0.0
 40
4.0
100
AcDbArc
 50
-180.0
 51
0.0
  0
ARC
  5
32
100
AcDbEntity
  8
0
  6
Continuous
 62
   174
100
AcDbCircle
 10
184.980323
 20
102.041103
 30
0.0
 40
4.0
100
AcDbArc
 50
0.0
 51
180.0
  0
ARC
  5
33
100
AcDbEntity
  8
0
  6
Continuous
 62
   174
100
AcDbCircle
 10
184.980323
 20
102.041103
 30
0.0
 40
4.0
100
AcDbArc
 50
-180.0
 51
0.0
  0
ARC
  5
34
100
AcDbEntity
  8
0
  6
Continuous
 62
   174
100
AcDbCircle
 10
173.980323
 20
138.041103
 30
0.0
 40
4.0
100
AcDbArc
 50
0.0
 51
180.0
  0
ARC
  5
35
100
AcDbEntity
  8
0
  6
Continuous
 62
   174
100
AcDbCircle
 10
173.980323
 20
138.041103
 30
0.0
 40
4.0
100
AcDbArc
 50
-180.0
 51
0.0
  0
LINE
  5
36
100
AcDbEntity
  8
0
  6
Continuous
 62
   174
100
AcDbLine
 10
140.480323
 20
176.041103
 30
0.0
 11
140.480323
 21
76.041103
 31
0.0
  0
ARC
  5
37
100
AcDbEntity
  8
0
  6
Continuous
 62
   174
100
AcDbCircle
 10
195.980323
 20
114.041103
 30
0.0
 40
4.0
100
AcDbArc
 50
0.0
 51
180.0
  0
ARC
  5
38
100
AcDbEntity
  8
0
  6
Continuous
 62
   174
100
AcDbCircle
 10
195.980323
 20
114.041103
 30
0.0
 40
4.0
100
AcDbArc
 50
-180.0
 51
0.0
  0
LINE
  5
39
100
AcDbEntity
  8
0
  6
Continuous
 62
   174
100
AcDbLine
 10
451.980323
 20
176.041103
 30
0.0
 11
140.480323
 21
176.041103
 31
0.0
  0
ARC
  5
3A
100
AcDbEntity
  8
0
  6
Continuous
 62
   174
100
AcDbCircle
 10
229.480323
 20
102.041103
 30
0.0
 40
4.0
100
AcDbArc
 50
0.0
 51
180.0
  0
ARC
  5
3B
100
AcDbEntity
  8
0
  6
Continuous
 62
   174
100
AcDbCircle
 10
229.480323
 20
102.041103
 30
0.0
 40
4.0
100
AcDbArc
 50
-180.0
 51
0.0
  0
LINE
  5
3C
100
AcDbEntity
  8
0
  6
Continuous
 62
   174
100
AcDbLine
 10
451.980323
 20
76.041103
 30
0.0
 11
451.980323
 21
176.041103
 31
0.0
  0
ARC
  5
3D
100
AcDbEntity
  8
0
  6
Continuous
 62
   174
100
AcDbCircle
 10
273.980323
 20
102.041103
 30
0.0
 40
4.0
100
AcDbArc
 50
0.0
 51
180.0
  0
ARC
  5
3E
100
AcDbEntity
  8
0
  6
Continuous
 62
   174
100
AcDbCircle
 10
273.980323
 20
102.041103
 30
0.0
 40
4.0
100
AcDbArc
 50
-180.0
 51
0.0
  0
ARC
  5
3F
100
AcDbEntity
  8
0
  6
Continuous
 62
   174
100
AcDbCircle
 10
418.480323
 20
114.041103
 30
0.0
 40
4.0
100
AcDbArc
 50
-180.0
 51
0.0
  0
ARC
  5
40
100
AcDbEntity
  8
0
  6
Continuous
 62
   174
100
AcDbCircle
 10
407.480323
 20
102.041103
 30
0.0
 40
4.0
100
AcDbArc
 50
0.0
 51
180.0
  0
ARC
  5
41
100
AcDbEntity
  8
0
  6
Continuous
 62
   174
100
AcDbCircle
 10
407.480323
 20
102.041103
 30
0.0
 40
4.0
100
AcDbArc
 50
-180.0
 51
0.0
  0
ARC
  5
42
100
AcDbEntity
  8
0
  6
Continuous
 62
   174
100
AcDbCircle
 10
318.480323
 20
126.041103
 30
0.0
 40
4.0
100
AcDbArc
 50
0.0
 51
180.0
  0
ARC
  5
43
100
AcDbEntity
  8
0
  6
Continuous
 62
   174
100
AcDbCircle
 10
318.480323
 20
126.041103
 30
0.0
 40
4.0
100
AcDbArc
 50
-180.0
 51
0.0
  0
ARC
  5
44
100
AcDbEntity
  8
0
  6
Continuous
 62
   174
100
AcDbCircle
 10
362.980323
 20
126.041103
 30
0.0
 40
4.0
100
AcDbArc
 50
0.0
 51
180.0
  0
ARC
  5
45
100
AcDbEntity
  8
0
  6
Continuous
 62
   174
100
AcDbCircle
 10
362.980323
 20
126.041103
 30
0.0
 40
4.0
100
AcDbArc
 50
-180.0
 51
0.0
  0
ARC
  5
46
100
AcDbEntity
  8
0
  6
Continuous
 62
   174
100
AcDbCircle
 10
329.480323
 20
114.041103
 30
0.0
 40
4.0
100
AcDbArc
 50
0.0
 51
180.0
  0
ARC
  5
47
100
AcDbEntity
  8
0
  6
Continuous
 62
   174
100
AcDbCircle
 10
329.480323
 20
114.041103
 30
0.0
 40
4.0
100
AcDbArc
 50
-180.0
 51
0.0
  0
LINE
  5
48
100
AcDbEntity
  8
0
  6
HIDDEN
 62
   174
100
AcDbLine
 10
427.980323
 20
90.2896
 30
0.0
 11
427.980323
 21
113.789545
 31
0.0
  0
LINE
  5
49
100
AcDbEntity
  8
0
  6
HIDDEN
 62
   174
100
AcDbLine
 10
427.980323
 20
138.289171
 30
0.0
 11
427.980323
 21
161.788691
 31
0.0
  0
LINE
  5
4A
100
AcDbEntity
  8
0
  6
HIDDEN
 62
   174
100
AcDbLine
 10
431.980323
 20
138.291103
 30
0.0
 11
451.980323
 21
138.291103
 31
0.0
  0
LINE
  5
4B
100
AcDbEntity
  8
0
  6
HIDDEN
 62
   174
100
AcDbLine
 10
451.980323
 20
161.791103
 30
0.0
 11
427.980323
 21
161.791103
 31
0.0
  0
LINE
  5
4C
100
AcDbEntity
  8
0
  6
HIDDEN
 62
   174
100
AcDbLine
 10
431.980323
 20
136.881103
 30
0.0
 11
451.980323
 21
136.881103
 31
0.0
  0
LINE
  5
4D
100
AcDbEntity
  8
0
  6
HIDDEN
 62
   174
100
AcDbLine
 10
451.980323
 20
113.789545
 30
0.0
 11
451.980323
 21
90.2896
 31
0.0
  0
LINE
  5
4E
100
AcDbEntity
  8
0
  6
HIDDEN
 62
   174
100
AcDbLine
 10
431.980323
 20
90.291103
 30
0.0
 11
451.980323
 21
90.291103
 31
0.0
  0
LINE
  5
4F
100
AcDbEntity
  8
0
  6
HIDDEN
 62
   174
100
AcDbLine
 10
451.980323
 20
90.291103
 30
0.0
 11
427.980323
 21
90.291103
 31
0.0
  0
LINE
  5
50
100
AcDbEntity
  8
0
  6
HIDDEN
 62
   174
100
AcDbLine
 10
431.980323
 20
88.881103
 30
0.0
 11
451.980323
 21
88.881103
 31
0.0
  0
ARC
  5
51
100
AcDbEntity
  8
0
  6
Continuous
 62
   174
100
AcDbCircle
 10
245.980323
 20
162.041103
 30
0.0
 40
3.0
100
AcDbArc
 50
-180.0
 51
0.0
  0
ARC
  5
52
100
AcDbEntity
  8
0
  6
Continuous
 62
   174
100
AcDbCircle
 10
245.980323
 20
162.041103
 30
0.0
 40
3.0
100
AcDbArc
 50
0.0
 51
118.774077
  0
ARC
  5
53
100
AcDbEntity
  8
0
  6
Continuous
 62
   174
100
AcDbCircle
 10
290.480323
 20
162.041103
 30
0.0
 40
3.0
100
AcDbArc
 50
0.0
 51
118.774077
  0
ARC
  5
54
100
AcDbEntity
  8
0
  6
Continuous
 62
   174
100
AcDbCircle
 10
301.980323
 20
90.041103
 30
0.0
 40
3.0
100
AcDbArc
 50
-180.0
 51
0.0
  0
ARC
  5
55
100
AcDbEntity
  8
0
  6
Continuous
 62
   174
100
AcDbCircle
 10
301.980323
 20
90.041103
 30
0.0
 40
3.0
100
AcDbArc
 50
0.0
 51
118.824842
  0
ARC
  5
56
100
AcDbEntity
  8
0
  6
Continuous
 62
   174
100
AcDbCircle
 10
229.480323
 20
150.041103
 30
0.0
 40
4.0
100
AcDbArc
 50
0.0
 51
180.0
  0
ARC
  5
57
100
AcDbEntity
  8
0
  6
Continuous
 62
   174
100
AcDbCircle
 10
229.480323
 20
150.041103
 30
0.0
 40
4.0
100
AcDbArc
 50
-180.0
 51
0.0
  0
ARC
  5
58
100
AcDbEntity
  8
0
  6
Continuous
 62
   174
100
AcDbCircle
 10
396.480323
 20
138.041103
 30
0.0
 40
4.0
100
AcDbArc
 50
0.0
 51
180.0
  0
ARC
  5
59
100
AcDbEntity
  8
0
  6
Continuous
 62
   174
100
AcDbCircle
 10
396.480323
 20
138.041103
 30
0.0
 40
4.0
100
AcDbArc
 50
-180.0
 51
0.0
  0
ARC
  5
5A
100
AcDbEntity
  8
0
  6
Continuous
 62
   174
100
AcDbCircle
 10
284.980323
 20
114.041103
 30
0.0
 40
4.0
100
AcDbArc
 50
0.0
 51
180.0
  0
ARC
  5
5B
100
AcDbEntity
  8
0
  6
Continuous
 62
   174
100
AcDbCircle
 10
284.980323
 20
114.041103
 30
0.0
 40
4.0
100
AcDbArc
 50
-180.0
 51
0.0
  0
ARC
  5
5C
100
AcDbEntity
  8
0
  6
Continuous
 62
   174
100
AcDbCircle
 10
418.480323
 20
114.041103
 30
0.0
 40
4.0
100
AcDbArc
 50
0.0
 51
180.0
  0
LINE
  5
5D
100
AcDbEntity
  8
0
  6
HIDDEN
 62
   174
100
AcDbLine
 10
431.980323
 20
161.791103
 30
0.0
 11
451.980323
 21
161.791103
 31
0.0
  0
LINE
  5
5E
100
AcDbEntity
  8
0
  6
HIDDEN
 62
   174
100
AcDbLine
 10
451.980323
 20
138.291103
 30
0.0
 11
427.980323
 21
138.291103
 31
0.0
  0
LINE
  5
5F
100
AcDbEntity
  8
0
  6
HIDDEN
 62
   174
100
AcDbLine
 10
431.980323
 20
163.201103
 30
0.0
 11
451.980323
 21
163.201103
 31
0.0
  0
LINE
  5
60
100
AcDbEntity
  8
0
  6
HIDDEN
 62
   174
100
AcDbLine
 10
451.980323
 20
136.879234
 30
0.0
 11
451.980323
 21
163.198628
 31
0.0
  0
LINE
  5
61
100
AcDbEntity
  8
0
  6
HIDDEN
 62
   174
100
AcDbLine
 10
431.980323
 20
88.879663
 30
0.0
 11
431.980323
 21
115.199482
 31
0.0
  0
ARC
  5
62
100
AcDbEntity
  8
0
  6
Continuous
 62
   174
100
AcDbCircle
 10
379.480323
 20
162.041103
 30
0.0
 40
3.0
100
AcDbArc
 50
-180.0
 51
0.0
  0
ARC
  5
63
100
AcDbEntity
  8
0
  6
Continuous
 62
   174
100
AcDbCircle
 10
407.480323
 20
126.041103
 30
0.0
 40
4.0
100
AcDbArc
 50
0.0
 51
180.0
  0
ARC
  5
64
100
AcDbEntity
  8
0
  6
Continuous
 62
   174
100
AcDbCircle
 10
407.480323
 20
126.041103
 30
0.0
 40
4.0
100
AcDbArc
 50
-180.0
 51
0.0
  0
ARC
  5
65
100
AcDbEntity
  8
0
  6
Continuous
 62
   174
100
AcDbCircle
 10
218.480323
 20
138.041103
 30
0.0
 40
4.0
100
AcDbArc
 50
0.0
 51
180.0
  0
ARC
  5
66
100
AcDbEntity
  8
0
  6
Continuous
 62
   174
100
AcDbCircle
 10
218.480323
 20
138.041103
 30
0.0
 40
4.0
100
AcDbArc
 50
-180.0
 51
0.0
  0
ARC
  5
67
100
AcDbEntity
  8
0
  6
Continuous
 62
   174
100
AcDbCircle
 10
318.480323
 20
150.041103
 30
0.0
 40
4.0
100
AcDbArc
 50
0.0
 51
180.0
  0
ARC
  5
68
100
AcDbEntity
  8
0
  6
Continuous
 62
   174
100
AcDbCircle
 10
318.480323
 20
150.041103
 30
0.0
 40
4.0
100
AcDbArc
 50
-180.0
 51
0.0
  0
ARC
  5
69
100
AcDbEntity
  8
0
  6
Continuous
 62
   174
100
AcDbCircle
 10
240.480323
 20
114.041103
 30
0.0
 40
4.0
100
AcDbArc
 50
0.0
 51
180.0
  0
ARC
  5
6A
100
AcDbEntity
  8
0
  6
Continuous
 62
   174
100
AcDbCircle
 10
262.980323
 20
138.041103
 30
0.0
 40
4.0
100
AcDbArc
 50
-180.0
 51
0.0
  0
ARC
  5
6B
100
AcDbEntity
  8
0
  6
Continuous
 62
   174
100
AcDbCircle
 10
362.980323
 20
150.041103
 30
0.0
 40
4.0
100
AcDbArc
 50
0.0
 51
180.0
  0
ARC
  5
6C
100
AcDbEntity
  8
0
  6
Continuous
 62
   174
100
AcDbCircle
 10
362.980323
 20
150.041103
 30
0.0
 40
4.0
100
AcDbArc
 50
-180.0
 51
0.0
  0
ARC
  5
6D
100
AcDbEntity
  8
0
  6
Continuous
 62
   174
100
AcDbCircle
 10
407.480323
 20
150.041103
 30
0.0
 40
4.0
100
AcDbArc
 50
0.0
 51
180.0
  0
ARC
  5
6E
100
AcDbEntity
  8
0
  6
Continuous
 62
   174
100
AcDbCircle
 10
407.480323
 20
150.041103
 30
0.0
 40
4.0
100
AcDbArc
 50
-180.0
 51
0.0
  0
ARC
  5
6F
100
AcDbEntity
  8
0
  6
Continuous
 62
   174
100
AcDbCircle
 10
362.980323
 20
102.041103
 30
0.0
 40
4.0
100
AcDbArc
 50
0.0
 51
180.0
  0
ARC
  5
70
100
AcDbEntity
  8
0
  6
Continuous
 62
   174
100
AcDbCircle
 10
362.980323
 20
102.041103
 30
0.0
 40
4.0
100
AcDbArc
 50
-180.0
 51
0.0
  0
LINE
  5
71
100
AcDbEntity
  8
0
  6
HIDDEN
 62
   174
100
AcDbLine
 10
431.980323
 20
113.791103
 30
0.0
 11
451.980323
 21
113.791103
 31
0.0
  0
LINE
  5
72
100
AcDbEntity
  8
0
  6
HIDDEN
 62
   174
100
AcDbLine
 10
431.980323
 20
115.201103
 30
0.0
 11
451.980323
 21
115.201103
 31
0.0
  0
LINE
  5
73
100
AcDbEntity
  8
0
  6
HIDDEN
 62
   174
100
AcDbLine
 10
451.980323
 20
88.879663
 30
0.0
 11
451.980323
 21
115.199482
 31
0.0
  0
ARC
  5
74
100
AcDbEntity
  8
0
  6
Continuous
 62
   174
100
AcDbCircle
 10
168.480323
 20
90.041103
 30
0.0
 40
3.0
100
AcDbArc
 50
-180.0
 51
0.0
  0
ARC
  5
75
100
AcDbEntity
  8
0
  6
Continuous
 62
   174
100
AcDbCircle
 10
379.480323
 20
162.041103
 30
0.0
 40
3.0
100
AcDbArc
 50
0.0
 51
118.810059
  0
ARC
  5
76
100
AcDbEntity
  8
0
  6
Continuous
 62
   174
100
AcDbCircle
 10
307.480323
 20
138.041103
 30
0.0
 40
4.0
100
AcDbArc
 50
0.0
 51
180.0
  0
ARC
  5
77
100
AcDbEntity
  8
0
  6
Continuous
 62
   174
100
AcDbCircle
 10
307.480323
 20
138.041103
 30
0.0
 40
4.0
100
AcDbArc
 50
-180.0
 51
0.0
  0
ARC
  5
78
100
AcDbEntity
  8
0
  6
Continuous
 62
   174
100
AcDbCircle
 10
318.480323
 20
102.041103
 30
0.0
 40
4.0
100
AcDbArc
 50
0.0
 51
180.0
  0
ARC
  5
79
100
AcDbEntity
  8
0
  6
Continuous
 62
   174
100
AcDbCircle
 10
318.480323
 20
102.041103
 30
0.0
 40
4.0
100
AcDbArc
 50
-180.0
 51
0.0
  0
ARC
  5
7A
100
AcDbEntity
  8
0
  6
Continuous
 62
   174
100
AcDbCircle
 10
229.480323
 20
126.041103
 30
0.0
 40
4.0
100
AcDbArc
 50
0.0
 51
180.0
  0
ARC
  5
7B
100
AcDbEntity
  8
0
  6
Continuous
 62
   174
100
AcDbCircle
 10
229.480323
 20
126.041103
 30
0.0
 40
4.0
100
AcDbArc
 50
-180.0
 51
0.0
  0
ARC
  5
7C
100
AcDbEntity
  8
0
  6
Continuous
 62
   174
100
AcDbCircle
 10
262.980323
 20
138.041103
 30
0.0
 40
4.0
100
AcDbArc
 50
0.0
 51
180.0
  0
LINE
  5
7D
100
AcDbEntity
  8
0
  6
HIDDEN
 62
   174
100
AcDbLine
 10
431.980323
 20
138.291103
 30
0.0
 11
451.980323
 21
138.291103
 31
0.0
  0
LINE
  5
7E
100
AcDbEntity
  8
0
  6
HIDDEN
 62
   174
100
AcDbLine
 10
451.980323
 20
161.791103
 30
0.0
 11
427.980323
 21
161.791103
 31
0.0
  0
LINE
  5
7F
100
AcDbEntity
  8
0
  6
HIDDEN
 62
   174
100
AcDbLine
 10
431.980323
 20
136.879234
 30
0.0
 11
431.980323
 21
163.198628
 31
0.0
  0
LINE
  5
80
100
AcDbEntity
  8
0
  6
HIDDEN
 62
   174
100
AcDbLine
 10
451.980323
 20
113.791103
 30
0.0
 11
427.980323
 21
113.791103
 31
0.0
  0
LINE
  5
81
100
AcDbEntity
  8
0
  6
HIDDEN
 62
   174
100
AcDbLine
 10
431.980323
 20
115.201103
 30
0.0
 11
451.980323
 21
115.201103
 31
0.0
  0
LINE
  5
82
100
AcDbEntity
  8
0
  6
HIDDEN
 62
   174
100
AcDbLine
 10
451.980323
 20
161.788691
 30
0.0
 11
451.980323
 21
138.289171
 31
0.0
  0
ARC
  5
83
100
AcDbEntity
  8
0
  6
Continuous
 62
   174
100
AcDbCircle
 10
168.480323
 20
90.041103
 30
0.0
 40
3.0
100
AcDbArc
 50
0.0
 51
118.810059
  0
ARC
  5
84
100
AcDbEntity
  8
0
  6
Continuous
 62
   174
100
AcDbCircle
 10
334.980323
 20
162.041103
 30
0.0
 40
3.0
100
AcDbArc
 50
-180.0
 51
0.0
  0
ARC
  5
85
100
AcDbEntity
  8
0
  6
Continuous
 62
   174
100
AcDbCircle
 10
273.980323
 20
126.041103
 30
0.0
 40
4.0
100
AcDbArc
 50
0.0
 51
180.0
  0
ARC
  5
86
100
AcDbEntity
  8
0
  6
Continuous
 62
   174
100
AcDbCircle
 10
273.980323
 20
126.041103
 30
0.0
 40
4.0
100
AcDbArc
 50
-180.0
 51
0.0
  0
LINE
  5
87
100
AcDbEntity
  8
0
  6
HIDDEN
 62
   174
100
AcDbLine
 10
451.980323
 20
113.791103
 30
0.0
 11
427.980323
 21
113.791103
 31
0.0
  0
LINE
  5
88
100
AcDbEntity
  8
0
  6
HIDDEN
 62
   174
100
AcDbLine
 10
431.980323
 20
88.881103
 30
0.0
 11
451.980323
 21
88.881103
 31
0.0
  0
ARC
  5
89
100
AcDbEntity
  8
0
  6
Continuous
 62
   174
100
AcDbCircle
 10
201.480323
 20
162.041103
 30
0.0
 40
3.0
100
AcDbArc
 50
-180.0
 51
0.0
  0
LINE
  5
8A
100
AcDbEntity
  8
0
  6
Continuous
 62
   174
100
AcDbLine
 10
140.480323
 20
76.041103
 30
0.0
 11
451.980323
 21
76.041103
 31
0.0
  0
LINE
  5
8B
100
AcDbEntity
  8
0
  6
HIDDEN
 62
   174
100
AcDbLine
 10
431.980323
 20
161.791103
 30
0.0
 11
451.980323
 21
161.791103
 31
0.0
  0
LINE
  5
8C
100
AcDbEntity
  8
0
  6
HIDDEN
 62
   174
100
AcDbLine
 10
451.980323
 20
138.291103
 30
0.0
 11
427.980323
 21
138.291103
 31
0.0
  0
LINE
  5
8D
100
AcDbEntity
  8
0
  6
HIDDEN
 62
   174
100
AcDbLine
 10
431.980323
 20
163.201103
 30
0.0
 11
451.980323
 21
163.201103
 31
0.0
  0
LINE
  5
8E
100
AcDbEntity
  8
0
  6
HIDDEN
 62
   174
100
AcDbLine
 10
431.980323
 20
90.291103
 30
0.0
 11
451.980323
 21
90.291103
 31
0.0
  0
ARC
  5
8F
100
AcDbEntity
  8
0
  6
Continuous
 62
   174
100
AcDbCircle
 10
334.980323
 20
162.041103
 30
0.0
 40
3.0
100
AcDbArc
 50
0.0
 51
118.810059
  0
ARC
  5
90
100
AcDbEntity
  8
0
  6
Continuous
 62
   174
100
AcDbCircle
 10
240.480323
 20
114.041103
 30
0.0
 40
4.0
100
AcDbArc
 50
-180.0
 51
0.0
  0
ARC
  5
91
100
AcDbEntity
  8
0
  6
Continuous
 62
   174
100
AcDbCircle
 10
351.980323
 20
138.041103
 30
0.0
 40
4.0
100
AcDbArc
 50
0.0
 51
180.0
  0
ARC
  5
92
100
AcDbEntity
  8
0
  6
Continuous
 62
   174
100
AcDbCircle
 10
351.980323
 20
138.041103
 30
0.0
 40
4.0
100
AcDbArc
 50
-180.0
 51
0.0
  0
ARC
  5
93
100
AcDbEntity
  8
0
  6
Continuous
 62
   174
100
AcDbCircle
 10
273.980323
 20
150.041103
 30
0.0
 40
4.0
100
AcDbArc
 50
0.0
 51
180.0
  0
ARC
  5
94
100
AcDbEntity
  8
0
  6
Continuous
 62
   174
100
AcDbCircle
 10
273.980323
 20
150.041103
 30
0.0
 40
4.0
100
AcDbArc
 50
-180.0
 51
0.0
  0
ARC
  5
95
100
AcDbEntity
  8
0
  6
Continuous
 62
   174
100
AcDbCircle
 10
373.980323
 20
114.041103
 30
0.0
 40
4.0
100
AcDbArc
 50
0.0
 51
180.0
  0
ARC
  5
96
100
AcDbEntity
  8
0
  6
Continuous
 62
   174
100
AcDbCircle
 10
373.980323
 20
114.041103
 30
0.0
 40
4.0
100
AcDbArc
 50
-180.0
 51
0.0
  0
LINE
  5
97
100
AcDbEntity
  8
0
  6
HIDDEN
 62
   174
100
AcDbLine
 10
431.980323
 20
136.881103
 30
0.0
 11
451.980323
 21
136.881103
 31
0.0
  0
LINE
  5
98
100
AcDbEntity
  8
0
  6
HIDDEN
 62
   174
100
AcDbLine
 10
431.980323
 20
113.791103
 30
0.0
 11
451.980323
 21
113.791103
 31
0.0
  0
LINE
  5
99
100
AcDbEntity
  8
0
  6
HIDDEN
 62
   174
100
AcDbLine
 10
451.980323
 20
90.291103
 30
0.0
 11
427.980323
 21
90.291103
 31
0.0
  0
ARC
  5
9A
100
AcDbEntity
  8
0
  6
Continuous
 62
   174
100
AcDbCircle
 10
201.480323
 20
162.041103
 30
0.0
 40
3.0
100
AcDbArc
 50
0.0
 51
118.810059
  0
ARC
  5
9B
100
AcDbEntity
  8
0
  6
Continuous
 62
   174
100
AcDbCircle
 10
290.480323
 20
162.041103
 30
0.0
 40
3.0
100
AcDbArc
 50
-180.0
 51
0.0
  0
ARC
  5
9C
100
AcDbEntity
  8
0
  6
Continuous
 62
   174
100
AcDbCircle
 10
390.980323
 20
90.041103
 30
0.0
 40
2.5
100
AcDbArc
 50
0.0
 51
180.0
  0
LINE
  5
9D
100
AcDbEntity
  8
0
  6
HIDDEN
 62
   174
100
AcDbLine
 10
160.480323
 20
139.201103
 30
0.0
 11
140.480323
 21
139.201103
 31
0.0
  0
ARC
  5
9E
100
AcDbEntity
  8
0
  6
Continuous
 62
   174
100
AcDbCircle
 10
168.480323
 20
90.041103
 30
0.0
 40
2.5
100
AcDbArc
 50
0.0
 51
180.0
  0
ARC
  5
9F
100
AcDbEntity
  8
0
  6
Continuous
 62
   174
100
AcDbCircle
 10
423.980323
 20
162.041103
 30
0.0
 40
3.0
100
AcDbArc
 50
0.0
 51
118.807171
  0
LINE
  5
A0
100
AcDbEntity
  8
0
  6
HIDDEN
 62
   174
100
AcDbLine
 10
140.480323
 20
137.791103
 30
0.0
 11
164.480323
 21
137.791103
 31
0.0
  0
ARC
  5
A1
100
AcDbEntity
  8
0
  6
Continuous
 62
   174
100
AcDbCircle
 10
439.980323
 20
126.041103
 30
0.0
 40
4.5
100
AcDbArc
 50
0.0
 51
180.0
  0
ARC
  5
A2
100
AcDbEntity
  8
0
  6
Continuous
 62
   174
100
AcDbCircle
 10
379.480323
 20
162.041103
 30
0.0
 40
2.5
100
AcDbArc
 50
-180.0
 51
0.0
  0
ARC
  5
A3
100
AcDbEntity
  8
0
  6
Continuous
 62
   174
100
AcDbCircle
 10
152.480323
 20
162.041103
 30
0.0
 40
4.5
100
AcDbArc
 50
-180.0
 51
0.0
  0
ARC
  5
A4
100
AcDbEntity
  8
0
  6
Continuous
 62
   174
100
AcDbCircle
 10
290.480323
 20
162.041103
 30
0.0
 40
2.5
100
AcDbArc
 50
20.022354
 51
180.0
  0
ARC
  5
A5
100
AcDbEntity
  8
0
  6
Continuous
 62
   174
100
AcDbCircle
 10
390.980323
 20
90.041103
 30
0.0
 40
2.5
100
AcDbArc
 50
-180.0
 51
0.0
  0
ARC
  5
A6
100
AcDbEntity
  8
0
  6
Continuous
 62
   174
100
AcDbCircle
 10
257.480323
 20
90.041103
 30
0.0
 40
2.5
100
AcDbArc
 50
-180.0
 51
0.0
  0
ARC
  5
A7
100
AcDbEntity
  8
0
  6
Continuous
 62
   174
100
AcDbCircle
 10
168.480323
 20
90.041103
 30
0.0
 40
2.5
100
AcDbArc
 50
-180.0
 51
0.0
  0
LINE
  5
A8
100
AcDbEntity
  8
0
  6
HIDDEN
 62
   174
100
AcDbLine
 10
140.480323
 20
114.291103
 30
0.0
 11
164.480323
 21
114.291103
 31
0.0
  0
ARC
  5
A9
100
AcDbEntity
  8
0
  6
Continuous
 62
   174
100
AcDbCircle
 10
439.980323
 20
126.041103
 30
0.0
 40
4.5
100
AcDbArc
 50
-180.0
 51
0.0
  0
ARC
  5
AA
100
AcDbEntity
  8
0
  6
Continuous
 62
   174
100
AcDbCircle
 10
346.480323
 20
90.041103
 30
0.0
 40
3.0
100
AcDbArc
 50
-180.0
 51
0.0
  0
ARC
  5
AB
100
AcDbEntity
  8
0
  6
Continuous
 62
   174
100
AcDbCircle
 10
301.980323
 20
90.041103
 30
0.0
 40
2.5
100
AcDbArc
 50
156.636949
 51
180.0
  0
LINE
  5
AC
100
AcDbEntity
  8
0
  6
HIDDEN
 62
   174
100
AcDbLine
 10
140.480323
 20
137.791103
 30
0.0
 11
164.480323
 21
137.791103
 31
0.0
  0
ARC
  5
AD
100
AcDbEntity
  8
0
  6
Continuous
 62
   174
100
AcDbCircle
 10
290.480323
 20
162.041103
 30
0.0
 40
2.5
100
AcDbArc
 50
180.0
 51
339.977646
  0
LINE
  5
AE
100
AcDbEntity
  8
0
  6
HIDDEN
 62
   174
100
AcDbLine
 10
160.480323
 20
137.791103
 30
0.0
 11
140.480323
 21
137.791103
 31
0.0
  0
ARC
  5
AF
100
AcDbEntity
  8
0
  6
Continuous
 62
   174
100
AcDbCircle
 10
423.980323
 20
162.041103
 30
0.0
 40
2.5
100
AcDbArc
 50
0.0
 51
180.0
  0
ARC
  5
B0
100
AcDbEntity
  8
0
  6
Continuous
 62
   174
100
AcDbCircle
 10
152.480323
 20
90.041103
 30
0.0
 40
4.5
100
AcDbArc
 50
0.0
 51
180.0
  0
ARC
  5
B1
100
AcDbEntity
  8
0
  6
Continuous
 62
   174
100
AcDbCircle
 10
212.980323
 20
90.041103
 30
0.0
 40
2.5
100
AcDbArc
 50
0.0
 51
180.0
  0
ARC
  5
B2
100
AcDbEntity
  8
0
  6
Continuous
 62
   174
100
AcDbCircle
 10
201.480323
 20
162.041103
 30
0.0
 40
2.5
100
AcDbArc
 50
0.0
 51
180.0
  0
LINE
  5
B3
100
AcDbEntity
  8
0
  6
HIDDEN
 62
   174
100
AcDbLine
 10
140.480323
 20
114.291103
 30
0.0
 11
164.480323
 21
114.291103
 31
0.0
  0
LINE
  5
B4
100
AcDbEntity
  8
0
  6
HIDDEN
 62
   174
100
AcDbLine
 10
160.480323
 20
112.881103
 30
0.0
 11
140.480323
 21
112.881103
 31
0.0
  0
ARC
  5
B5
100
AcDbEntity
  8
0
  6
Continuous
 62
   174
100
AcDbCircle
 10
301.980323
 20
90.041103
 30
0.0
 40
2.5
100
AcDbArc
 50
180.0
 51
203.363051
  0
ARC
  5
B6
100
AcDbEntity
  8
0
  6
Continuous
 62
   174
100
AcDbCircle
 10
346.480323
 20
90.041103
 30
0.0
 40
3.0
100
AcDbArc
 50
0.0
 51
118.774077
  0
ARC
  5
B7
100
AcDbEntity
  8
0
  6
Continuous
 62
   174
100
AcDbCircle
 10
290.480323
 20
162.041103
 30
0.0
 40
2.5
100
AcDbArc
 50
-20.022354
 51
0.0
  0
ARC
  5
B8
100
AcDbEntity
  8
0
  6
Continuous
 62
   174
100
AcDbCircle
 10
423.980323
 20
162.041103
 30
0.0
 40
2.5
100
AcDbArc
 50
-180.0
 51
0.0
  0
LINE
  5
B9
100
AcDbEntity
  8
0
  6
HIDDEN
 62
   174
100
AcDbLine
 10
160.480323
 20
114.291103
 30
0.0
 11
140.480323
 21
114.291103
 31
0.0
  0
ARC
  5
BA
100
AcDbEntity
  8
0
  6
Continuous
 62
   174
100
AcDbCircle
 10
212.980323
 20
90.041103
 30
0.0
 40
2.5
100
AcDbArc
 50
-180.0
 51
0.0
  0
LINE
  5
BB
100
AcDbEntity
  8
0
  6
HIDDEN
 62
   174
100
AcDbLine
 10
160.480323
 20
139.199055
 30
0.0
 11
160.480323
 21
112.879236
 31
0.0
  0
ARC
  5
BC
100
AcDbEntity
  8
0
  6
Continuous
 62
   174
100
AcDbCircle
 10
201.480323
 20
162.041103
 30
0.0
 40
2.5
100
AcDbArc
 50
-180.0
 51
0.0
  0
ARC
  5
BD
100
AcDbEntity
  8
0
  6
Continuous
 62
   174
100
AcDbCircle
 10
301.980323
 20
90.041103
 30
0.0
 40
2.5
100
AcDbArc
 50
-156.636949
 51
0.0
  0
LINE
  5
BE
100
AcDbEntity
  8
0
  6
HIDDEN
 62
   174
100
AcDbLine
 10
160.480323
 20
137.791103
 30
0.0
 11
140.480323
 21
137.791103
 31
0.0
  0
ARC
  5
BF
100
AcDbEntity
  8
0
  6
Continuous
 62
   174
100
AcDbCircle
 10
212.980323
 20
90.041103
 30
0.0
 40
3.0
100
AcDbArc
 50
-180.0
 51
0.0
  0
ARC
  5
C0
100
AcDbEntity
  8
0
  6
Continuous
 62
   174
100
AcDbCircle
 10
290.480323
 20
162.041103
 30
0.0
 40
2.5
100
AcDbArc
 50
0.0
 51
20.022354
  0
LINE
  5
C1
100
AcDbEntity
  8
0
  6
HIDDEN
 62
   174
100
AcDbLine
 10
140.480323
 20
114.289598
 30
0.0
 11
140.480323
 21
137.789118
 31
0.0
  0
LINE
  5
C2
100
AcDbEntity
  8
0
  6
HIDDEN
 62
   174
100
AcDbLine
 10
160.480323
 20
114.291103
 30
0.0
 11
140.480323
 21
114.291103
 31
0.0
  0
LINE
  5
C3
100
AcDbEntity
  8
0
  6
HIDDEN
 62
   174
100
AcDbLine
 10
160.480323
 20
139.201103
 30
0.0
 11
140.480323
 21
139.201103
 31
0.0
  0
ARC
  5
C4
100
AcDbEntity
  8
0
  6
Continuous
 62
   174
100
AcDbCircle
 10
334.980323
 20
162.041103
 30
0.0
 40
2.5
100
AcDbArc
 50
0.0
 51
180.0
  0
ARC
  5
C5
100
AcDbEntity
  8
0
  6
Continuous
 62
   174
100
AcDbCircle
 10
257.480323
 20
90.041103
 30
0.0
 40
2.5
100
AcDbArc
 50
0.0
 51
180.0
  0
ARC
  5
C6
100
AcDbEntity
  8
0
  6
Continuous
 62
   174
100
AcDbCircle
 10
301.980323
 20
90.041103
 30
0.0
 40
2.5
100
AcDbArc
 50
0.0
 51
156.636949
  0
ARC
  5
C7
100
AcDbEntity
  8
0
  6
Continuous
 62
   174
100
AcDbCircle
 10
212.980323
 20
90.041103
 30
0.0
 40
3.0
100
AcDbArc
 50
0.0
 51
118.774077
  0
ARC
  5
C8
100
AcDbEntity
  8
0
  6
Continuous
 62
   174
100
AcDbCircle
 10
257.480323
 20
90.041103
 30
0.0
 40
3.0
100
AcDbArc
 50
0.0
 51
118.824842
  0
LINE
  5
C9
100
AcDbEntity
  8
0
  6
HIDDEN
 62
   174
100
AcDbLine
 10
140.480323
 20
139.199055
 30
0.0
 11
140.480323
 21
112.879236
 31
0.0
  0
ARC
  5
CA
100
AcDbEntity
  8
0
  6
Continuous
 62
   174
100
AcDbCircle
 10
334.980323
 20
162.041103
 30
0.0
 40
2.5
100
AcDbArc
 50
-180.0
 51
0.0
  0
ARC
  5
CB
100
AcDbEntity
  8
0
  6
Continuous
 62
   174
100
AcDbCircle
 10
346.480323
 20
90.041103
 30
0.0
 40
2.5
100
AcDbArc
 50
-180.0
 51
0.0
  0
ARC
  5
CC
100
AcDbEntity
  8
0
  6
Continuous
 62
   174
100
AcDbCircle
 10
390.980323
 20
90.041103
 30
0.0
 40
3.0
100
AcDbArc
 50
-180.0
 51
0.0
  0
ARC
  5
CD
100
AcDbEntity
  8
0
  6
Continuous
 62
   174
100
AcDbCircle
 10
245.980323
 20
162.041103
 30
0.0
 40
2.5
100
AcDbArc
 50
0.0
 51
180.0
  0
ARC
  5
CE
100
AcDbEntity
  8
0
  6
Continuous
 62
   174
100
AcDbCircle
 10
346.480323
 20
90.041103
 30
0.0
 40
2.5
100
AcDbArc
 50
0.0
 51
180.0
  0
LINE
  5
CF
100
AcDbEntity
  8
0
  6
HIDDEN
 62
   174
100
AcDbLine
 10
160.480323
 20
112.881103
 30
0.0
 11
140.480323
 21
112.881103
 31
0.0
  0
ARC
  5
D0
100
AcDbEntity
  8
0
  6
Continuous
 62
   174
100
AcDbCircle
 10
257.480323
 20
90.041103
 30
0.0
 40
3.0
100
AcDbArc
 50
-180.0
 51
0.0
  0
LINE
  5
D1
100
AcDbEntity
  8
0
  6
HIDDEN
 62
   174
100
AcDbLine
 10
164.480323
 20
137.789118
 30
0.0
 11
164.480323
 21
114.289598
 31
0.0
  0
ARC
  5
D2
100
AcDbEntity
  8
0
  6
Continuous
 62
   174
100
AcDbCircle
 10
390.980323
 20
90.041103
 30
0.0
 40
3.0
100
AcDbArc
 50
0.0
 51
118.810059
  0
ARC
  5
D3
100
AcDbEntity
  8
0
  6
Continuous
 62
   174
100
AcDbCircle
 10
423.980323
 20
162.041103
 30
0.0
 40
3.0
100
AcDbArc
 50
-180.0
 51
0.0
  0
ARC
  5
D4
100
AcDbEntity
  8
0
  6
Continuous
 62
   174
100
AcDbCircle
 10
152.480323
 20
90.041103
 30
0.0
 40
4.5
100
AcDbArc
 50
-180.0
 51
0.0
  0
ARC
  5
D5
100
AcDbEntity
  8
0
  6
Continuous
 62
   174
100
AcDbCircle
 10
152.480323
 20
162.041103
 30
0.0
 40
4.5
100
AcDbArc
 50
0.0
 51
180.0
  0
ARC
  5
D6
100
AcDbEntity
  8
0
  6
Continuous
 62
   174
100
AcDbCircle
 10
245.980323
 20
162.041103
 30
0.0
 40
2.5
100
AcDbArc
 50
-180.0
 51
0.0
  0
ARC
  5
D7
100
AcDbEntity
  8
0
  6
Continuous
 62
   174
100
AcDbCircle
 10
379.480323
 20
162.041103
 30
0.0
 40
2.5
100
AcDbArc
 50
0.0
 51
180.0
  0
ENDBLK
  5
D8
100
AcDbEntity
  8
0
100
AcDbBlockEnd
  0
BLOCK
  5
DB
100
AcDbEntity
  8
0
100
AcDbBlockBegin
  2
*B2
 70
     0
 10
0.0
 20
0.0
 30
0.0
  3
*B2
  1

  0
LINE
  5
DC
100
AcDbEntity
  8
0
  6
HIDDEN
 62
   174
100
AcDbLine
 10
314.516845
 20
336.806713
 30
0.0
 11
322.516419
 21
336.806713
 31
0.0
  0
LINE
  5
DD
100
AcDbEntity
  8
0
  6
HIDDEN
 62
   174
100
AcDbLine
 10
359.01647
 20
336.806713
 30
0.0
 11
367.016469
 21
336.806713
 31
0.0
  0
LINE
  5
DE
100
AcDbEntity
  8
0
  6
HIDDEN
 62
   174
100
AcDbLine
 10
180.980323
 20
336.906713
 30
0.0
 11
180.980323
 21
336.806713
 31
0.0
  0
LINE
  5
DF
100
AcDbEntity
  8
0
  6
HIDDEN
 62
   174
100
AcDbLine
 10
188.980323
 20
336.906713
 30
0.0
 11
188.980323
 21
336.806713
 31
0.0
  0
LINE
  5
E0
100
AcDbEntity
  8
0
  6
HIDDEN
 62
   174
100
AcDbLine
 10
180.980323
 20
336.906713
 30
0.0
 11
180.980323
 21
336.806713
 31
0.0
  0
LINE
  5
E1
100
AcDbEntity
  8
0
  6
HIDDEN
 62
   174
100
AcDbLine
 10
188.980323
 20
336.906713
 30
0.0
 11
188.980323
 21
336.806713
 31
0.0
  0
LINE
  5
E2
100
AcDbEntity
  8
0
  6
HIDDEN
 62
   174
100
AcDbLine
 10
180.980323
 20
336.906713
 30
0.0
 11
180.980323
 21
336.806713
 31
0.0
  0
LINE
  5
E3
100
AcDbEntity
  8
0
  6
HIDDEN
 62
   174
100
AcDbLine
 10
188.980323
 20
336.906713
 30
0.0
 11
188.980323
 21
336.806713
 31
0.0
  0
LINE
  5
E4
100
AcDbEntity
  8
0
  6
HIDDEN
 62
   174
100
AcDbLine
 10
180.980323
 20
336.906713
 30
0.0
 11
180.980323
 21
336.806713
 31
0.0
  0
LINE
  5
E5
100
AcDbEntity
  8
0
  6
HIDDEN
 62
   174
100
AcDbLine
 10
188.980323
 20
336.906713
 30
0.0
 11
188.980323
 21
336.806713
 31
0.0
  0
LINE
  5
E6
100
AcDbEntity
  8
0
  6
HIDDEN
 62
   174
100
AcDbLine
 10
225.480323
 20
336.906713
 30
0.0
 11
225.480323
 21
336.806713
 31
0.0
  0
LINE
  5
E7
100
AcDbEntity
  8
0
  6
HIDDEN
 62
   174
100
AcDbLine
 10
233.480323
 20
336.906713
 30
0.0
 11
233.480323
 21
336.806713
 31
0.0
  0
LINE
  5
E8
100
AcDbEntity
  8
0
  6
HIDDEN
 62
   174
100
AcDbLine
 10
225.480323
 20
336.906713
 30
0.0
 11
225.480323
 21
336.806713
 31
0.0
  0
LINE
  5
E9
100
AcDbEntity
  8
0
  6
HIDDEN
 62
   174
100
AcDbLine
 10
411.480323
 20
336.906713
 30
0.0
 11
411.480323
 21
336.806713
 31
0.0
  0
LINE
  5
EA
100
AcDbEntity
  8
0
  6
HIDDEN
 62
   174
100
AcDbLine
 10
314.480323
 20
336.906713
 30
0.0
 11
314.480323
 21
336.806713
 31
0.0
  0
LINE
  5
EB
100
AcDbEntity
  8
0
  6
HIDDEN
 62
   174
100
AcDbLine
 10
277.980323
 20
336.906713
 30
0.0
 11
277.980323
 21
336.806713
 31
0.0
  0
ARC
  5
EC
100
AcDbEntity
  8
0
  6
Continuous
 62
   174
100
AcDbCircle
 10
239.480323
 20
320.906713
 30
0.0
 40
9.73
100
AcDbArc
 50
-180.0
 51
0.0
  0
LINE
  5
ED
100
AcDbEntity
  8
0
  6
HIDDEN
 62
   174
100
AcDbLine
 10
233.480323
 20
336.906713
 30
0.0
 11
233.480323
 21
336.806713
 31
0.0
  0
LINE
  5
EE
100
AcDbEntity
  8
0
  6
HIDDEN
 62
   174
100
AcDbLine
 10
181.016693
 20
336.806713
 30
0.0
 11
189.016693
 21
336.806713
 31
0.0
  0
ARC
  5
EF
100
AcDbEntity
  8
0
  6
Continuous
 62
   174
100
AcDbCircle
 10
328.480323
 20
320.906713
 30
0.0
 40
9.73
100
AcDbArc
 50
0.0
 51
118.807171
  0
LINE
  5
F0
100
AcDbEntity
  8
0
  6
HIDDEN
 62
   174
100
AcDbLine
 10
314.480323
 20
336.906713
 30
0.0
 11
314.480323
 21
336.806713
 31
0.0
  0
LINE
  5
F1
100
AcDbEntity
  8
0
  6
HIDDEN
 62
   174
100
AcDbLine
 10
181.016693
 20
336.806713
 30
0.0
 11
189.016693
 21
336.806713
 31
0.0
  0
ARC
  5
F2
100
AcDbEntity
  8
0
  6
Continuous
 62
   174
100
AcDbCircle
 10
194.980323
 20
320.906713
 30
0.0
 40
8.75
100
AcDbArc
 50
0.0
 51
180.0
  0
ARC
  5
F3
100
AcDbEntity
  8
0
  6
Continuous
 62
   174
100
AcDbCircle
 10
417.480323
 20
320.906713
 30
0.0
 40
8.75
100
AcDbArc
 50
-180.0
 51
0.0
  0
LINE
  5
F4
100
AcDbEntity
  8
0
  6
HIDDEN
 62
   174
100
AcDbLine
 10
270.016794
 20
336.906713
 30
0.0
 11
278.016794
 21
336.906713
 31
0.0
  0
LINE
  5
F5
100
AcDbEntity
  8
0
  6
Continuous
 62
   174
100
AcDbLine
 10
140.480323
 20
336.906713
 30
0.0
 11
451.980323
 21
336.906713
 31
0.0
  0
LINE
  5
F6
100
AcDbEntity
  8
0
  6
HIDDEN
 62
   174
100
AcDbLine
 10
403.51652
 20
336.906713
 30
0.0
 11
411.51652
 21
336.906713
 31
0.0
  0
LINE
  5
F7
100
AcDbEntity
  8
0
  6
Continuous
 62
   174
100
AcDbLine
 10
140.480323
 20
276.906713
 30
0.0
 11
140.480323
 21
336.906713
 31
0.0
  0
LINE
  5
F8
100
AcDbEntity
  8
0
  6
HIDDEN
 62
   174
100
AcDbLine
 10
358.980323
 20
336.906713
 30
0.0
 11
358.980323
 21
336.806713
 31
0.0
  0
LINE
  5
F9
100
AcDbEntity
  8
0
  6
HIDDEN
 62
   174
100
AcDbLine
 10
403.480323
 20
336.906713
 30
0.0
 11
403.480323
 21
336.806713
 31
0.0
  0
LINE
  5
FA
100
AcDbEntity
  8
0
  6
HIDDEN
 62
   174
100
AcDbLine
 10
277.980323
 20
336.906713
 30
0.0
 11
277.980323
 21
336.806713
 31
0.0
  0
ARC
  5
FB
100
AcDbEntity
  8
0
  6
Continuous
 62
   174
100
AcDbCircle
 10
352.980323
 20
292.906713
 30
0.0
 40
9.73
100
AcDbArc
 50
-180.0
 51
0.0
  0
LINE
  5
FC
100
AcDbEntity
  8
0
  6
HIDDEN
 62
   174
100
AcDbLine
 10
277.980323
 20
336.906713
 30
0.0
 11
277.980323
 21
336.806713
 31
0.0
  0
LINE
  5
FD
100
AcDbEntity
  8
0
  6
HIDDEN
 62
   174
100
AcDbLine
 10
269.980323
 20
336.906713
 30
0.0
 11
269.980323
 21
336.806713
 31
0.0
  0
ARC
  5
FE
100
AcDbEntity
  8
0
  6
Continuous
 62
   174
100
AcDbCircle
 10
219.480323
 20
292.906713
 30
0.0
 40
8.75
100
AcDbArc
 50
0.0
 51
180.0
  0
LINE
  5
FF
100
AcDbEntity
  8
0
  6
HIDDEN
 62
   174
100
AcDbLine
 10
366.980323
 20
336.906713
 30
0.0
 11
366.980323
 21
336.806713
 31
0.0
  0
ARC
  5
100
100
AcDbEntity
  8
0
  6
Continuous
 62
   174
100
AcDbCircle
 10
352.980323
 20
292.906713
 30
0.0
 40
8.75
100
AcDbArc
 50
0.0
 51
180.0
  0
ARC
  5
101
100
AcDbEntity
  8
0
  6
Continuous
 62
   174
100
AcDbCircle
 10
239.480323
 20
320.906713
 30
0.0
 40
8.75
100
AcDbArc
 50
0.0
 51
180.0
  0
ARC
  5
102
100
AcDbEntity
  8
0
  6
Continuous
 62
   174
100
AcDbCircle
 10
372.980323
 20
320.906713
 30
0.0
 40
8.75
100
AcDbArc
 50
0.0
 51
180.0
  0
LINE
  5
103
100
AcDbEntity
  8
0
  6
Continuous
 62
   174
100
AcDbLine
 10
451.980323
 20
276.906713
 30
0.0
 11
451.980323
 21
336.906713
 31
0.0
  0
LINE
  5
104
100
AcDbEntity
  8
0
  6
HIDDEN
 62
   174
100
AcDbLine
 10
411.480323
 20
336.906713
 30
0.0
 11
411.480323
 21
336.806713
 31
0.0
  0
LINE
  5
105
100
AcDbEntity
  8
0
  6
HIDDEN
 62
   174
100
AcDbLine
 10
269.980323
 20
336.906713
 30
0.0
 11
269.980323
 21
336.806713
 31
0.0
  0
ARC
  5
106
100
AcDbEntity
  8
0
  6
Continuous
 62
   174
100
AcDbCircle
 10
219.480323
 20
292.906713
 30
0.0
 40
9.73
100
AcDbArc
 50
-180.0
 51
0.0
  0
LINE
  5
107
100
AcDbEntity
  8
0
  6
HIDDEN
 62
   174
100
AcDbLine
 10
314.480323
 20
336.906713
 30
0.0
 11
314.480323
 21
336.806713
 31
0.0
  0
LINE
  5
108
100
AcDbEntity
  8
0
  6
HIDDEN
 62
   174
100
AcDbLine
 10
269.980323
 20
336.906713
 30
0.0
 11
269.980323
 21
336.806713
 31
0.0
  0
ARC
  5
109
100
AcDbEntity
  8
0
  6
Continuous
 62
   174
100
AcDbCircle
 10
194.980323
 20
320.906713
 30
0.0
 40
9.73
100
AcDbArc
 50
0.0
 51
118.805294
  0
ARC
  5
10A
100
AcDbEntity
  8
0
  6
Continuous
 62
   174
100
AcDbCircle
 10
372.980323
 20
320.906713
 30
0.0
 40
9.73
100
AcDbArc
 50
-180.0
 51
0.0
  0
LINE
  5
10B
100
AcDbEntity
  8
0
  6
HIDDEN
 62
   174
100
AcDbLine
 10
233.480323
 20
336.906713
 30
0.0
 11
233.480323
 21
336.806713
 31
0.0
  0
ARC
  5
10C
100
AcDbEntity
  8
0
  6
Continuous
 62
   174
100
AcDbCircle
 10
219.480323
 20
292.906713
 30
0.0
 40
8.75
100
AcDbArc
 50
180.0
 51
360.0
  0
LINE
  5
10D
100
AcDbEntity
  8
0
  6
HIDDEN
 62
   174
100
AcDbLine
 10
181.016693
 20
336.906713
 30
0.0
 11
189.016693
 21
336.906713
 31
0.0
  0
LINE
  5
10E
100
AcDbEntity
  8
0
  6
HIDDEN
 62
   174
100
AcDbLine
 10
314.516845
 20
336.906713
 30
0.0
 11
322.516419
 21
336.906713
 31
0.0
  0
LINE
  5
10F
100
AcDbEntity
  8
0
  6
HIDDEN
 62
   174
100
AcDbLine
 10
366.980323
 20
336.906713
 30
0.0
 11
366.980323
 21
336.806713
 31
0.0
  0
LINE
  5
110
100
AcDbEntity
  8
0
  6
HIDDEN
 62
   174
100
AcDbLine
 10
403.480323
 20
336.906713
 30
0.0
 11
403.480323
 21
336.806713
 31
0.0
  0
ARC
  5
111
100
AcDbEntity
  8
0
  6
Continuous
 62
   174
100
AcDbCircle
 10
174.980323
 20
292.906713
 30
0.0
 40
9.73
100
AcDbArc
 50
0.0
 51
118.805294
  0
ARC
  5
112
100
AcDbEntity
  8
0
  6
Continuous
 62
   174
100
AcDbCircle
 10
397.480323
 20
292.906713
 30
0.0
 40
9.73
100
AcDbArc
 50
-180.0
 51
0.0
  0
ARC
  5
113
100
AcDbEntity
  8
0
  6
Continuous
 62
   174
100
AcDbCircle
 10
397.480323
 20
292.906713
 30
0.0
 40
9.73
100
AcDbArc
 50
0.0
 51
118.805294
  0
LINE
  5
114
100
AcDbEntity
  8
0
  6
HIDDEN
 62
   174
100
AcDbLine
 10
411.480323
 20
336.906713
 30
0.0
 11
411.480323
 21
336.806713
 31
0.0
  0
ARC
  5
115
100
AcDbEntity
  8
0
  6
Continuous
 62
   174
100
AcDbCircle
 10
239.480323
 20
320.906713
 30
0.0
 40
9.73
100
AcDbArc
 50
0.0
 51
118.807171
  0
LINE
  5
116
100
AcDbEntity
  8
0
  6
HIDDEN
 62
   174
100
AcDbLine
 10
314.480323
 20
336.906713
 30
0.0
 11
314.480323
 21
336.806713
 31
0.0
  0
LINE
  5
117
100
AcDbEntity
  8
0
  6
HIDDEN
 62
   174
100
AcDbLine
 10
322.480323
 20
336.906713
 30
0.0
 11
322.480323
 21
336.806713
 31
0.0
  0
LINE
  5
118
100
AcDbEntity
  8
0
  6
HIDDEN
 62
   174
100
AcDbLine
 10
322.480323
 20
336.906713
 30
0.0
 11
322.480323
 21
336.806713
 31
0.0
  0
LINE
  5
119
100
AcDbEntity
  8
0
  6
HIDDEN
 62
   174
100
AcDbLine
 10
358.980323
 20
336.906713
 30
0.0
 11
358.980323
 21
336.806713
 31
0.0
  0
ARC
  5
11A
100
AcDbEntity
  8
0
  6
Continuous
 62
   174
100
AcDbCircle
 10
352.980323
 20
292.906713
 30
0.0
 40
8.75
100
AcDbArc
 50
180.0
 51
360.0
  0
ARC
  5
11B
100
AcDbEntity
  8
0
  6
Continuous
 62
   174
100
AcDbCircle
 10
283.980323
 20
320.906713
 30
0.0
 40
8.75
100
AcDbArc
 50
0.0
 51
180.0
  0
ARC
  5
11C
100
AcDbEntity
  8
0
  6
Continuous
 62
   174
100
AcDbCircle
 10
417.480323
 20
320.906713
 30
0.0
 40
8.75
100
AcDbArc
 50
0.0
 51
180.0
  0
ARC
  5
11D
100
AcDbEntity
  8
0
  6
Continuous
 62
   174
100
AcDbCircle
 10
219.480323
 20
292.906713
 30
0.0
 40
9.73
100
AcDbArc
 50
0.0
 51
118.789674
  0
LINE
  5
11E
100
AcDbEntity
  8
0
  6
HIDDEN
 62
   174
100
AcDbLine
 10
322.480323
 20
336.906713
 30
0.0
 11
322.480323
 21
336.806713
 31
0.0
  0
ARC
  5
11F
100
AcDbEntity
  8
0
  6
Continuous
 62
   174
100
AcDbCircle
 10
308.480323
 20
292.906713
 30
0.0
 40
9.73
100
AcDbArc
 50
0.0
 51
118.810059
  0
ARC
  5
120
100
AcDbEntity
  8
0
  6
Continuous
 62
   174
100
AcDbCircle
 10
283.980323
 20
320.906713
 30
0.0
 40
9.73
100
AcDbArc
 50
0.0
 51
118.807171
  0
ARC
  5
121
100
AcDbEntity
  8
0
  6
Continuous
 62
   174
100
AcDbCircle
 10
417.480323
 20
320.906713
 30
0.0
 40
9.73
100
AcDbArc
 50
-180.0
 51
0.0
  0
ARC
  5
122
100
AcDbEntity
  8
0
  6
Continuous
 62
   174
100
AcDbCircle
 10
328.480323
 20
320.906713
 30
0.0
 40
8.75
100
AcDbArc
 50
0.0
 51
180.0
  0
ARC
  5
123
100
AcDbEntity
  8
0
  6
Continuous
 62
   174
100
AcDbCircle
 10
328.480323
 20
320.906713
 30
0.0
 40
8.75
100
AcDbArc
 50
-180.0
 51
0.0
  0
LINE
  5
124
100
AcDbEntity
  8
0
  6
HIDDEN
 62
   174
100
AcDbLine
 10
233.480323
 20
336.906713
 30
0.0
 11
233.480323
 21
336.806713
 31
0.0
  0
LINE
  5
125
100
AcDbEntity
  8
0
  6
HIDDEN
 62
   174
100
AcDbLine
 10
358.980323
 20
336.906713
 30
0.0
 11
358.980323
 21
336.806713
 31
0.0
  0
LINE
  5
126
100
AcDbEntity
  8
0
  6
HIDDEN
 62
   174
100
AcDbLine
 10
277.980323
 20
336.906713
 30
0.0
 11
277.980323
 21
336.806713
 31
0.0
  0
LINE
  5
127
100
AcDbEntity
  8
0
  6
HIDDEN
 62
   174
100
AcDbLine
 10
322.480323
 20
336.906713
 30
0.0
 11
322.480323
 21
336.806713
 31
0.0
  0
ARC
  5
128
100
AcDbEntity
  8
0
  6
Continuous
 62
   174
100
AcDbCircle
 10
263.980323
 20
292.906713
 30
0.0
 40
8.75
100
AcDbArc
 50
180.0
 51
360.0
  0
ARC
  5
129
100
AcDbEntity
  8
0
  6
Continuous
 62
   174
100
AcDbCircle
 10
308.480323
 20
292.906713
 30
0.0
 40
8.75
100
AcDbArc
 50
0.0
 51
180.0
  0
ARC
  5
12A
100
AcDbEntity
  8
0
  6
Continuous
 62
   174
100
AcDbCircle
 10
308.480323
 20
292.906713
 30
0.0
 40
8.75
100
AcDbArc
 50
180.0
 51
360.0
  0
LINE
  5
12B
100
AcDbEntity
  8
0
  6
HIDDEN
 62
   174
100
AcDbLine
 10
181.016693
 20
336.906713
 30
0.0
 11
189.016693
 21
336.906713
 31
0.0
  0
ARC
  5
12C
100
AcDbEntity
  8
0
  6
Continuous
 62
   174
100
AcDbCircle
 10
397.480323
 20
292.906713
 30
0.0
 40
8.75
100
AcDbArc
 50
-180.0
 51
0.0
  0
LINE
  5
12D
100
AcDbEntity
  8
0
  6
Continuous
 62
   174
100
AcDbLine
 10
140.480323
 20
276.906713
 30
0.0
 11
451.980323
 21
276.906713
 31
0.0
  0
ARC
  5
12E
100
AcDbEntity
  8
0
  6
Continuous
 62
   174
100
AcDbCircle
 10
239.480323
 20
320.906713
 30
0.0
 40
8.75
100
AcDbArc
 50
-180.0
 51
0.0
  0
ARC
  5
12F
100
AcDbEntity
  8
0
  6
Continuous
 62
   174
100
AcDbCircle
 10
372.980323
 20
320.906713
 30
0.0
 40
8.75
100
AcDbArc
 50
-180.0
 51
0.0
  0
ARC
  5
130
100
AcDbEntity
  8
0
  6
Continuous
 62
   174
100
AcDbCircle
 10
263.980323
 20
292.906713
 30
0.0
 40
9.73
100
AcDbArc
 50
-180.0
 51
0.0
  0
ARC
  5
131
100
AcDbEntity
  8
0
  6
Continuous
 62
   174
100
AcDbCircle
 10
263.980323
 20
292.906713
 30
0.0
 40
9.73
100
AcDbArc
 50
0.0
 51
118.810059
  0
LINE
  5
132
100
AcDbEntity
  8
0
  6
HIDDEN
 62
   174
100
AcDbLine
 10
403.480323
 20
336.906713
 30
0.0
 11
403.480323
 21
336.806713
 31
0.0
  0
ARC
  5
133
100
AcDbEntity
  8
0
  6
Continuous
 62
   174
100
AcDbCircle
 10
308.480323
 20
292.906713
 30
0.0
 40
9.73
100
AcDbArc
 50
-180.0
 51
0.0
  0
ARC
  5
134
100
AcDbEntity
  8
0
  6
Continuous
 62
   174
100
AcDbCircle
 10
283.980323
 20
320.906713
 30
0.0
 40
9.73
100
AcDbArc
 50
-180.0
 51
0.0
  0
ARC
  5
135
100
AcDbEntity
  8
0
  6
Continuous
 62
   174
100
AcDbCircle
 10
194.980323
 20
320.906713
 30
0.0
 40
9.73
100
AcDbArc
 50
-180.0
 51
0.0
  0
ARC
  5
136
100
AcDbEntity
  8
0
  6
Continuous
 62
   174
100
AcDbCircle
 10
328.480323
 20
320.906713
 30
0.0
 40
9.73
100
AcDbArc
 50
-180.0
 51
0.0
  0
LINE
  5
137
100
AcDbEntity
  8
0
  6
HIDDEN
 62
   174
100
AcDbLine
 10
366.980323
 20
336.906713
 30
0.0
 11
366.980323
 21
336.806713
 31
0.0
  0
LINE
  5
138
100
AcDbEntity
  8
0
  6
HIDDEN
 62
   174
100
AcDbLine
 10
366.980323
 20
336.906713
 30
0.0
 11
366.980323
 21
336.806713
 31
0.0
  0
LINE
  5
139
100
AcDbEntity
  8
0
  6
HIDDEN
 62
   174
100
AcDbLine
 10
269.980323
 20
336.906713
 30
0.0
 11
269.980323
 21
336.806713
 31
0.0
  0
ARC
  5
13A
100
AcDbEntity
  8
0
  6
Continuous
 62
   174
100
AcDbCircle
 10
174.980323
 20
292.906713
 30
0.0
 40
9.73
100
AcDbArc
 50
-180.0
 51
0.0
  0
LINE
  5
13B
100
AcDbEntity
  8
0
  6
HIDDEN
 62
   174
100
AcDbLine
 10
411.480323
 20
336.906713
 30
0.0
 11
411.480323
 21
336.806713
 31
0.0
  0
LINE
  5
13C
100
AcDbEntity
  8
0
  6
HIDDEN
 62
   174
100
AcDbLine
 10
403.480323
 20
336.906713
 30
0.0
 11
403.480323
 21
336.806713
 31
0.0
  0
ARC
  5
13D
100
AcDbEntity
  8
0
  6
Continuous
 62
   174
100
AcDbCircle
 10
352.980323
 20
292.906713
 30
0.0
 40
9.73
100
AcDbArc
 50
0.0
 51
118.789674
  0
ARC
  5
13E
100
AcDbEntity
  8
0
  6
Continuous
 62
   174
100
AcDbCircle
 10
372.980323
 20
320.906713
 30
0.0
 40
9.73
100
AcDbArc
 50
0.0
 51
118.805294
  0
ARC
  5
13F
100
AcDbEntity
  8
0
  6
Continuous
 62
   174
100
AcDbCircle
 10
417.480323
 20
320.906713
 30
0.0
 40
9.73
100
AcDbArc
 50
0.0
 51
118.805294
  0
LINE
  5
140
100
AcDbEntity
  8
0
  6
HIDDEN
 62
   174
100
AcDbLine
 10
225.480323
 20
336.906713
 30
0.0
 11
225.480323
 21
336.806713
 31
0.0
  0
LINE
  5
141
100
AcDbEntity
  8
0
  6
HIDDEN
 62
   174
100
AcDbLine
 10
225.480323
 20
336.906713
 30
0.0
 11
225.480323
 21
336.806713
 31
0.0
  0
ARC
  5
142
100
AcDbEntity
  8
0
  6
Continuous
 62
   174
100
AcDbCircle
 10
174.980323
 20
292.906713
 30
0.0
 40
8.75
100
AcDbArc
 50
0.0
 51
180.0
  0
ARC
  5
143
100
AcDbEntity
  8
0
  6
Continuous
 62
   174
100
AcDbCircle
 10
174.980323
 20
292.906713
 30
0.0
 40
8.75
100
AcDbArc
 50
-180.0
 51
0.0
  0
ARC
  5
144
100
AcDbEntity
  8
0
  6
Continuous
 62
   174
100
AcDbCircle
 10
263.980323
 20
292.906713
 30
0.0
 40
8.75
100
AcDbArc
 50
0.0
 51
180.0
  0
LINE
  5
145
100
AcDbEntity
  8
0
  6
HIDDEN
 62
   174
100
AcDbLine
 10
358.980323
 20
336.906713
 30
0.0
 11
358.980323
 21
336.806713
 31
0.0
  0
ARC
  5
146
100
AcDbEntity
  8
0
  6
Continuous
 62
   174
100
AcDbCircle
 10
397.480323
 20
292.906713
 30
0.0
 40
8.75
100
AcDbArc
 50
0.0
 51
180.0
  0
ARC
  5
147
100
AcDbEntity
  8
0
  6
Continuous
 62
   174
100
AcDbCircle
 10
194.980323
 20
320.906713
 30
0.0
 40
8.75
100
AcDbArc
 50
-180.0
 51
0.0
  0
ARC
  5
148
100
AcDbEntity
  8
0
  6
Continuous
 62
   174
100
AcDbCircle
 10
283.980323
 20
320.906713
 30
0.0
 40
8.75
100
AcDbArc
 50
-180.0
 51
0.0
  0
LINE
  5
149
100
AcDbEntity
  8
0
  6
HIDDEN
 62
   174
100
AcDbLine
 10
270.016794
 20
336.906713
 30
0.0
 11
278.016794
 21
336.906713
 31
0.0
  0
LINE
  5
14A
100
AcDbEntity
  8
0
  6
HIDDEN
 62
   174
100
AcDbLine
 10
427.980323
 20
306.901993
 30
0.0
 11
427.980323
 21
318.651752
 31
0.0
  0
LINE
  5
14B
100
AcDbEntity
  8
0
  6
HIDDEN
 62
   174
100
AcDbLine
 10
451.980323
 20
293.742296
 30
0.0
 11
451.980323
 21
306.901993
 31
0.0
  0
LINE
  5
14C
100
AcDbEntity
  8
0
  6
HIDDEN
 62
   174
100
AcDbLine
 10
403.51652
 20
336.806713
 30
0.0
 11
411.51652
 21
336.806713
 31
0.0
  0
LINE
  5
14D
100
AcDbEntity
  8
0
  6
HIDDEN
 62
   174
100
AcDbLine
 10
451.980323
 20
318.656713
 30
0.0
 11
427.980323
 21
318.656713
 31
0.0
  0
LINE
  5
14E
100
AcDbEntity
  8
0
  6
HIDDEN
 62
   174
100
AcDbLine
 10
225.516744
 20
336.806713
 30
0.0
 11
233.516743
 21
336.806713
 31
0.0
  0
LINE
  5
14F
100
AcDbEntity
  8
0
  6
HIDDEN
 62
   174
100
AcDbLine
 10
431.980323
 20
320.066713
 30
0.0
 11
451.980323
 21
320.066713
 31
0.0
  0
LINE
  5
150
100
AcDbEntity
  8
0
  6
HIDDEN
 62
   174
100
AcDbLine
 10
403.51652
 20
336.906713
 30
0.0
 11
411.51652
 21
336.906713
 31
0.0
  0
LINE
  5
151
100
AcDbEntity
  8
0
  6
HIDDEN
 62
   174
100
AcDbLine
 10
451.980323
 20
306.901993
 30
0.0
 11
451.980323
 21
295.152233
 31
0.0
  0
LINE
  5
152
100
AcDbEntity
  8
0
  6
HIDDEN
 62
   174
100
AcDbLine
 10
431.980323
 20
295.156713
 30
0.0
 11
451.980323
 21
295.156713
 31
0.0
  0
LINE
  5
153
100
AcDbEntity
  8
0
  6
HIDDEN
 62
   174
100
AcDbLine
 10
444.480323
 20
336.906713
 30
0.0
 11
444.480323
 21
276.906713
 31
0.0
  0
LINE
  5
154
100
AcDbEntity
  8
0
  6
HIDDEN
 62
   174
100
AcDbLine
 10
431.980323
 20
293.742296
 30
0.0
 11
431.980323
 21
306.901993
 31
0.0
  0
LINE
  5
155
100
AcDbEntity
  8
0
  6
HIDDEN
 62
   174
100
AcDbLine
 10
451.980323
 20
295.156713
 30
0.0
 11
427.980323
 21
295.156713
 31
0.0
  0
LINE
  5
156
100
AcDbEntity
  8
0
  6
HIDDEN
 62
   174
100
AcDbLine
 10
225.516744
 20
336.906713
 30
0.0
 11
233.516743
 21
336.906713
 31
0.0
  0
LINE
  5
157
100
AcDbEntity
  8
0
  6
HIDDEN
 62
   174
100
AcDbLine
 10
435.480323
 20
336.906713
 30
0.0
 11
435.480323
 21
276.906713
 31
0.0
  0
LINE
  5
158
100
AcDbEntity
  8
0
  6
HIDDEN
 62
   174
100
AcDbLine
 10
435.516518
 20
276.906713
 30
0.0
 11
444.516624
 21
276.906713
 31
0.0
  0
LINE
  5
159
100
AcDbEntity
  8
0
  6
HIDDEN
 62
   174
100
AcDbLine
 10
427.980323
 20
306.901993
 30
0.0
 11
427.980323
 21
295.152233
 31
0.0
  0
LINE
  5
15A
100
AcDbEntity
  8
0
  6
HIDDEN
 62
   174
100
AcDbLine
 10
270.016794
 20
336.806713
 30
0.0
 11
278.016794
 21
336.806713
 31
0.0
  0
LINE
  5
15B
100
AcDbEntity
  8
0
  6
HIDDEN
 62
   174
100
AcDbLine
 10
444.480323
 20
336.906713
 30
0.0
 11
444.480323
 21
276.906713
 31
0.0
  0
LINE
  5
15C
100
AcDbEntity
  8
0
  6
HIDDEN
 62
   174
100
AcDbLine
 10
435.516518
 20
336.906713
 30
0.0
 11
444.516624
 21
336.906713
 31
0.0
  0
LINE
  5
15D
100
AcDbEntity
  8
0
  6
HIDDEN
 62
   174
100
AcDbLine
 10
359.01647
 20
336.806713
 30
0.0
 11
367.016469
 21
336.806713
 31
0.0
  0
LINE
  5
15E
100
AcDbEntity
  8
0
  6
HIDDEN
 62
   174
100
AcDbLine
 10
451.980323
 20
318.651752
 30
0.0
 11
451.980323
 21
306.901993
 31
0.0
  0
LINE
  5
15F
100
AcDbEntity
  8
0
  6
HIDDEN
 62
   174
100
AcDbLine
 10
225.516744
 20
336.806713
 30
0.0
 11
233.516743
 21
336.806713
 31
0.0
  0
LINE
  5
160
100
AcDbEntity
  8
0
  6
HIDDEN
 62
   174
100
AcDbLine
 10
431.980323
 20
306.901993
 30
0.0
 11
431.980323
 21
320.06169
 31
0.0
  0
LINE
  5
161
100
AcDbEntity
  8
0
  6
HIDDEN
 62
   174
100
AcDbLine
 10
147.980323
 20
336.906713
 30
0.0
 11
147.980323
 21
276.906713
 31
0.0
  0
LINE
  5
162
100
AcDbEntity
  8
0
  6
HIDDEN
 62
   174
100
AcDbLine
 10
147.980323
 20
336.906713
 30
0.0
 11
147.980323
 21
276.906713
 31
0.0
  0
LINE
  5
163
100
AcDbEntity
  8
0
  6
HIDDEN
 62
   174
100
AcDbLine
 10
359.01647
 20
336.906713
 30
0.0
 11
367.016469
 21
336.906713
 31
0.0
  0
LINE
  5
164
100
AcDbEntity
  8
0
  6
HIDDEN
 62
   174
100
AcDbLine
 10
156.980323
 20
336.906713
 30
0.0
 11
156.980323
 21
276.906713
 31
0.0
  0
LINE
  5
165
100
AcDbEntity
  8
0
  6
HIDDEN
 62
   174
100
AcDbLine
 10
314.516845
 20
336.906713
 30
0.0
 11
322.516419
 21
336.906713
 31
0.0
  0
LINE
  5
166
100
AcDbEntity
  8
0
  6
HIDDEN
 62
   174
100
AcDbLine
 10
156.980323
 20
336.906713
 30
0.0
 11
156.980323
 21
276.906713
 31
0.0
  0
LINE
  5
167
100
AcDbEntity
  8
0
  6
HIDDEN
 62
   174
100
AcDbLine
 10
147.980323
 20
336.906713
 30
0.0
 11
147.980323
 21
276.906713
 31
0.0
  0
LINE
  5
168
100
AcDbEntity
  8
0
  6
HIDDEN
 62
   174
100
AcDbLine
 10
431.980323
 20
293.746713
 30
0.0
 11
451.980323
 21
293.746713
 31
0.0
  0
LINE
  5
169
100
AcDbEntity
  8
0
  6
HIDDEN
 62
   174
100
AcDbLine
 10
314.516845
 20
336.806713
 30
0.0
 11
322.516419
 21
336.806713
 31
0.0
  0
LINE
  5
16A
100
AcDbEntity
  8
0
  6
HIDDEN
 62
   174
100
AcDbLine
 10
147.980323
 20
336.906713
 30
0.0
 11
147.980323
 21
276.906713
 31
0.0
  0
LINE
  5
16B
100
AcDbEntity
  8
0
  6
HIDDEN
 62
   174
100
AcDbLine
 10
270.016794
 20
336.806713
 30
0.0
 11
278.016794
 21
336.806713
 31
0.0
  0
LINE
  5
16C
100
AcDbEntity
  8
0
  6
HIDDEN
 62
   174
100
AcDbLine
 10
156.980323
 20
336.906713
 30
0.0
 11
156.980323
 21
276.906713
 31
0.0
  0
LINE
  5
16D
100
AcDbEntity
  8
0
  6
HIDDEN
 62
   174
100
AcDbLine
 10
403.51652
 20
336.806713
 30
0.0
 11
411.51652
 21
336.806713
 31
0.0
  0
LINE
  5
16E
100
AcDbEntity
  8
0
  6
HIDDEN
 62
   174
100
AcDbLine
 10
156.980323
 20
336.906713
 30
0.0
 11
156.980323
 21
276.906713
 31
0.0
  0
LINE
  5
16F
100
AcDbEntity
  8
0
  6
HIDDEN
 62
   174
100
AcDbLine
 10
148.016589
 20
276.906713
 30
0.0
 11
157.016695
 21
276.906713
 31
0.0
  0
LINE
  5
170
100
AcDbEntity
  8
0
  6
HIDDEN
 62
   174
100
AcDbLine
 10
225.516744
 20
336.906713
 30
0.0
 11
233.516743
 21
336.906713
 31
0.0
  0
LINE
  5
171
100
AcDbEntity
  8
0
  6
HIDDEN
 62
   174
100
AcDbLine
 10
435.480323
 20
336.906713
 30
0.0
 11
435.480323
 21
276.906713
 31
0.0
  0
LINE
  5
172
100
AcDbEntity
  8
0
  6
HIDDEN
 62
   174
100
AcDbLine
 10
148.016589
 20
276.906713
 30
0.0
 11
157.016695
 21
276.906713
 31
0.0
  0
LINE
  5
173
100
AcDbEntity
  8
0
  6
HIDDEN
 62
   174
100
AcDbLine
 10
359.01647
 20
336.906713
 30
0.0
 11
367.016469
 21
336.906713
 31
0.0
  0
LINE
  5
174
100
AcDbEntity
  8
0
  6
HIDDEN
 62
   174
100
AcDbLine
 10
431.980323
 20
318.656713
 30
0.0
 11
451.980323
 21
318.656713
 31
0.0
  0
LINE
  5
175
100
AcDbEntity
  8
0
  6
HIDDEN
 62
   174
100
AcDbLine
 10
451.980323
 20
306.901993
 30
0.0
 11
451.980323
 21
320.06169
 31
0.0
  0
LINE
  5
176
100
AcDbEntity
  8
0
  6
HIDDEN
 62
   174
100
AcDbLine
 10
148.016589
 20
336.906713
 30
0.0
 11
157.016695
 21
336.906713
 31
0.0
  0
LINE
  5
177
100
AcDbEntity
  8
0
  6
HIDDEN
 62
   174
100
AcDbLine
 10
148.016589
 20
336.906713
 30
0.0
 11
157.016695
 21
336.906713
 31
0.0
  0
ENDBLK
  5
178
100
AcDbEntity
  8
0
100
AcDbBlockEnd
  0
BLOCK
  5
17B
100
AcDbEntity
  8
0
100
AcDbBlockBegin
  2
*B3
 70
     0
 10
0.0
 20
0.0
 30
0.0
  3
*B3
  1

  0
LINE
  5
17C
100
AcDbEntity
  8
0
  6
DOTTED
 62
   152
100
AcDbLine
 10
384.480323
 20
380.906713
 30
0.0
 11
428.480323
 21
380.906713
 31
0.0
  0
LINE
  5
17D
100
AcDbEntity
  8
0
  6
DOTTED
 62
   152
100
AcDbLine
 10
340.480323
 20
336.873492
 30
0.0
 11
340.480323
 21
380.906713
 31
0.0
  0
LINE
  5
17E
100
AcDbEntity
  8
0
  6
DOTTED
 62
   152
100
AcDbLine
 10
384.480323
 20
380.906713
 30
0.0
 11
384.480323
 21
337.273492
 31
0.0
  0
LINE
  5
17F
100
AcDbEntity
  8
0
  6
DOTTED
 62
   152
100
AcDbLine
 10
384.480323
 20
336.873492
 30
0.0
 11
384.480323
 21
380.906713
 31
0.0
  0
LINE
  5
180
100
AcDbEntity
  8
0
  6
DOTTED
 62
   152
100
AcDbLine
 10
428.480323
 20
380.906713
 30
0.0
 11
428.480323
 21
337.273492
 31
0.0
  0
LINE
  5
181
100
AcDbEntity
  8
0
  6
DOTTED
 62
   152
100
AcDbLine
 10
340.480323
 20
380.906713
 30
0.0
 11
384.480323
 21
380.906713
 31
0.0
  0
LINE
  5
182
100
AcDbEntity
  8
0
  6
DOTTED
 62
   152
100
AcDbLine
 10
296.480323
 20
380.906713
 30
0.0
 11
340.480323
 21
380.906713
 31
0.0
  0
LINE
  5
183
100
AcDbEntity
  8
0
  6
DOTTED
 62
   152
100
AcDbLine
 10
340.480323
 20
380.906713
 30
0.0
 11
340.480323
 21
337.273492
 31
0.0
  0
LINE
  5
184
100
AcDbEntity
  8
0
  6
DOTTED
 62
   152
100
AcDbLine
 10
296.480323
 20
336.873492
 30
0.0
 11
296.480323
 21
380.906713
 31
0.0
  0
LINE
  5
185
100
AcDbEntity
  8
0
  6
DOTTED
 62
   152
100
AcDbLine
 10
252.480323
 20
380.906713
 30
0.0
 11
296.480323
 21
380.906713
 31
0.0
  0
LINE
  5
186
100
AcDbEntity
  8
0
  6
DOTTED
 62
   152
100
AcDbLine
 10
296.480323
 20
380.906713
 30
0.0
 11
296.480323
 21
337.273492
 31
0.0
  0
LINE
  5
187
100
AcDbEntity
  8
0
  6
DOTTED
 62
   152
100
AcDbLine
 10
252.480323
 20
336.873492
 30
0.0
 11
252.480323
 21
380.906713
 31
0.0
  0
LINE
  5
188
100
AcDbEntity
  8
0
  6
DOTTED
 62
   152
100
AcDbLine
 10
208.480323
 20
380.906713
 30
0.0
 11
252.480323
 21
380.906713
 31
0.0
  0
LINE
  5
189
100
AcDbEntity
  8
0
  6
DOTTED
 62
   152
100
AcDbLine
 10
252.480323
 20
380.906713
 30
0.0
 11
252.480323
 21
337.273492
 31
0.0
  0
LINE
  5
18A
100
AcDbEntity
  8
0
  6
DOTTED
 62
   152
100
AcDbLine
 10
164.480323
 20
336.873492
 30
0.0
 11
164.480323
 21
380.906713
 31
0.0
  0
LINE
  5
18B
100
AcDbEntity
  8
0
  6
DOTTED
 62
   152
100
AcDbLine
 10
164.480323
 20
380.906713
 30
0.0
 11
208.480323
 21
380.906713
 31
0.0
  0
LINE
  5
18C
100
AcDbEntity
  8
0
  6
DOTTED
 62
   152
100
AcDbLine
 10
208.480323
 20
337.273492
 30
0.0
 11
208.480323
 21
336.913492
 31
0.0
  0
LINE
  5
18D
100
AcDbEntity
  8
0
  6
DOTTED
 62
   152
100
AcDbLine
 10
208.480323
 20
336.873492
 30
0.0
 11
208.480323
 21
380.906713
 31
0.0
  0
LINE
  5
18E
100
AcDbEntity
  8
0
  6
DOTTED
 62
   152
100
AcDbLine
 10
208.480323
 20
380.906713
 30
0.0
 11
208.480323
 21
337.273492
 31
0.0
  0
ENDBLK
  5
18F
100
AcDbEntity
  8
0
100
AcDbBlockEnd
  0
BLOCK
  5
192
100
AcDbEntity
  8
0
100
AcDbBlockBegin
  2
*B4
 70
     0
 10
0.0
 20
0.0
 30
0.0
  3
*B4
  1

  0
LINE
  5
193
100
AcDbEntity
  8
0
  6
Continuous
 62
     0
100
AcDbLine
 10
102.381524
 20
276.902633
 30
0.0
 11
102.381524
 21
336.901352
 31
0.0
  0
SOLID
  5
194
100
AcDbEntity
  8
0
  6
Continuous
 62
     0
100
AcDbTrace
 10
101.381418
 20
281.902313
 30
0.0
 11
102.381524
 21
276.902633
 31
0.0
 12
103.381205
 22
281.902313
 32
0.0
 13
103.381205
 23
281.902313
 33
0.0
  0
SOLID
  5
195
100
AcDbEntity
  8
0
  6
Continuous
 62
     0
100
AcDbTrace
 10
103.381205
 20
331.901672
 30
0.0
 11
102.381524
 21
336.901352
 31
0.0
 12
101.381418
 22
331.901672
 32
0.0
 13
101.381418
 23
331.901672
 33
0.0
  0
ENDBLK
  5
196
100
AcDbEntity
  8
0
100
AcDbBlockEnd
  0
BLOCK
  5
199
100
AcDbEntity
  8
0
100
AcDbBlockBegin
  2
*B5
 70
     0
 10
0.0
 20
0.0
 30
0.0
  3
*B5
  1

  0
LINE
  5
19A
100
AcDbEntity
  8
0
  6
Continuous
 62
     0
100
AcDbLine
 10
102.381524
 20
336.901352
 30
0.0
 11
102.381524
 21
380.900924
 31
0.0
  0
SOLID
  5
19B
100
AcDbEntity
  8
0
  6
Continuous
 62
     0
100
AcDbTrace
 10
101.381418
 20
341.901459
 30
0.0
 11
102.381524
 21
336.901352
 31
0.0
 12
103.381205
 22
341.901459
 32
0.0
 13
103.381205
 23
341.901459
 33
0.0
  0
SOLID
  5
19C
100
AcDbEntity
  8
0
  6
Continuous
 62
     0
100
AcDbTrace
 10
103.381205
 20
375.900818
 30
0.0
 11
102.381524
 21
380.900924
 31
0.0
 12
101.381418
 22
375.900818
 32
0.0
 13
101.381418
 23
375.900818
 33
0.0
  0
ENDBLK
  5
19D
100
AcDbEntity
  8
0
100
AcDbBlockEnd
  0
BLOCK
  5
1A0
100
AcDbEntity
  8
0
100
AcDbBlockBegin
  2
*B6
 70
     0
 10
0.0
 20
0.0
 30
0.0
  3
*B6
  1

  0
LINE
  5
1A1
100
AcDbEntity
  8
0
  6
Continuous
 62
     0
100
AcDbLine
 10
122.03638
 20
320.901779
 30
0.0
 11
122.03638
 21
292.902206
 31
0.0
  0
SOLID
  5
1A2
100
AcDbEntity
  8
0
  6
Continuous
 62
     0
100
AcDbTrace
 10
123.036486
 20
315.901673
 30
0.0
 11
122.03638
 21
320.901779
 31
0.0
 12
121.036273
 22
315.901673
 32
0.0
 13
121.036273
 23
315.901673
 33
0.0
  0
SOLID
  5
1A3
100
AcDbEntity
  8
0
  6
Continuous
 62
     0
100
AcDbTrace
 10
121.036273
 20
297.902312
 30
0.0
 11
122.03638
 21
292.902206
 31
0.0
 12
123.036486
 22
297.902312
 32
0.0
 13
123.036486
 23
297.902312
 33
0.0
  0
ENDBLK
  5
1A4
100
AcDbEntity
  8
0
100
AcDbBlockEnd
  0
BLOCK
  5
1A7
100
AcDbEntity
  8
0
100
AcDbBlockBegin
  2
*B7
 70
     0
 10
0.0
 20
0.0
 30
0.0
  3
*B7
  1

  0
LINE
  5
1A8
100
AcDbEntity
  8
0
  6
Continuous
 62
     0
100
AcDbLine
 10
122.03638
 20
302.901993
 30
0.0
 11
122.03638
 21
266.902421
 31
0.0
  0
SOLID
  5
1A9
100
AcDbEntity
  8
0
  6
Continuous
 62
     0
100
AcDbTrace
 10
121.036273
 20
297.902312
 30
0.0
 11
122.03638
 21
292.902206
 31
0.0
 12
123.036486
 22
297.902312
 32
0.0
 13
123.036486
 23
297.902312
 33
0.0
  0
SOLID
  5
1AA
100
AcDbEntity
  8
0
  6
Continuous
 62
     0
100
AcDbTrace
 10
123.036486
 20
271.902527
 30
0.0
 11
122.03638
 21
276.902633
 31
0.0
 12
121.036273
 22
271.902527
 32
0.0
 13
121.036273
 23
271.902527
 33
0.0
  0
ENDBLK
  5
1AB
100
AcDbEntity
  8
0
100
AcDbBlockEnd
  0
BLOCK
  5
1AE
100
AcDbEntity
  8
0
100
AcDbBlockBegin
  2
*B8
 70
     0
 10
0.0
 20
0.0
 30
0.0
  3
*B8
  1

  0
LINE
  5
1AF
100
AcDbEntity
  8
0
  6
Continuous
 62
     0
100
AcDbLine
 10
165.016694
 20
259.468864
 30
0.0
 11
205.016692
 21
259.468864
 31
0.0
  0
SOLID
  5
1B0
100
AcDbEntity
  8
0
  6
Continuous
 62
     0
100
AcDbTrace
 10
170.0168
 20
258.468758
 30
0.0
 11
175.016906
 21
259.468864
 31
0.0
 12
170.0168
 22
260.468545
 32
0.0
 13
170.0168
 23
260.468545
 33
0.0
  0
SOLID
  5
1B1
100
AcDbEntity
  8
0
  6
Continuous
 62
     0
100
AcDbTrace
 10
200.016586
 20
260.468545
 30
0.0
 11
195.016479
 21
259.468864
 31
0.0
 12
200.016586
 22
258.468758
 32
0.0
 13
200.016586
 23
258.468758
 33
0.0
  0
ENDBLK
  5
1B2
100
AcDbEntity
  8
0
100
AcDbBlockEnd
  0
BLOCK
  5
1B5
100
AcDbEntity
  8
0
100
AcDbBlockBegin
  2
*B9
 70
     0
 10
0.0
 20
0.0
 30
0.0
  3
*B9
  1

  0
LINE
  5
1B6
100
AcDbEntity
  8
0
  6
Continuous
 62
     0
100
AcDbLine
 10
289.766554
 20
259.468864
 30
0.0
 11
347.277349
 21
259.468864
 31
0.0
  0
SOLID
  5
1B7
100
AcDbEntity
  8
0
  6
Continuous
 62
     0
100
AcDbTrace
 10
294.76666
 20
258.468758
 30
0.0
 11
299.766766
 21
259.468864
 31
0.0
 12
294.76666
 22
260.468545
 32
0.0
 13
294.76666
 23
260.468545
 33
0.0
  0
SOLID
  5
1B8
100
AcDbEntity
  8
0
  6
Continuous
 62
     0
100
AcDbTrace
 10
322.266605
 20
260.468545
 30
0.0
 11
317.266499
 21
259.468864
 31
0.0
 12
322.266605
 22
258.468758
 32
0.0
 13
322.266605
 23
258.468758
 33
0.0
  0
ENDBLK
  5
1B9
100
AcDbEntity
  8
0
100
AcDbBlockEnd
  0
BLOCK
  5
1BC
100
AcDbEntity
  8
0
100
AcDbBlockBegin
  2
*B10
 70
     0
 10
0.0
 20
0.0
 30
0.0
  3
*B10
  1

  0
LINE
  5
1BD
100
AcDbEntity
  8
0
  6
Continuous
 62
     0
100
AcDbLine
 10
175.016906
 20
235.468866
 30
0.0
 11
140.516642
 21
235.468866
 31
0.0
  0
SOLID
  5
1BE
100
AcDbEntity
  8
0
  6
Continuous
 62
     0
100
AcDbTrace
 10
170.0168
 20
234.469185
 30
0.0
 11
175.016906
 21
235.468866
 31
0.0
 12
170.0168
 22
236.468972
 32
0.0
 13
170.0168
 23
236.468972
 33
0.0
  0
SOLID
  5
1BF
100
AcDbEntity
  8
0
  6
Continuous
 62
     0
100
AcDbTrace
 10
145.516748
 20
236.468972
 30
0.0
 11
140.516642
 21
235.468866
 31
0.0
 12
145.516748
 22
234.469185
 32
0.0
 13
145.516748
 23
234.469185
 33
0.0
  0
ENDBLK
  5
1C0
100
AcDbEntity
  8
0
100
AcDbBlockEnd
  0
BLOCK
  5
1C3
100
AcDbEntity
  8
0
100
AcDbBlockBegin
  2
*B11
 70
     0
 10
0.0
 20
0.0
 30
0.0
  3
*B11
  1

  0
LINE
  5
1C4
100
AcDbEntity
  8
0
  6
Continuous
 62
     0
100
AcDbLine
 10
175.016906
 20
235.468866
 30
0.0
 11
219.516531
 21
235.468866
 31
0.0
  0
SOLID
  5
1C5
100
AcDbEntity
  8
0
  6
Continuous
 62
     0
100
AcDbTrace
 10
180.016587
 20
236.468972
 30
0.0
 11
175.016906
 21
235.468866
 31
0.0
 12
180.016587
 22
234.469185
 32
0.0
 13
180.016587
 23
234.469185
 33
0.0
  0
SOLID
  5
1C6
100
AcDbEntity
  8
0
  6
Continuous
 62
     0
100
AcDbTrace
 10
214.516851
 20
234.469185
 30
0.0
 11
219.516531
 21
235.468866
 31
0.0
 12
214.516851
 22
236.468972
 32
0.0
 13
214.516851
 23
236.468972
 33
0.0
  0
ENDBLK
  5
1C7
100
AcDbEntity
  8
0
100
AcDbBlockEnd
  0
BLOCK
  5
1CA
100
AcDbEntity
  8
0
100
AcDbBlockBegin
  2
*B12
 70
     0
 10
0.0
 20
0.0
 30
0.0
  3
*B12
  1

  0
LINE
  5
1CB
100
AcDbEntity
  8
0
  6
Continuous
 62
     0
100
AcDbLine
 10
219.516531
 20
235.468866
 30
0.0
 11
264.016582
 21
235.468866
 31
0.0
  0
SOLID
  5
1CC
100
AcDbEntity
  8
0
  6
Continuous
 62
     0
100
AcDbTrace
 10
224.516637
 20
236.468972
 30
0.0
 11
219.516531
 21
235.468866
 31
0.0
 12
224.516637
 22
234.469185
 32
0.0
 13
224.516637
 23
234.469185
 33
0.0
  0
SOLID
  5
1CD
100
AcDbEntity
  8
0
  6
Continuous
 62
     0
100
AcDbTrace
 10
259.016476
 20
234.469185
 30
0.0
 11
264.016582
 21
235.468866
 31
0.0
 12
259.016476
 22
236.468972
 32
0.0
 13
259.016476
 23
236.468972
 33
0.0
  0
ENDBLK
  5
1CE
100
AcDbEntity
  8
0
100
AcDbBlockEnd
  0
BLOCK
  5
1D1
100
AcDbEntity
  8
0
100
AcDbBlockBegin
  2
*B13
 70
     0
 10
0.0
 20
0.0
 30
0.0
  3
*B13
  1

  0
LINE
  5
1D2
100
AcDbEntity
  8
0
  6
Continuous
 62
     0
100
AcDbLine
 10
264.016582
 20
235.468866
 30
0.0
 11
308.516632
 21
235.468866
 31
0.0
  0
SOLID
  5
1D3
100
AcDbEntity
  8
0
  6
Continuous
 62
     0
100
AcDbTrace
 10
269.016688
 20
236.468972
 30
0.0
 11
264.016582
 21
235.468866
 31
0.0
 12
269.016688
 22
234.469185
 32
0.0
 13
269.016688
 23
234.469185
 33
0.0
  0
SOLID
  5
1D4
100
AcDbEntity
  8
0
  6
Continuous
 62
     0
100
AcDbTrace
 10
303.516526
 20
234.469185
 30
0.0
 11
308.516632
 21
235.468866
 31
0.0
 12
303.516526
 22
236.468972
 32
0.0
 13
303.516526
 23
236.468972
 33
0.0
  0
ENDBLK
  5
1D5
100
AcDbEntity
  8
0
100
AcDbBlockEnd
  0
BLOCK
  5
1D8
100
AcDbEntity
  8
0
100
AcDbBlockBegin
  2
*B14
 70
     0
 10
0.0
 20
0.0
 30
0.0
  3
*B14
  1

  0
LINE
  5
1D9
100
AcDbEntity
  8
0
  6
Continuous
 62
     0
100
AcDbLine
 10
308.516632
 20
235.468866
 30
0.0
 11
353.016683
 21
235.468866
 31
0.0
  0
SOLID
  5
1DA
100
AcDbEntity
  8
0
  6
Continuous
 62
     0
100
AcDbTrace
 10
313.516738
 20
236.468972
 30
0.0
 11
308.516632
 21
235.468866
 31
0.0
 12
313.516738
 22
234.469185
 32
0.0
 13
313.516738
 23
234.469185
 33
0.0
  0
SOLID
  5
1DB
100
AcDbEntity
  8
0
  6
Continuous
 62
     0
100
AcDbTrace
 10
348.016577
 20
234.469185
 30
0.0
 11
353.016683
 21
235.468866
 31
0.0
 12
348.016577
 22
236.468972
 32
0.0
 13
348.016577
 23
236.468972
 33
0.0
  0
ENDBLK
  5
1DC
100
AcDbEntity
  8
0
100
AcDbBlockEnd
  0
BLOCK
  5
1DF
100
AcDbEntity
  8
0
100
AcDbBlockBegin
  2
*B15
 70
     0
 10
0.0
 20
0.0
 30
0.0
  3
*B15
  1

  0
LINE
  5
1E0
100
AcDbEntity
  8
0
  6
Continuous
 62
     0
100
AcDbLine
 10
353.016683
 20
235.468866
 30
0.0
 11
397.516733
 21
235.468866
 31
0.0
  0
SOLID
  5
1E1
100
AcDbEntity
  8
0
  6
Continuous
 62
     0
100
AcDbTrace
 10
358.016789
 20
236.468972
 30
0.0
 11
353.016683
 21
235.468866
 31
0.0
 12
358.016789
 22
234.469185
 32
0.0
 13
358.016789
 23
234.469185
 33
0.0
  0
SOLID
  5
1E2
100
AcDbEntity
  8
0
  6
Continuous
 62
     0
100
AcDbTrace
 10
392.516627
 20
234.469185
 30
0.0
 11
397.516733
 21
235.468866
 31
0.0
 12
392.516627
 22
236.468972
 32
0.0
 13
392.516627
 23
236.468972
 33
0.0
  0
ENDBLK
  5
1E3
100
AcDbEntity
  8
0
100
AcDbBlockEnd
  0
BLOCK
  5
1E6
100
AcDbEntity
  8
0
100
AcDbBlockBegin
  2
*B16
 70
     0
 10
0.0
 20
0.0
 30
0.0
  3
*B16
  1

  0
LINE
  5
1E7
100
AcDbEntity
  8
0
  6
Continuous
 62
     0
100
AcDbLine
 10
397.516733
 20
235.468866
 30
0.0
 11
452.016571
 21
235.468866
 31
0.0
  0
SOLID
  5
1E8
100
AcDbEntity
  8
0
  6
Continuous
 62
     0
100
AcDbTrace
 10
402.516414
 20
236.468972
 30
0.0
 11
397.516733
 21
235.468866
 31
0.0
 12
402.516414
 22
234.469185
 32
0.0
 13
402.516414
 23
234.469185
 33
0.0
  0
SOLID
  5
1E9
100
AcDbEntity
  8
0
  6
Continuous
 62
     0
100
AcDbTrace
 10
447.016464
 20
234.469185
 30
0.0
 11
452.016571
 21
235.468866
 31
0.0
 12
447.016464
 22
236.468972
 32
0.0
 13
447.016464
 23
236.468972
 33
0.0
  0
ENDBLK
  5
1EA
100
AcDbEntity
  8
0
100
AcDbBlockEnd
  0
BLOCK
  5
1ED
100
AcDbEntity
  8
0
100
AcDbBlockBegin
  2
*B17
 70
     0
 10
0.0
 20
0.0
 30
0.0
  3
*B17
  1

  0
LINE
  5
1EE
100
AcDbEntity
  8
0
  6
Continuous
 62
     0
100
AcDbLine
 10
162.516854
 20
59.131393
 30
0.0
 11
130.516856
 21
59.131393
 31
0.0
  0
SOLID
  5
1EF
100
AcDbEntity
  8
0
  6
Continuous
 62
     0
100
AcDbTrace
 10
157.516748
 20
60.1315
 30
0.0
 11
152.516642
 21
59.131393
 31
0.0
 12
157.516748
 22
58.131287
 32
0.0
 13
157.516748
 23
58.131287
 33
0.0
  0
SOLID
  5
1F0
100
AcDbEntity
  8
0
  6
Continuous
 62
     0
100
AcDbTrace
 10
135.516536
 20
58.131287
 30
0.0
 11
140.516642
 21
59.131393
 31
0.0
 12
135.516536
 22
60.1315
 32
0.0
 13
135.516536
 23
60.1315
 33
0.0
  0
ENDBLK
  5
1F1
100
AcDbEntity
  8
0
100
AcDbBlockEnd
  0
BLOCK
  5
1F4
100
AcDbEntity
  8
0
100
AcDbBlockBegin
  2
*B18
 70
     0
 10
0.0
 20
0.0
 30
0.0
  3
*B18
  1

  0
LINE
  5
1F5
100
AcDbEntity
  8
0
  6
Continuous
 62
     0
100
AcDbLine
 10
467.593546
 20
150.038931
 30
0.0
 11
467.593546
 21
102.039785
 31
0.0
  0
SOLID
  5
1F6
100
AcDbEntity
  8
0
  6
Continuous
 62
     0
100
AcDbTrace
 10
468.593652
 20
145.038825
 30
0.0
 11
467.593546
 21
150.038931
 31
0.0
 12
466.59344
 22
145.038825
 32
0.0
 13
466.59344
 23
145.038825
 33
0.0
  0
SOLID
  5
1F7
100
AcDbEntity
  8
0
  6
Continuous
 62
     0
100
AcDbTrace
 10
466.59344
 20
107.039466
 30
0.0
 11
467.593546
 21
102.039785
 31
0.0
 12
468.593652
 22
107.039466
 32
0.0
 13
468.593652
 23
107.039466
 33
0.0
  0
ENDBLK
  5
1F8
100
AcDbEntity
  8
0
100
AcDbBlockEnd
  0
BLOCK
  5
1FB
100
AcDbEntity
  8
0
100
AcDbBlockBegin
  2
*B19
 70
     0
 10
0.0
 20
0.0
 30
0.0
  3
*B19
  1

  0
LINE
  5
1FC
100
AcDbEntity
  8
0
  6
Continuous
 62
     0
100
AcDbLine
 10
407.51652
 20
201.298424
 30
0.0
 11
452.016571
 21
201.298424
 31
0.0
  0
SOLID
  5
1FD
100
AcDbEntity
  8
0
  6
Continuous
 62
     0
100
AcDbTrace
 10
412.516626
 20
202.29853
 30
0.0
 11
407.51652
 21
201.298424
 31
0.0
 12
412.516626
 22
200.298318
 32
0.0
 13
412.516626
 23
200.298318
 33
0.0
  0
SOLID
  5
1FE
100
AcDbEntity
  8
0
  6
Continuous
 62
     0
100
AcDbTrace
 10
447.016464
 20
200.298318
 30
0.0
 11
452.016571
 21
201.298424
 31
0.0
 12
447.016464
 22
202.29853
 32
0.0
 13
447.016464
 23
202.29853
 33
0.0
  0
ENDBLK
  5
1FF
100
AcDbEntity
  8
0
100
AcDbBlockEnd
  0
BLOCK
  5
202
100
AcDbEntity
  8
0
100
AcDbBlockBegin
  2
*B20
 70
     0
 10
0.0
 20
0.0
 30
0.0
  3
*B20
  1

  0
LINE
  5
203
100
AcDbEntity
  8
0
  6
Continuous
 62
     0
100
AcDbLine
 10
274.016794
 20
201.298424
 30
0.0
 11
318.516419
 21
201.298424
 31
0.0
  0
SOLID
  5
204
100
AcDbEntity
  8
0
  6
Continuous
 62
     0
100
AcDbTrace
 10
279.016474
 20
202.29853
 30
0.0
 11
274.016794
 21
201.298424
 31
0.0
 12
279.016474
 22
200.298318
 32
0.0
 13
279.016474
 23
200.298318
 33
0.0
  0
SOLID
  5
205
100
AcDbEntity
  8
0
  6
Continuous
 62
     0
100
AcDbTrace
 10
313.516738
 20
200.298318
 30
0.0
 11
318.516419
 21
201.298424
 31
0.0
 12
313.516738
 22
202.29853
 32
0.0
 13
313.516738
 23
202.29853
 33
0.0
  0
ENDBLK
  5
206
100
AcDbEntity
  8
0
100
AcDbBlockEnd
  0
BLOCK
  5
209
100
AcDbEntity
  8
0
100
AcDbBlockBegin
  2
*B21
 70
     0
 10
0.0
 20
0.0
 30
0.0
  3
*B21
  1

  0
LINE
  5
20A
100
AcDbEntity
  8
0
  6
Continuous
 62
     0
100
AcDbLine
 10
185.016693
 20
201.298424
 30
0.0
 11
229.516743
 21
201.298424
 31
0.0
  0
SOLID
  5
20B
100
AcDbEntity
  8
0
  6
Continuous
 62
     0
100
AcDbTrace
 10
190.016799
 20
202.29853
 30
0.0
 11
185.016693
 21
201.298424
 31
0.0
 12
190.016799
 22
200.298318
 32
0.0
 13
190.016799
 23
200.298318
 33
0.0
  0
SOLID
  5
20C
100
AcDbEntity
  8
0
  6
Continuous
 62
     0
100
AcDbTrace
 10
224.516637
 20
200.298318
 30
0.0
 11
229.516743
 21
201.298424
 31
0.0
 12
224.516637
 22
202.29853
 32
0.0
 13
224.516637
 23
202.29853
 33
0.0
  0
ENDBLK
  5
20D
100
AcDbEntity
  8
0
100
AcDbBlockEnd
  0
BLOCK
  5
210
100
AcDbEntity
  8
0
100
AcDbBlockBegin
  2
*B22
 70
     0
 10
0.0
 20
0.0
 30
0.0
  3
*B22
  1

  0
LINE
  5
211
100
AcDbEntity
  8
0
  6
Continuous
 62
     0
100
AcDbLine
 10
483.593545
 20
162.038505
 30
0.0
 11
483.593545
 21
90.039786
 31
0.0
  0
SOLID
  5
212
100
AcDbEntity
  8
0
  6
Continuous
 62
     0
100
AcDbTrace
 10
484.593226
 20
157.038825
 30
0.0
 11
483.593545
 21
162.038505
 31
0.0
 12
482.593439
 22
157.038825
 32
0.0
 13
482.593439
 23
157.038825
 33
0.0
  0
SOLID
  5
213
100
AcDbEntity
  8
0
  6
Continuous
 62
     0
100
AcDbTrace
 10
482.593439
 20
95.039892
 30
0.0
 11
483.593545
 21
90.039786
 31
0.0
 12
484.593226
 22
95.039892
 32
0.0
 13
484.593226
 23
95.039892
 33
0.0
  0
ENDBLK
  5
214
100
AcDbEntity
  8
0
100
AcDbBlockEnd
  0
BLOCK
  5
217
100
AcDbEntity
  8
0
100
AcDbBlockBegin
  2
*B23
 70
     0
 10
0.0
 20
0.0
 30
0.0
  3
*B23
  1

  0
LINE
  5
218
100
AcDbEntity
  8
0
  6
Continuous
 62
     0
100
AcDbLine
 10
213.016691
 20
59.131393
 30
0.0
 11
246.016796
 21
59.131393
 31
0.0
  0
SOLID
  5
219
100
AcDbEntity
  8
0
  6
Continuous
 62
     0
100
AcDbTrace
 10
218.016797
 20
60.1315
 30
0.0
 11
213.016691
 21
59.131393
 31
0.0
 12
218.016797
 22
58.131287
 32
0.0
 13
218.016797
 23
58.131287
 33
0.0
  0
SOLID
  5
21A
100
AcDbEntity
  8
0
  6
Continuous
 62
     0
100
AcDbTrace
 10
241.01669
 20
58.131287
 30
0.0
 11
246.016796
 21
59.131393
 31
0.0
 12
241.01669
 22
60.1315
 32
0.0
 13
241.01669
 23
60.1315
 33
0.0
  0
ENDBLK
  5
21B
100
AcDbEntity
  8
0
100
AcDbBlockEnd
  0
BLOCK
  5
21E
100
AcDbEntity
  8
0
100
AcDbBlockBegin
  2
*B24
 70
     0
 10
0.0
 20
0.0
 30
0.0
  3
*B24
  1

  0
LINE
  5
21F
100
AcDbEntity
  8
0
  6
Continuous
 62
     0
100
AcDbLine
 10
318.516419
 20
201.298424
 30
0.0
 11
363.016469
 21
201.298424
 31
0.0
  0
SOLID
  5
220
100
AcDbEntity
  8
0
  6
Continuous
 62
     0
100
AcDbTrace
 10
323.516525
 20
202.29853
 30
0.0
 11
318.516419
 21
201.298424
 31
0.0
 12
323.516525
 22
200.298318
 32
0.0
 13
323.516525
 23
200.298318
 33
0.0
  0
SOLID
  5
221
100
AcDbEntity
  8
0
  6
Continuous
 62
     0
100
AcDbTrace
 10
358.016789
 20
200.298318
 30
0.0
 11
363.016469
 21
201.298424
 31
0.0
 12
358.016789
 22
202.29853
 32
0.0
 13
358.016789
 23
202.29853
 33
0.0
  0
ENDBLK
  5
222
100
AcDbEntity
  8
0
100
AcDbBlockEnd
  0
BLOCK
  5
225
100
AcDbEntity
  8
0
100
AcDbBlockBegin
  2
*B25
 70
     0
 10
0.0
 20
0.0
 30
0.0
  3
*B25
  1

  0
LINE
  5
226
100
AcDbEntity
  8
0
  6
Continuous
 62
     0
100
AcDbLine
 10
264.016582
 20
59.131393
 30
0.0
 11
305.072436
 21
59.131393
 31
0.0
  0
SOLID
  5
227
100
AcDbEntity
  8
0
  6
Continuous
 62
     0
100
AcDbTrace
 10
269.016688
 20
58.131287
 30
0.0
 11
274.016794
 21
59.131393
 31
0.0
 12
269.016688
 22
60.1315
 32
0.0
 13
269.016688
 23
60.1315
 33
0.0
  0
SOLID
  5
228
100
AcDbEntity
  8
0
  6
Continuous
 62
     0
100
AcDbTrace
 10
290.016793
 20
60.1315
 30
0.0
 11
285.016687
 21
59.131393
 31
0.0
 12
290.016793
 22
58.131287
 32
0.0
 13
290.016793
 23
58.131287
 33
0.0
  0
ENDBLK
  5
229
100
AcDbEntity
  8
0
100
AcDbBlockEnd
  0
BLOCK
  5
22C
100
AcDbEntity
  8
0
100
AcDbBlockBegin
  2
*B26
 70
     0
 10
0.0
 20
0.0
 30
0.0
  3
*B26
  1

  0
LINE
  5
22D
100
AcDbEntity
  8
0
  6
Continuous
 62
     0
100
AcDbLine
 10
185.016693
 20
201.298424
 30
0.0
 11
140.516642
 21
201.298424
 31
0.0
  0
SOLID
  5
22E
100
AcDbEntity
  8
0
  6
Continuous
 62
     0
100
AcDbTrace
 10
180.016587
 20
200.298318
 30
0.0
 11
185.016693
 21
201.298424
 31
0.0
 12
180.016587
 22
202.29853
 32
0.0
 13
180.016587
 23
202.29853
 33
0.0
  0
SOLID
  5
22F
100
AcDbEntity
  8
0
  6
Continuous
 62
     0
100
AcDbTrace
 10
145.516748
 20
202.29853
 30
0.0
 11
140.516642
 21
201.298424
 31
0.0
 12
145.516748
 22
200.298318
 32
0.0
 13
145.516748
 23
200.298318
 33
0.0
  0
ENDBLK
  5
230
100
AcDbEntity
  8
0
100
AcDbBlockEnd
  0
BLOCK
  5
233
100
AcDbEntity
  8
0
100
AcDbBlockBegin
  2
*B27
 70
     0
 10
0.0
 20
0.0
 30
0.0
  3
*B27
  1

  0
LINE
  5
234
100
AcDbEntity
  8
0
  6
Continuous
 62
     0
100
AcDbLine
 10
430.016785
 20
59.212679
 30
0.0
 11
462.016783
 21
59.212679
 31
0.0
  0
SOLID
  5
235
100
AcDbEntity
  8
0
  6
Continuous
 62
     0
100
AcDbTrace
 10
435.016465
 20
58.212998
 30
0.0
 11
440.016571
 21
59.212679
 31
0.0
 12
435.016465
 22
60.212785
 32
0.0
 13
435.016465
 23
60.212785
 33
0.0
  0
SOLID
  5
236
100
AcDbEntity
  8
0
  6
Continuous
 62
     0
100
AcDbTrace
 10
457.016677
 20
60.212785
 30
0.0
 11
452.016571
 21
59.212679
 31
0.0
 12
457.016677
 22
58.212998
 32
0.0
 13
457.016677
 23
58.212998
 33
0.0
  0
ENDBLK
  5
237
100
AcDbEntity
  8
0
100
AcDbBlockEnd
  0
BLOCK
  5
23A
100
AcDbEntity
  8
0
100
AcDbBlockBegin
  2
*B28
 70
     0
 10
0.0
 20
0.0
 30
0.0
  3
*B28
  1

  0
LINE
  5
23B
100
AcDbEntity
  8
0
  6
Continuous
 62
     0
100
AcDbLine
 10
128.036592
 20
104.289386
 30
0.0
 11
128.036592
 21
168.10681
 31
0.0
  0
SOLID
  5
23C
100
AcDbEntity
  8
0
  6
Continuous
 62
     0
100
AcDbTrace
 10
129.036273
 20
109.289492
 30
0.0
 11
128.036592
 21
114.289598
 31
0.0
 12
127.036486
 22
109.289492
 32
0.0
 13
127.036486
 23
109.289492
 33
0.0
  0
SOLID
  5
23D
100
AcDbEntity
  8
0
  6
Continuous
 62
     0
100
AcDbTrace
 10
127.036486
 20
142.788799
 30
0.0
 11
128.036592
 21
137.789118
 31
0.0
 12
129.036273
 22
142.788799
 32
0.0
 13
129.036273
 23
142.788799
 33
0.0
  0
ENDBLK
  5
23E
100
AcDbEntity
  8
0
100
AcDbBlockEnd
  0
BLOCK
  5
241
100
AcDbEntity
  8
0
100
AcDbBlockBegin
  2
*B29
 70
     0
 10
0.0
 20
0.0
 30
0.0
  3
*B29
  1

  0
LINE
  5
242
100
AcDbEntity
  8
0
  6
Continuous
 62
     0
100
AcDbLine
 10
104.036593
 20
176.038291
 30
0.0
 11
104.036593
 21
76.04
 31
0.0
  0
SOLID
  5
243
100
AcDbEntity
  8
0
  6
Continuous
 62
     0
100
AcDbTrace
 10
105.036274
 20
171.038611
 30
0.0
 11
104.036593
 21
176.038291
 31
0.0
 12
103.036487
 22
171.038611
 32
0.0
 13
103.036487
 23
171.038611
 33
0.0
  0
SOLID
  5
244
100
AcDbEntity
  8
0
  6
Continuous
 62
     0
100
AcDbTrace
 10
103.036487
 20
81.040106
 30
0.0
 11
104.036593
 21
76.04
 31
0.0
 12
105.036274
 22
81.040106
 32
0.0
 13
105.036274
 23
81.040106
 33
0.0
  0
ENDBLK
  5
245
100
AcDbEntity
  8
0
100
AcDbBlockEnd
  0
BLOCK
  5
248
100
AcDbEntity
  8
0
100
AcDbBlockBegin
  2
*B30
 70
     0
 10
0.0
 20
0.0
 30
0.0
  3
*B30
  1

  0
LINE
  5
249
100
AcDbEntity
  8
0
  6
Continuous
 62
     0
100
AcDbLine
 10
363.016469
 20
201.298424
 30
0.0
 11
407.51652
 21
201.298424
 31
0.0
  0
SOLID
  5
24A
100
AcDbEntity
  8
0
  6
Continuous
 62
     0
100
AcDbTrace
 10
368.016576
 20
202.29853
 30
0.0
 11
363.016469
 21
201.298424
 31
0.0
 12
368.016576
 22
200.298318
 32
0.0
 13
368.016576
 23
200.298318
 33
0.0
  0
SOLID
  5
24B
100
AcDbEntity
  8
0
  6
Continuous
 62
     0
100
AcDbTrace
 10
402.516414
 20
200.298318
 30
0.0
 11
407.51652
 21
201.298424
 31
0.0
 12
402.516414
 22
202.29853
 32
0.0
 13
402.516414
 23
202.29853
 33
0.0
  0
ENDBLK
  5
24C
100
AcDbEntity
  8
0
100
AcDbBlockEnd
  0
BLOCK
  5
24F
100
AcDbEntity
  8
0
100
AcDbBlockBegin
  2
*B31
 70
     0
 10
0.0
 20
0.0
 30
0.0
  3
*B31
  1

  0
LINE
  5
250
100
AcDbEntity
  8
0
  6
Continuous
 62
     0
100
AcDbLine
 10
378.516415
 20
59.131393
 30
0.0
 11
413.906136
 21
59.131393
 31
0.0
  0
SOLID
  5
251
100
AcDbEntity
  8
0
  6
Continuous
 62
     0
100
AcDbTrace
 10
383.516521
 20
58.131287
 30
0.0
 11
388.516628
 21
59.131393
 31
0.0
 12
383.516521
 22
60.1315
 32
0.0
 13
383.516521
 23
60.1315
 33
0.0
  0
SOLID
  5
252
100
AcDbEntity
  8
0
  6
Continuous
 62
     0
100
AcDbTrace
 10
398.516414
 20
60.1315
 30
0.0
 11
393.516734
 21
59.131393
 31
0.0
 12
398.516414
 22
58.131287
 32
0.0
 13
398.516414
 23
58.131287
 33
0.0
  0
ENDBLK
  5
253
100
AcDbEntity
  8
0
100
AcDbBlockEnd
  0
BLOCK
  5
256
100
AcDbEntity
  8
0
100
AcDbBlockBegin
  2
*B32
 70
     0
 10
0.0
 20
0.0
 30
0.0
  3
*B32
  1

  0
LINE
  5
257
100
AcDbEntity
  8
0
  6
Continuous
 62
     0
100
AcDbLine
 10
315.516526
 20
59.131393
 30
0.0
 11
361.756335
 21
59.131393
 31
0.0
  0
SOLID
  5
258
100
AcDbEntity
  8
0
  6
Continuous
 62
     0
100
AcDbTrace
 10
320.516632
 20
58.131287
 30
0.0
 11
325.516738
 21
59.131393
 31
0.0
 12
320.516632
 22
60.1315
 32
0.0
 13
320.516632
 23
60.1315
 33
0.0
  0
SOLID
  5
259
100
AcDbEntity
  8
0
  6
Continuous
 62
     0
100
AcDbTrace
 10
338.516843
 20
60.1315
 30
0.0
 11
333.516737
 21
59.131393
 31
0.0
 12
338.516843
 22
58.131287
 32
0.0
 13
338.516843
 23
58.131287
 33
0.0
  0
ENDBLK
  5
25A
100
AcDbEntity
  8
0
100
AcDbBlockEnd
  0
BLOCK
  5
25D
100
AcDbEntity
  8
0
100
AcDbBlockBegin
  2
*B33
 70
     0
 10
0.0
 20
0.0
 30
0.0
  3
*B33
  1

  0
LINE
  5
25E
100
AcDbEntity
  8
0
  6
Continuous
 62
     0
100
AcDbLine
 10
412.107221
 20
259.996154
 30
0.0
 11
454.516411
 21
259.996154
 31
0.0
  0
SOLID
  5
25F
100
AcDbEntity
  8
0
  6
Continuous
 62
     0
100
AcDbTrace
 10
430.516412
 20
258.996048
 30
0.0
 11
435.516518
 21
259.996154
 31
0.0
 12
430.516412
 22
260.995835
 32
0.0
 13
430.516412
 23
260.995835
 33
0.0
  0
SOLID
  5
260
100
AcDbEntity
  8
0
  6
Continuous
 62
     0
100
AcDbTrace
 10
449.51673
 20
260.995835
 30
0.0
 11
444.516624
 21
259.996154
 31
0.0
 12
449.51673
 22
258.996048
 32
0.0
 13
449.51673
 23
258.996048
 33
0.0
  0
ENDBLK
  5
261
100
AcDbEntity
  8
0
100
AcDbBlockEnd
  0
BLOCK
  5
264
100
AcDbEntity
  8
0
100
AcDbBlockBegin
  2
*B34
 70
     0
 10
0.0
 20
0.0
 30
0.0
  3
*B34
  1

  0
LINE
  5
265
100
AcDbEntity
  8
0
  6
Continuous
 62
     0
100
AcDbLine
 10
229.516743
 20
201.298424
 30
0.0
 11
274.016794
 21
201.298424
 31
0.0
  0
SOLID
  5
266
100
AcDbEntity
  8
0
  6
Continuous
 62
     0
100
AcDbTrace
 10
234.51685
 20
202.29853
 30
0.0
 11
229.516743
 21
201.298424
 31
0.0
 12
234.51685
 22
200.298318
 32
0.0
 13
234.51685
 23
200.298318
 33
0.0
  0
SOLID
  5
267
100
AcDbEntity
  8
0
  6
Continuous
 62
     0
100
AcDbTrace
 10
269.016688
 20
200.298318
 30
0.0
 11
274.016794
 21
201.298424
 31
0.0
 12
269.016688
 22
202.29853
 32
0.0
 13
269.016688
 23
202.29853
 33
0.0
  0
ENDBLK
  5
268
100
AcDbEntity
  8
0
100
AcDbBlockEnd
  0
BLOCK
  5
26B
100
AcDbEntity
  8
0
100
AcDbBlockBegin
  2
*B35
 70
     0
 10
0.0
 20
0.0
 30
0.0
  3
*B35
  1

  0
LINE
  5
26C
100
AcDbEntity
  8
0
  6
Continuous
 62
     0
100
AcDbLine
 10
344.327248
 20
148.038719
 30
0.0
 11
344.327248
 21
104.039572
 31
0.0
  0
SOLID
  5
26D
100
AcDbEntity
  8
0
  6
Continuous
 62
     0
100
AcDbTrace
 10
343.327142
 20
143.039038
 30
0.0
 11
344.327248
 21
138.038932
 31
0.0
 12
345.326929
 22
143.039038
 32
0.0
 13
345.326929
 23
143.039038
 33
0.0
  0
SOLID
  5
26E
100
AcDbEntity
  8
0
  6
Continuous
 62
     0
100
AcDbTrace
 10
345.326929
 20
109.039679
 30
0.0
 11
344.327248
 21
114.039359
 31
0.0
 12
343.327142
 22
109.039679
 32
0.0
 13
343.327142
 23
109.039679
 33
0.0
  0
ENDBLK
  5
26F
100
AcDbEntity
  8
0
100
AcDbBlockEnd
  0
BLOCK
  5
272
100
AcDbEntity
  8
0
100
AcDbBlockBegin
  2
*B36
 70
     0
 10
0.0
 20
0.0
 30
0.0
  3
*B36
  1

  0
LINE
  5
273
100
AcDbEntity
  8
0
  6
Continuous
 62
     8
100
AcDbLine
 10
240.516636
 20
106.03936
 30
0.0
 11
240.516636
 21
111.039466
 31
0.0
  0
LINE
  5
274
100
AcDbEntity
  8
0
  6
Continuous
 62
     8
100
AcDbLine
 10
240.516636
 20
117.039253
 30
0.0
 11
240.516636
 21
122.039359
 31
0.0
  0
ENDBLK
  5
275
100
AcDbEntity
  8
0
100
AcDbBlockEnd
  0
BLOCK
  5
278
100
AcDbEntity
  8
0
100
AcDbBlockBegin
  2
*B37
 70
     0
 10
0.0
 20
0.0
 30
0.0
  3
*B37
  1

  0
LINE
  5
279
100
AcDbEntity
  8
0
  6
Continuous
 62
     8
100
AcDbLine
 10
290.516846
 20
155.538665
 30
0.0
 11
290.516846
 21
159.038612
 31
0.0
  0
LINE
  5
27A
100
AcDbEntity
  8
0
  6
Continuous
 62
     8
100
AcDbLine
 10
290.516846
 20
165.038824
 30
0.0
 11
290.516846
 21
168.538345
 31
0.0
  0
ENDBLK
  5
27B
100
AcDbEntity
  8
0
100
AcDbBlockEnd
  0
BLOCK
  5
27E
100
AcDbEntity
  8
0
100
AcDbBlockBegin
  2
*B38
 70
     0
 10
0.0
 20
0.0
 30
0.0
  3
*B38
  1

  0
LINE
  5
27F
100
AcDbEntity
  8
0
  6
Continuous
 62
     8
100
AcDbLine
 10
452.016571
 20
57.212892
 30
0.0
 11
452.016571
 21
74.040213
 31
0.0
  0
LINE
  5
280
100
AcDbEntity
  8
0
  6
Continuous
 62
     8
100
AcDbLine
 10
452.016571
 20
178.038504
 30
0.0
 11
452.016571
 21
203.298211
 31
0.0
  0
ENDBLK
  5
281
100
AcDbEntity
  8
0
100
AcDbBlockEnd
  0
BLOCK
  5
284
100
AcDbEntity
  8
0
100
AcDbBlockBegin
  2
*B39
 70
     0
 10
0.0
 20
0.0
 30
0.0
  3
*B39
  1

  0
LINE
  5
285
100
AcDbEntity
  8
0
  6
Continuous
 62
     8
100
AcDbLine
 10
452.016571
 20
233.469079
 30
0.0
 11
452.016571
 21
274.90242
 31
0.0
  0
ENDBLK
  5
286
100
AcDbEntity
  8
0
100
AcDbBlockEnd
  0
BLOCK
  5
289
100
AcDbEntity
  8
0
100
AcDbBlockBegin
  2
*B40
 70
     0
 10
0.0
 20
0.0
 30
0.0
  3
*B40
  1

  0
LINE
  5
28A
100
AcDbEntity
  8
0
  6
Continuous
 62
     8
100
AcDbLine
 10
219.516531
 20
233.469079
 30
0.0
 11
219.516531
 21
237.469078
 31
0.0
  0
LINE
  5
28B
100
AcDbEntity
  8
0
  6
Continuous
 62
     8
100
AcDbLine
 10
219.516531
 20
237.469078
 30
0.0
 11
219.516531
 21
246.82752
 31
0.0
  0
LINE
  5
28C
100
AcDbEntity
  8
0
  6
Continuous
 62
     8
100
AcDbLine
 10
219.516531
 20
248.827307
 30
0.0
 11
219.516531
 21
249.827414
 31
0.0
  0
LINE
  5
28D
100
AcDbEntity
  8
0
  6
Continuous
 62
     8
100
AcDbLine
 10
219.516531
 20
251.827201
 30
0.0
 11
219.516531
 21
261.185642
 31
0.0
  0
LINE
  5
28E
100
AcDbEntity
  8
0
  6
Continuous
 62
     8
100
AcDbLine
 10
219.516531
 20
263.18543
 30
0.0
 11
219.516531
 21
264.185536
 31
0.0
  0
LINE
  5
28F
100
AcDbEntity
  8
0
  6
Continuous
 62
     8
100
AcDbLine
 10
219.516531
 20
266.185749
 30
0.0
 11
219.516531
 21
275.543765
 31
0.0
  0
LINE
  5
290
100
AcDbEntity
  8
0
  6
Continuous
 62
     8
100
AcDbLine
 10
219.516531
 20
277.543977
 30
0.0
 11
219.516531
 21
278.544084
 31
0.0
  0
LINE
  5
291
100
AcDbEntity
  8
0
  6
Continuous
 62
     8
100
AcDbLine
 10
219.516531
 20
280.543871
 30
0.0
 11
219.516531
 21
289.902313
 31
0.0
  0
LINE
  5
292
100
AcDbEntity
  8
0
  6
Continuous
 62
     8
100
AcDbLine
 10
219.516531
 20
295.9021
 30
0.0
 11
219.516531
 21
305.652072
 31
0.0
  0
ENDBLK
  5
293
100
AcDbEntity
  8
0
100
AcDbBlockEnd
  0
BLOCK
  5
296
100
AcDbEntity
  8
0
100
AcDbBlockBegin
  2
*B41
 70
     0
 10
0.0
 20
0.0
 30
0.0
  3
*B41
  1

  0
LINE
  5
297
100
AcDbEntity
  8
0
  6
Continuous
 62
     8
100
AcDbLine
 10
120.036592
 20
292.902206
 30
0.0
 11
124.036592
 21
292.902206
 31
0.0
  0
LINE
  5
298
100
AcDbEntity
  8
0
  6
Continuous
 62
     8
100
AcDbLine
 10
124.036592
 20
292.902206
 30
0.0
 11
132.281299
 21
292.902206
 31
0.0
  0
LINE
  5
299
100
AcDbEntity
  8
0
  6
Continuous
 62
     8
100
AcDbLine
 10
134.281511
 20
292.902206
 30
0.0
 11
135.281618
 21
292.902206
 31
0.0
  0
LINE
  5
29A
100
AcDbEntity
  8
0
  6
Continuous
 62
     8
100
AcDbLine
 10
137.281405
 20
292.902206
 30
0.0
 11
145.526537
 21
292.902206
 31
0.0
  0
LINE
  5
29B
100
AcDbEntity
  8
0
  6
Continuous
 62
     8
100
AcDbLine
 10
147.526324
 20
292.902206
 30
0.0
 11
148.52643
 21
292.902206
 31
0.0
  0
LINE
  5
29C
100
AcDbEntity
  8
0
  6
Continuous
 62
     8
100
AcDbLine
 10
150.526643
 20
292.902206
 30
0.0
 11
158.771775
 21
292.902206
 31
0.0
  0
LINE
  5
29D
100
AcDbEntity
  8
0
  6
Continuous
 62
     8
100
AcDbLine
 10
160.771562
 20
292.902206
 30
0.0
 11
161.771668
 21
292.902206
 31
0.0
  0
LINE
  5
29E
100
AcDbEntity
  8
0
  6
Continuous
 62
     8
100
AcDbLine
 10
163.771455
 20
292.902206
 30
0.0
 11
172.016587
 21
292.902206
 31
0.0
  0
LINE
  5
29F
100
AcDbEntity
  8
0
  6
Continuous
 62
     8
100
AcDbLine
 10
178.0168
 20
292.902206
 30
0.0
 11
187.516533
 21
292.902206
 31
0.0
  0
LINE
  5
2A0
100
AcDbEntity
  8
0
  6
Continuous
 62
     8
100
AcDbLine
 10
189.516746
 20
292.902206
 30
0.0
 11
190.516852
 21
292.902206
 31
0.0
  0
LINE
  5
2A1
100
AcDbEntity
  8
0
  6
Continuous
 62
     8
100
AcDbLine
 10
192.516639
 20
292.902206
 30
0.0
 11
202.016798
 21
292.902206
 31
0.0
  0
LINE
  5
2A2
100
AcDbEntity
  8
0
  6
Continuous
 62
     8
100
AcDbLine
 10
204.016585
 20
292.902206
 30
0.0
 11
205.016692
 21
292.902206
 31
0.0
  0
LINE
  5
2A3
100
AcDbEntity
  8
0
  6
Continuous
 62
     8
100
AcDbLine
 10
207.016479
 20
292.902206
 30
0.0
 11
216.516638
 21
292.902206
 31
0.0
  0
LINE
  5
2A4
100
AcDbEntity
  8
0
  6
Continuous
 62
     8
100
AcDbLine
 10
222.51685
 20
292.902206
 30
0.0
 11
232.016584
 21
292.902206
 31
0.0
  0
LINE
  5
2A5
100
AcDbEntity
  8
0
  6
Continuous
 62
     8
100
AcDbLine
 10
234.016796
 20
292.902206
 30
0.0
 11
235.016477
 21
292.902206
 31
0.0
  0
LINE
  5
2A6
100
AcDbEntity
  8
0
  6
Continuous
 62
     8
100
AcDbLine
 10
237.01669
 20
292.902206
 30
0.0
 11
246.516849
 21
292.902206
 31
0.0
  0
LINE
  5
2A7
100
AcDbEntity
  8
0
  6
Continuous
 62
     8
100
AcDbLine
 10
248.516636
 20
292.902206
 30
0.0
 11
249.516742
 21
292.902206
 31
0.0
  0
LINE
  5
2A8
100
AcDbEntity
  8
0
  6
Continuous
 62
     8
100
AcDbLine
 10
251.516529
 20
292.902206
 30
0.0
 11
261.016688
 21
292.902206
 31
0.0
  0
LINE
  5
2A9
100
AcDbEntity
  8
0
  6
Continuous
 62
     8
100
AcDbLine
 10
267.016475
 20
292.902206
 30
0.0
 11
276.516634
 21
292.902206
 31
0.0
  0
LINE
  5
2AA
100
AcDbEntity
  8
0
  6
Continuous
 62
     8
100
AcDbLine
 10
278.516847
 20
292.902206
 30
0.0
 11
279.516528
 21
292.902206
 31
0.0
  0
LINE
  5
2AB
100
AcDbEntity
  8
0
  6
Continuous
 62
     8
100
AcDbLine
 10
281.51674
 20
292.902206
 30
0.0
 11
291.016474
 21
292.902206
 31
0.0
  0
LINE
  5
2AC
100
AcDbEntity
  8
0
  6
Continuous
 62
     8
100
AcDbLine
 10
293.016686
 20
292.902206
 30
0.0
 11
294.016793
 21
292.902206
 31
0.0
  0
LINE
  5
2AD
100
AcDbEntity
  8
0
  6
Continuous
 62
     8
100
AcDbLine
 10
296.01658
 20
292.902206
 30
0.0
 11
305.516739
 21
292.902206
 31
0.0
  0
LINE
  5
2AE
100
AcDbEntity
  8
0
  6
Continuous
 62
     8
100
AcDbLine
 10
311.516526
 20
292.902206
 30
0.0
 11
321.016685
 21
292.902206
 31
0.0
  0
LINE
  5
2AF
100
AcDbEntity
  8
0
  6
Continuous
 62
     8
100
AcDbLine
 10
323.016472
 20
292.902206
 30
0.0
 11
324.016578
 21
292.902206
 31
0.0
  0
LINE
  5
2B0
100
AcDbEntity
  8
0
  6
Continuous
 62
     8
100
AcDbLine
 10
326.016791
 20
292.902206
 30
0.0
 11
335.516524
 21
292.902206
 31
0.0
  0
LINE
  5
2B1
100
AcDbEntity
  8
0
  6
Continuous
 62
     8
100
AcDbLine
 10
337.516737
 20
292.902206
 30
0.0
 11
338.516843
 21
292.902206
 31
0.0
  0
LINE
  5
2B2
100
AcDbEntity
  8
0
  6
Continuous
 62
     8
100
AcDbLine
 10
340.51663
 20
292.902206
 30
0.0
 11
350.016789
 21
292.902206
 31
0.0
  0
LINE
  5
2B3
100
AcDbEntity
  8
0
  6
Continuous
 62
     8
100
AcDbLine
 10
356.016576
 20
292.902206
 30
0.0
 11
365.516735
 21
292.902206
 31
0.0
  0
LINE
  5
2B4
100
AcDbEntity
  8
0
  6
Continuous
 62
     8
100
AcDbLine
 10
367.516522
 20
292.902206
 30
0.0
 11
368.516629
 21
292.902206
 31
0.0
  0
LINE
  5
2B5
100
AcDbEntity
  8
0
  6
Continuous
 62
     8
100
AcDbLine
 10
370.516416
 20
292.902206
 30
0.0
 11
380.016575
 21
292.902206
 31
0.0
  0
LINE
  5
2B6
100
AcDbEntity
  8
0
  6
Continuous
 62
     8
100
AcDbLine
 10
382.016788
 20
292.902206
 30
0.0
 11
383.016468
 21
292.902206
 31
0.0
  0
LINE
  5
2B7
100
AcDbEntity
  8
0
  6
Continuous
 62
     8
100
AcDbLine
 10
385.016681
 20
292.902206
 30
0.0
 11
394.516414
 21
292.902206
 31
0.0
  0
LINE
  5
2B8
100
AcDbEntity
  8
0
  6
Continuous
 62
     8
100
AcDbLine
 10
400.516627
 20
292.902206
 30
0.0
 11
410.2666
 21
292.902206
 31
0.0
  0
ENDBLK
  5
2B9
100
AcDbEntity
  8
0
100
AcDbBlockEnd
  0
BLOCK
  5
2BC
100
AcDbEntity
  8
0
100
AcDbBlockBegin
  2
*B42
 70
     0
 10
0.0
 20
0.0
 30
0.0
  3
*B42
  1

  0
LINE
  5
2BD
100
AcDbEntity
  8
0
  6
Continuous
 62
     8
100
AcDbLine
 10
229.516743
 20
94.039786
 30
0.0
 11
229.516743
 21
99.039466
 31
0.0
  0
LINE
  5
2BE
100
AcDbEntity
  8
0
  6
Continuous
 62
     8
100
AcDbLine
 10
229.516743
 20
105.039679
 30
0.0
 11
229.516743
 21
110.039359
 31
0.0
  0
ENDBLK
  5
2BF
100
AcDbEntity
  8
0
100
AcDbBlockEnd
  0
BLOCK
  5
2C2
100
AcDbEntity
  8
0
100
AcDbBlockBegin
  2
*B43
 70
     0
 10
0.0
 20
0.0
 30
0.0
  3
*B43
  1

  0
LINE
  5
2C3
100
AcDbEntity
  8
0
  6
Continuous
 62
     8
100
AcDbLine
 10
229.516743
 20
118.039359
 30
0.0
 11
229.516743
 21
123.039465
 31
0.0
  0
LINE
  5
2C4
100
AcDbEntity
  8
0
  6
Continuous
 62
     8
100
AcDbLine
 10
229.516743
 20
129.039252
 30
0.0
 11
229.516743
 21
134.038932
 31
0.0
  0
ENDBLK
  5
2C5
100
AcDbEntity
  8
0
100
AcDbBlockEnd
  0
BLOCK
  5
2C8
100
AcDbEntity
  8
0
100
AcDbBlockBegin
  2
*B44
 70
     0
 10
0.0
 20
0.0
 30
0.0
  3
*B44
  1

  0
LINE
  5
2C9
100
AcDbEntity
  8
0
  6
Continuous
 62
     8
100
AcDbLine
 10
229.516743
 20
199.298211
 30
0.0
 11
229.516743
 21
203.298211
 31
0.0
  0
LINE
  5
2CA
100
AcDbEntity
  8
0
  6
Continuous
 62
     8
100
AcDbLine
 10
229.516743
 20
142.038932
 30
0.0
 11
229.516743
 21
147.039038
 31
0.0
  0
LINE
  5
2CB
100
AcDbEntity
  8
0
  6
Continuous
 62
     8
100
AcDbLine
 10
229.516743
 20
153.038825
 30
0.0
 11
229.516743
 21
160.853698
 31
0.0
  0
LINE
  5
2CC
100
AcDbEntity
  8
0
  6
Continuous
 62
     8
100
AcDbLine
 10
229.516743
 20
162.853911
 30
0.0
 11
229.516743
 21
163.853592
 31
0.0
  0
LINE
  5
2CD
100
AcDbEntity
  8
0
  6
Continuous
 62
     8
100
AcDbLine
 10
229.516743
 20
165.853804
 30
0.0
 11
229.516743
 21
173.668678
 31
0.0
  0
LINE
  5
2CE
100
AcDbEntity
  8
0
  6
Continuous
 62
     8
100
AcDbLine
 10
229.516743
 20
175.668465
 30
0.0
 11
229.516743
 21
176.668571
 31
0.0
  0
LINE
  5
2CF
100
AcDbEntity
  8
0
  6
Continuous
 62
     8
100
AcDbLine
 10
229.516743
 20
178.668358
 30
0.0
 11
229.516743
 21
186.483657
 31
0.0
  0
LINE
  5
2D0
100
AcDbEntity
  8
0
  6
Continuous
 62
     8
100
AcDbLine
 10
229.516743
 20
188.483444
 30
0.0
 11
229.516743
 21
189.483551
 31
0.0
  0
LINE
  5
2D1
100
AcDbEntity
  8
0
  6
Continuous
 62
     8
100
AcDbLine
 10
229.516743
 20
191.483338
 30
0.0
 11
229.516743
 21
199.298211
 31
0.0
  0
ENDBLK
  5
2D2
100
AcDbEntity
  8
0
100
AcDbBlockEnd
  0
BLOCK
  5
2D5
100
AcDbEntity
  8
0
100
AcDbBlockBegin
  2
*B45
 70
     0
 10
0.0
 20
0.0
 30
0.0
  3
*B45
  1

  0
LINE
  5
2D6
100
AcDbEntity
  8
0
  6
Continuous
 62
     8
100
AcDbLine
 10
391.016468
 20
83.539946
 30
0.0
 11
391.016468
 21
87.039893
 31
0.0
  0
LINE
  5
2D7
100
AcDbEntity
  8
0
  6
Continuous
 62
     8
100
AcDbLine
 10
391.016468
 20
93.03968
 30
0.0
 11
391.016468
 21
96.539626
 31
0.0
  0
ENDBLK
  5
2D8
100
AcDbEntity
  8
0
100
AcDbBlockEnd
  0
BLOCK
  5
2DB
100
AcDbEntity
  8
0
100
AcDbBlockBegin
  2
*B46
 70
     0
 10
0.0
 20
0.0
 30
0.0
  3
*B46
  1

  0
LINE
  5
2DC
100
AcDbEntity
  8
0
  6
Continuous
 62
     8
100
AcDbLine
 10
239.51653
 20
308.151913
 30
0.0
 11
239.51653
 21
317.901886
 31
0.0
  0
LINE
  5
2DD
100
AcDbEntity
  8
0
  6
Continuous
 62
     8
100
AcDbLine
 10
239.51653
 20
323.901672
 30
0.0
 11
239.51653
 21
333.651645
 31
0.0
  0
ENDBLK
  5
2DE
100
AcDbEntity
  8
0
100
AcDbBlockEnd
  0
BLOCK
  5
2E1
100
AcDbEntity
  8
0
100
AcDbBlockBegin
  2
*B47
 70
     0
 10
0.0
 20
0.0
 30
0.0
  3
*B47
  1

  0
LINE
  5
2E2
100
AcDbEntity
  8
0
  6
Continuous
 62
     8
100
AcDbLine
 10
168.516641
 20
83.539946
 30
0.0
 11
168.516641
 21
87.039893
 31
0.0
  0
LINE
  5
2E3
100
AcDbEntity
  8
0
  6
Continuous
 62
     8
100
AcDbLine
 10
168.516641
 20
93.03968
 30
0.0
 11
168.516641
 21
96.539626
 31
0.0
  0
ENDBLK
  5
2E4
100
AcDbEntity
  8
0
100
AcDbBlockEnd
  0
BLOCK
  5
2E7
100
AcDbEntity
  8
0
100
AcDbBlockBegin
  2
*B48
 70
     0
 10
0.0
 20
0.0
 30
0.0
  3
*B48
  1

  0
LINE
  5
2E8
100
AcDbEntity
  8
0
  6
Continuous
 62
     8
100
AcDbLine
 10
188.016586
 20
114.039359
 30
0.0
 11
193.016692
 21
114.039359
 31
0.0
  0
LINE
  5
2E9
100
AcDbEntity
  8
0
  6
Continuous
 62
     8
100
AcDbLine
 10
199.016479
 20
114.039359
 30
0.0
 11
208.516638
 21
114.039359
 31
0.0
  0
LINE
  5
2EA
100
AcDbEntity
  8
0
  6
Continuous
 62
     8
100
AcDbLine
 10
210.516851
 20
114.039359
 30
0.0
 11
211.516532
 21
114.039359
 31
0.0
  0
LINE
  5
2EB
100
AcDbEntity
  8
0
  6
Continuous
 62
     8
100
AcDbLine
 10
213.516744
 20
114.039359
 30
0.0
 11
223.016478
 21
114.039359
 31
0.0
  0
LINE
  5
2EC
100
AcDbEntity
  8
0
  6
Continuous
 62
     8
100
AcDbLine
 10
225.01669
 20
114.039359
 30
0.0
 11
226.016797
 21
114.039359
 31
0.0
  0
LINE
  5
2ED
100
AcDbEntity
  8
0
  6
Continuous
 62
     8
100
AcDbLine
 10
228.016584
 20
114.039359
 30
0.0
 11
237.516743
 21
114.039359
 31
0.0
  0
LINE
  5
2EE
100
AcDbEntity
  8
0
  6
Continuous
 62
     8
100
AcDbLine
 10
243.51653
 20
114.039359
 30
0.0
 11
253.016689
 21
114.039359
 31
0.0
  0
LINE
  5
2EF
100
AcDbEntity
  8
0
  6
Continuous
 62
     8
100
AcDbLine
 10
255.016476
 20
114.039359
 30
0.0
 11
256.016582
 21
114.039359
 31
0.0
  0
LINE
  5
2F0
100
AcDbEntity
  8
0
  6
Continuous
 62
     8
100
AcDbLine
 10
258.016795
 20
114.039359
 30
0.0
 11
267.516528
 21
114.039359
 31
0.0
  0
LINE
  5
2F1
100
AcDbEntity
  8
0
  6
Continuous
 62
     8
100
AcDbLine
 10
269.516741
 20
114.039359
 30
0.0
 11
270.516847
 21
114.039359
 31
0.0
  0
LINE
  5
2F2
100
AcDbEntity
  8
0
  6
Continuous
 62
     8
100
AcDbLine
 10
272.516634
 20
114.039359
 30
0.0
 11
282.016793
 21
114.039359
 31
0.0
  0
LINE
  5
2F3
100
AcDbEntity
  8
0
  6
Continuous
 62
     8
100
AcDbLine
 10
288.01658
 20
114.039359
 30
0.0
 11
297.516739
 21
114.039359
 31
0.0
  0
LINE
  5
2F4
100
AcDbEntity
  8
0
  6
Continuous
 62
     8
100
AcDbLine
 10
299.516526
 20
114.039359
 30
0.0
 11
300.516633
 21
114.039359
 31
0.0
  0
LINE
  5
2F5
100
AcDbEntity
  8
0
  6
Continuous
 62
     8
100
AcDbLine
 10
302.51642
 20
114.039359
 30
0.0
 11
312.016579
 21
114.039359
 31
0.0
  0
LINE
  5
2F6
100
AcDbEntity
  8
0
  6
Continuous
 62
     8
100
AcDbLine
 10
314.016792
 20
114.039359
 30
0.0
 11
315.016472
 21
114.039359
 31
0.0
  0
LINE
  5
2F7
100
AcDbEntity
  8
0
  6
Continuous
 62
     8
100
AcDbLine
 10
317.016685
 20
114.039359
 30
0.0
 11
326.516844
 21
114.039359
 31
0.0
  0
LINE
  5
2F8
100
AcDbEntity
  8
0
  6
Continuous
 62
     8
100
AcDbLine
 10
332.516631
 20
114.039359
 30
0.0
 11
342.01679
 21
114.039359
 31
0.0
  0
LINE
  5
2F9
100
AcDbEntity
  8
0
  6
Continuous
 62
     8
100
AcDbLine
 10
344.016577
 20
114.039359
 30
0.0
 11
345.016683
 21
114.039359
 31
0.0
  0
LINE
  5
2FA
100
AcDbEntity
  8
0
  6
Continuous
 62
     8
100
AcDbLine
 10
347.01647
 20
114.039359
 30
0.0
 11
356.516629
 21
114.039359
 31
0.0
  0
LINE
  5
2FB
100
AcDbEntity
  8
0
  6
Continuous
 62
     8
100
AcDbLine
 10
358.516417
 20
114.039359
 30
0.0
 11
359.516523
 21
114.039359
 31
0.0
  0
LINE
  5
2FC
100
AcDbEntity
  8
0
  6
Continuous
 62
     8
100
AcDbLine
 10
361.516736
 20
114.039359
 30
0.0
 11
371.016469
 21
114.039359
 31
0.0
  0
LINE
  5
2FD
100
AcDbEntity
  8
0
  6
Continuous
 62
     8
100
AcDbLine
 10
377.016681
 20
114.039359
 30
0.0
 11
386.516415
 21
114.039359
 31
0.0
  0
LINE
  5
2FE
100
AcDbEntity
  8
0
  6
Continuous
 62
     8
100
AcDbLine
 10
388.516628
 20
114.039359
 30
0.0
 11
389.516734
 21
114.039359
 31
0.0
  0
LINE
  5
2FF
100
AcDbEntity
  8
0
  6
Continuous
 62
     8
100
AcDbLine
 10
391.516521
 20
114.039359
 30
0.0
 11
401.01668
 21
114.039359
 31
0.0
  0
LINE
  5
300
100
AcDbEntity
  8
0
  6
Continuous
 62
     8
100
AcDbLine
 10
403.016467
 20
114.039359
 30
0.0
 11
404.016573
 21
114.039359
 31
0.0
  0
LINE
  5
301
100
AcDbEntity
  8
0
  6
Continuous
 62
     8
100
AcDbLine
 10
406.016786
 20
114.039359
 30
0.0
 11
415.51652
 21
114.039359
 31
0.0
  0
LINE
  5
302
100
AcDbEntity
  8
0
  6
Continuous
 62
     8
100
AcDbLine
 10
421.516732
 20
114.039359
 30
0.0
 11
426.516412
 21
114.039359
 31
0.0
  0
ENDBLK
  5
303
100
AcDbEntity
  8
0
100
AcDbBlockEnd
  0
BLOCK
  5
306
100
AcDbEntity
  8
0
100
AcDbBlockBegin
  2
*B49
 70
     0
 10
0.0
 20
0.0
 30
0.0
  3
*B49
  1

  0
LINE
  5
307
100
AcDbEntity
  8
0
  6
Continuous
 62
     8
100
AcDbLine
 10
440.016571
 20
57.212892
 30
0.0
 11
440.016571
 21
61.212891
 31
0.0
  0
LINE
  5
308
100
AcDbEntity
  8
0
  6
Continuous
 62
     8
100
AcDbLine
 10
440.016571
 20
61.212891
 30
0.0
 11
440.016571
 21
69.578036
 31
0.0
  0
LINE
  5
309
100
AcDbEntity
  8
0
  6
Continuous
 62
     8
100
AcDbLine
 10
440.016571
 20
71.578249
 30
0.0
 11
440.016571
 21
72.578355
 31
0.0
  0
LINE
  5
30A
100
AcDbEntity
  8
0
  6
Continuous
 62
     8
100
AcDbLine
 10
440.016571
 20
74.578142
 30
0.0
 11
440.016571
 21
82.943287
 31
0.0
  0
LINE
  5
30B
100
AcDbEntity
  8
0
  6
Continuous
 62
     8
100
AcDbLine
 10
440.016571
 20
84.9435
 30
0.0
 11
440.016571
 21
85.943606
 31
0.0
  0
LINE
  5
30C
100
AcDbEntity
  8
0
  6
Continuous
 62
     8
100
AcDbLine
 10
440.016571
 20
87.943393
 30
0.0
 11
440.016571
 21
96.308538
 31
0.0
  0
LINE
  5
30D
100
AcDbEntity
  8
0
  6
Continuous
 62
     8
100
AcDbLine
 10
440.016571
 20
98.30875
 30
0.0
 11
440.016571
 21
99.308857
 31
0.0
  0
LINE
  5
30E
100
AcDbEntity
  8
0
  6
Continuous
 62
     8
100
AcDbLine
 10
440.016571
 20
101.308644
 30
0.0
 11
440.016571
 21
109.674214
 31
0.0
  0
LINE
  5
30F
100
AcDbEntity
  8
0
  6
Continuous
 62
     8
100
AcDbLine
 10
440.016571
 20
111.674001
 30
0.0
 11
440.016571
 21
112.674108
 31
0.0
  0
LINE
  5
310
100
AcDbEntity
  8
0
  6
Continuous
 62
     8
100
AcDbLine
 10
440.016571
 20
114.673895
 30
0.0
 11
440.016571
 21
123.039465
 31
0.0
  0
LINE
  5
311
100
AcDbEntity
  8
0
  6
Continuous
 62
     8
100
AcDbLine
 10
440.016571
 20
129.039252
 30
0.0
 11
440.016571
 21
134.538985
 31
0.0
  0
ENDBLK
  5
312
100
AcDbEntity
  8
0
100
AcDbBlockEnd
  0
BLOCK
  5
315
100
AcDbEntity
  8
0
100
AcDbBlockBegin
  2
*B50
 70
     0
 10
0.0
 20
0.0
 30
0.0
  3
*B50
  1

  0
LINE
  5
316
100
AcDbEntity
  8
0
  6
Continuous
 62
     8
100
AcDbLine
 10
226.766664
 20
320.901779
 30
0.0
 11
236.516637
 21
320.901779
 31
0.0
  0
LINE
  5
317
100
AcDbEntity
  8
0
  6
Continuous
 62
     8
100
AcDbLine
 10
242.516849
 20
320.901779
 30
0.0
 11
252.266822
 21
320.901779
 31
0.0
  0
ENDBLK
  5
318
100
AcDbEntity
  8
0
100
AcDbBlockEnd
  0
BLOCK
  5
31B
100
AcDbEntity
  8
0
100
AcDbBlockBegin
  2
*B51
 70
     0
 10
0.0
 20
0.0
 30
0.0
  3
*B51
  1

  0
LINE
  5
31C
100
AcDbEntity
  8
0
  6
Continuous
 62
     8
100
AcDbLine
 10
407.51652
 20
199.298211
 30
0.0
 11
407.51652
 21
203.298211
 31
0.0
  0
LINE
  5
31D
100
AcDbEntity
  8
0
  6
Continuous
 62
     8
100
AcDbLine
 10
407.51652
 20
142.038932
 30
0.0
 11
407.51652
 21
147.039038
 31
0.0
  0
LINE
  5
31E
100
AcDbEntity
  8
0
  6
Continuous
 62
     8
100
AcDbLine
 10
407.51652
 20
153.038825
 30
0.0
 11
407.51652
 21
160.853698
 31
0.0
  0
LINE
  5
31F
100
AcDbEntity
  8
0
  6
Continuous
 62
     8
100
AcDbLine
 10
407.51652
 20
162.853911
 30
0.0
 11
407.51652
 21
163.853592
 31
0.0
  0
LINE
  5
320
100
AcDbEntity
  8
0
  6
Continuous
 62
     8
100
AcDbLine
 10
407.51652
 20
165.853804
 30
0.0
 11
407.51652
 21
173.668678
 31
0.0
  0
LINE
  5
321
100
AcDbEntity
  8
0
  6
Continuous
 62
     8
100
AcDbLine
 10
407.51652
 20
175.668465
 30
0.0
 11
407.51652
 21
176.668571
 31
0.0
  0
LINE
  5
322
100
AcDbEntity
  8
0
  6
Continuous
 62
     8
100
AcDbLine
 10
407.51652
 20
178.668358
 30
0.0
 11
407.51652
 21
186.483657
 31
0.0
  0
LINE
  5
323
100
AcDbEntity
  8
0
  6
Continuous
 62
     8
100
AcDbLine
 10
407.51652
 20
188.483444
 30
0.0
 11
407.51652
 21
189.483551
 31
0.0
  0
LINE
  5
324
100
AcDbEntity
  8
0
  6
Continuous
 62
     8
100
AcDbLine
 10
407.51652
 20
191.483338
 30
0.0
 11
407.51652
 21
199.298211
 31
0.0
  0
ENDBLK
  5
325
100
AcDbEntity
  8
0
100
AcDbBlockEnd
  0
BLOCK
  5
328
100
AcDbEntity
  8
0
100
AcDbBlockBegin
  2
*B52
 70
     0
 10
0.0
 20
0.0
 30
0.0
  3
*B52
  1

  0
LINE
  5
329
100
AcDbEntity
  8
0
  6
Continuous
 62
     8
100
AcDbLine
 10
325.516738
 20
57.131606
 30
0.0
 11
325.516738
 21
112.039572
 31
0.0
  0
ENDBLK
  5
32A
100
AcDbEntity
  8
0
100
AcDbBlockEnd
  0
BLOCK
  5
32D
100
AcDbEntity
  8
0
100
AcDbBlockBegin
  2
*B53
 70
     0
 10
0.0
 20
0.0
 30
0.0
  3
*B53
  1

  0
LINE
  5
32E
100
AcDbEntity
  8
0
  6
Continuous
 62
     8
100
AcDbLine
 10
274.516847
 20
332.868158
 30
0.0
 11
274.516847
 21
342.126589
 31
0.0
  0
LINE
  5
32F
100
AcDbEntity
  8
0
  6
Continuous
 62
     8
100
AcDbLine
 10
274.516847
 20
344.126376
 30
0.0
 11
274.516847
 21
345.126482
 31
0.0
  0
LINE
  5
330
100
AcDbEntity
  8
0
  6
Continuous
 62
     8
100
AcDbLine
 10
274.516847
 20
347.126269
 30
0.0
 11
274.516847
 21
356.384701
 31
0.0
  0
LINE
  5
331
100
AcDbEntity
  8
0
  6
Continuous
 62
     8
100
AcDbLine
 10
274.516847
 20
358.384488
 30
0.0
 11
274.516847
 21
359.384594
 31
0.0
  0
LINE
  5
332
100
AcDbEntity
  8
0
  6
Continuous
 62
     8
100
AcDbLine
 10
274.516847
 20
361.384381
 30
0.0
 11
274.516847
 21
370.642812
 31
0.0
  0
LINE
  5
333
100
AcDbEntity
  8
0
  6
Continuous
 62
     8
100
AcDbLine
 10
274.516847
 20
372.642599
 30
0.0
 11
274.516847
 21
373.642706
 31
0.0
  0
LINE
  5
334
100
AcDbEntity
  8
0
  6
Continuous
 62
     8
100
AcDbLine
 10
274.516847
 20
375.642493
 30
0.0
 11
274.516847
 21
384.900924
 31
0.0
  0
ENDBLK
  5
335
100
AcDbEntity
  8
0
100
AcDbBlockEnd
  0
BLOCK
  5
338
100
AcDbEntity
  8
0
100
AcDbBlockBegin
  2
*B54
 70
     0
 10
0.0
 20
0.0
 30
0.0
  3
*B54
  1

  0
LINE
  5
339
100
AcDbEntity
  8
0
  6
Continuous
 62
     8
100
AcDbLine
 10
100.381311
 20
336.901352
 30
0.0
 11
138.516855
 21
336.901352
 31
0.0
  0
ENDBLK
  5
33A
100
AcDbEntity
  8
0
100
AcDbBlockEnd
  0
BLOCK
  5
33D
100
AcDbEntity
  8
0
100
AcDbBlockBegin
  2
*B55
 70
     0
 10
0.0
 20
0.0
 30
0.0
  3
*B55
  1

  0
LINE
  5
33E
100
AcDbEntity
  8
0
  6
Continuous
 62
     8
100
AcDbLine
 10
374.016788
 20
106.03936
 30
0.0
 11
374.016788
 21
111.039466
 31
0.0
  0
LINE
  5
33F
100
AcDbEntity
  8
0
  6
Continuous
 62
     8
100
AcDbLine
 10
374.016788
 20
117.039253
 30
0.0
 11
374.016788
 21
122.039359
 31
0.0
  0
ENDBLK
  5
340
100
AcDbEntity
  8
0
100
AcDbBlockEnd
  0
BLOCK
  5
343
100
AcDbEntity
  8
0
100
AcDbBlockBegin
  2
*B56
 70
     0
 10
0.0
 20
0.0
 30
0.0
  3
*B56
  1

  0
LINE
  5
344
100
AcDbEntity
  8
0
  6
Continuous
 62
     8
100
AcDbLine
 10
333.516737
 20
57.131606
 30
0.0
 11
333.516737
 21
112.039572
 31
0.0
  0
ENDBLK
  5
345
100
AcDbEntity
  8
0
100
AcDbBlockEnd
  0
BLOCK
  5
348
100
AcDbEntity
  8
0
100
AcDbBlockBegin
  2
*B57
 70
     0
 10
0.0
 20
0.0
 30
0.0
  3
*B57
  1

  0
LINE
  5
349
100
AcDbEntity
  8
0
  6
Continuous
 62
     8
100
AcDbLine
 10
444.516624
 20
257.995942
 30
0.0
 11
444.516624
 21
274.90242
 31
0.0
  0
ENDBLK
  5
34A
100
AcDbEntity
  8
0
100
AcDbBlockEnd
  0
BLOCK
  5
34D
100
AcDbEntity
  8
0
100
AcDbBlockBegin
  2
*B58
 70
     0
 10
0.0
 20
0.0
 30
0.0
  3
*B58
  1

  0
LINE
  5
34E
100
AcDbEntity
  8
0
  6
Continuous
 62
     8
100
AcDbLine
 10
201.516745
 20
155.538665
 30
0.0
 11
201.516745
 21
159.038612
 31
0.0
  0
LINE
  5
34F
100
AcDbEntity
  8
0
  6
Continuous
 62
     8
100
AcDbLine
 10
201.516745
 20
165.038824
 30
0.0
 11
201.516745
 21
168.538345
 31
0.0
  0
ENDBLK
  5
350
100
AcDbEntity
  8
0
100
AcDbBlockEnd
  0
BLOCK
  5
353
100
AcDbEntity
  8
0
100
AcDbBlockBegin
  2
*B59
 70
     0
 10
0.0
 20
0.0
 30
0.0
  3
*B59
  1

  0
LINE
  5
354
100
AcDbEntity
  8
0
  6
Continuous
 62
     8
100
AcDbLine
 10
352.016577
 20
130.039358
 30
0.0
 11
352.016577
 21
135.039039
 31
0.0
  0
LINE
  5
355
100
AcDbEntity
  8
0
  6
Continuous
 62
     8
100
AcDbLine
 10
352.016577
 20
141.038826
 30
0.0
 11
352.016577
 21
146.038932
 31
0.0
  0
ENDBLK
  5
356
100
AcDbEntity
  8
0
100
AcDbBlockEnd
  0
BLOCK
  5
359
100
AcDbEntity
  8
0
100
AcDbBlockBegin
  2
*B60
 70
     0
 10
0.0
 20
0.0
 30
0.0
  3
*B60
  1

  0
LINE
  5
35A
100
AcDbEntity
  8
0
  6
Continuous
 62
     8
100
AcDbLine
 10
230.51685
 20
332.868158
 30
0.0
 11
230.51685
 21
342.126589
 31
0.0
  0
LINE
  5
35B
100
AcDbEntity
  8
0
  6
Continuous
 62
     8
100
AcDbLine
 10
230.51685
 20
344.126376
 30
0.0
 11
230.51685
 21
345.126482
 31
0.0
  0
LINE
  5
35C
100
AcDbEntity
  8
0
  6
Continuous
 62
     8
100
AcDbLine
 10
230.51685
 20
347.126269
 30
0.0
 11
230.51685
 21
356.384701
 31
0.0
  0
LINE
  5
35D
100
AcDbEntity
  8
0
  6
Continuous
 62
     8
100
AcDbLine
 10
230.51685
 20
358.384488
 30
0.0
 11
230.51685
 21
359.384594
 31
0.0
  0
LINE
  5
35E
100
AcDbEntity
  8
0
  6
Continuous
 62
     8
100
AcDbLine
 10
230.51685
 20
361.384381
 30
0.0
 11
230.51685
 21
370.642812
 31
0.0
  0
LINE
  5
35F
100
AcDbEntity
  8
0
  6
Continuous
 62
     8
100
AcDbLine
 10
230.51685
 20
372.642599
 30
0.0
 11
230.51685
 21
373.642706
 31
0.0
  0
LINE
  5
360
100
AcDbEntity
  8
0
  6
Continuous
 62
     8
100
AcDbLine
 10
230.51685
 20
375.642493
 30
0.0
 11
230.51685
 21
384.900924
 31
0.0
  0
ENDBLK
  5
361
100
AcDbEntity
  8
0
100
AcDbBlockEnd
  0
BLOCK
  5
364
100
AcDbEntity
  8
0
100
AcDbBlockBegin
  2
*B61
 70
     0
 10
0.0
 20
0.0
 30
0.0
  3
*B61
  1

  0
LINE
  5
365
100
AcDbEntity
  8
0
  6
Continuous
 62
     8
100
AcDbLine
 10
318.516419
 20
118.039359
 30
0.0
 11
318.516419
 21
123.039465
 31
0.0
  0
LINE
  5
366
100
AcDbEntity
  8
0
  6
Continuous
 62
     8
100
AcDbLine
 10
318.516419
 20
129.039252
 30
0.0
 11
318.516419
 21
134.038932
 31
0.0
  0
ENDBLK
  5
367
100
AcDbEntity
  8
0
100
AcDbBlockEnd
  0
BLOCK
  5
36A
100
AcDbEntity
  8
0
100
AcDbBlockBegin
  2
*B62
 70
     0
 10
0.0
 20
0.0
 30
0.0
  3
*B62
  1

  0
LINE
  5
36B
100
AcDbEntity
  8
0
  6
Continuous
 62
     8
100
AcDbLine
 10
318.516419
 20
199.298211
 30
0.0
 11
318.516419
 21
203.298211
 31
0.0
  0
LINE
  5
36C
100
AcDbEntity
  8
0
  6
Continuous
 62
     8
100
AcDbLine
 10
318.516419
 20
142.038932
 30
0.0
 11
318.516419
 21
147.039038
 31
0.0
  0
LINE
  5
36D
100
AcDbEntity
  8
0
  6
Continuous
 62
     8
100
AcDbLine
 10
318.516419
 20
153.038825
 30
0.0
 11
318.516419
 21
160.853698
 31
0.0
  0
LINE
  5
36E
100
AcDbEntity
  8
0
  6
Continuous
 62
     8
100
AcDbLine
 10
318.516419
 20
162.853911
 30
0.0
 11
318.516419
 21
163.853592
 31
0.0
  0
LINE
  5
36F
100
AcDbEntity
  8
0
  6
Continuous
 62
     8
100
AcDbLine
 10
318.516419
 20
165.853804
 30
0.0
 11
318.516419
 21
173.668678
 31
0.0
  0
LINE
  5
370
100
AcDbEntity
  8
0
  6
Continuous
 62
     8
100
AcDbLine
 10
318.516419
 20
175.668465
 30
0.0
 11
318.516419
 21
176.668571
 31
0.0
  0
LINE
  5
371
100
AcDbEntity
  8
0
  6
Continuous
 62
     8
100
AcDbLine
 10
318.516419
 20
178.668358
 30
0.0
 11
318.516419
 21
186.483657
 31
0.0
  0
LINE
  5
372
100
AcDbEntity
  8
0
  6
Continuous
 62
     8
100
AcDbLine
 10
318.516419
 20
188.483444
 30
0.0
 11
318.516419
 21
189.483551
 31
0.0
  0
LINE
  5
373
100
AcDbEntity
  8
0
  6
Continuous
 62
     8
100
AcDbLine
 10
318.516419
 20
191.483338
 30
0.0
 11
318.516419
 21
199.298211
 31
0.0
  0
ENDBLK
  5
374
100
AcDbEntity
  8
0
100
AcDbBlockEnd
  0
BLOCK
  5
377
100
AcDbEntity
  8
0
100
AcDbBlockBegin
  2
*B63
 70
     0
 10
0.0
 20
0.0
 30
0.0
  3
*B63
  1

  0
LINE
  5
378
100
AcDbEntity
  8
0
  6
Continuous
 62
     8
100
AcDbLine
 10
318.516419
 20
332.868158
 30
0.0
 11
318.516419
 21
342.126589
 31
0.0
  0
LINE
  5
379
100
AcDbEntity
  8
0
  6
Continuous
 62
     8
100
AcDbLine
 10
318.516419
 20
344.126376
 30
0.0
 11
318.516419
 21
345.126482
 31
0.0
  0
LINE
  5
37A
100
AcDbEntity
  8
0
  6
Continuous
 62
     8
100
AcDbLine
 10
318.516419
 20
347.126269
 30
0.0
 11
318.516419
 21
356.384701
 31
0.0
  0
LINE
  5
37B
100
AcDbEntity
  8
0
  6
Continuous
 62
     8
100
AcDbLine
 10
318.516419
 20
358.384488
 30
0.0
 11
318.516419
 21
359.384594
 31
0.0
  0
LINE
  5
37C
100
AcDbEntity
  8
0
  6
Continuous
 62
     8
100
AcDbLine
 10
318.516419
 20
361.384381
 30
0.0
 11
318.516419
 21
370.642812
 31
0.0
  0
LINE
  5
37D
100
AcDbEntity
  8
0
  6
Continuous
 62
     8
100
AcDbLine
 10
318.516419
 20
372.642599
 30
0.0
 11
318.516419
 21
373.642706
 31
0.0
  0
LINE
  5
37E
100
AcDbEntity
  8
0
  6
Continuous
 62
     8
100
AcDbLine
 10
318.516419
 20
375.642493
 30
0.0
 11
318.516419
 21
384.900924
 31
0.0
  0
ENDBLK
  5
37F
100
AcDbEntity
  8
0
100
AcDbBlockEnd
  0
BLOCK
  5
382
100
AcDbEntity
  8
0
100
AcDbBlockBegin
  2
*B64
 70
     0
 10
0.0
 20
0.0
 30
0.0
  3
*B64
  1

  0
LINE
  5
383
100
AcDbEntity
  8
0
  6
Continuous
 62
     8
100
AcDbLine
 10
315.766765
 20
320.901779
 30
0.0
 11
325.516738
 21
320.901779
 31
0.0
  0
LINE
  5
384
100
AcDbEntity
  8
0
  6
Continuous
 62
     8
100
AcDbLine
 10
331.516525
 20
320.901779
 30
0.0
 11
341.266497
 21
320.901779
 31
0.0
  0
ENDBLK
  5
385
100
AcDbEntity
  8
0
100
AcDbBlockEnd
  0
BLOCK
  5
388
100
AcDbEntity
  8
0
100
AcDbBlockBegin
  2
*B65
 70
     0
 10
0.0
 20
0.0
 30
0.0
  3
*B65
  1

  0
LINE
  5
389
100
AcDbEntity
  8
0
  6
Continuous
 62
     8
100
AcDbLine
 10
465.593333
 20
102.039785
 30
0.0
 11
469.593333
 21
102.039785
 31
0.0
  0
LINE
  5
38A
100
AcDbEntity
  8
0
  6
Continuous
 62
     8
100
AcDbLine
 10
177.016693
 20
102.039785
 30
0.0
 11
182.016799
 21
102.039785
 31
0.0
  0
LINE
  5
38B
100
AcDbEntity
  8
0
  6
Continuous
 62
     8
100
AcDbLine
 10
188.016586
 20
102.039785
 30
0.0
 11
197.516745
 21
102.039785
 31
0.0
  0
LINE
  5
38C
100
AcDbEntity
  8
0
  6
Continuous
 62
     8
100
AcDbLine
 10
199.516532
 20
102.039785
 30
0.0
 11
200.516639
 21
102.039785
 31
0.0
  0
LINE
  5
38D
100
AcDbEntity
  8
0
  6
Continuous
 62
     8
100
AcDbLine
 10
202.516851
 20
102.039785
 30
0.0
 11
212.016585
 21
102.039785
 31
0.0
  0
LINE
  5
38E
100
AcDbEntity
  8
0
  6
Continuous
 62
     8
100
AcDbLine
 10
214.016798
 20
102.039785
 30
0.0
 11
215.016478
 21
102.039785
 31
0.0
  0
LINE
  5
38F
100
AcDbEntity
  8
0
  6
Continuous
 62
     8
100
AcDbLine
 10
217.016691
 20
102.039785
 30
0.0
 11
226.51685
 21
102.039785
 31
0.0
  0
LINE
  5
390
100
AcDbEntity
  8
0
  6
Continuous
 62
     8
100
AcDbLine
 10
232.516637
 20
102.039785
 30
0.0
 11
242.016796
 21
102.039785
 31
0.0
  0
LINE
  5
391
100
AcDbEntity
  8
0
  6
Continuous
 62
     8
100
AcDbLine
 10
244.016583
 20
102.039785
 30
0.0
 11
245.016689
 21
102.039785
 31
0.0
  0
LINE
  5
392
100
AcDbEntity
  8
0
  6
Continuous
 62
     8
100
AcDbLine
 10
247.016476
 20
102.039785
 30
0.0
 11
256.516635
 21
102.039785
 31
0.0
  0
LINE
  5
393
100
AcDbEntity
  8
0
  6
Continuous
 62
     8
100
AcDbLine
 10
258.516848
 20
102.039785
 30
0.0
 11
259.516529
 21
102.039785
 31
0.0
  0
LINE
  5
394
100
AcDbEntity
  8
0
  6
Continuous
 62
     8
100
AcDbLine
 10
261.516742
 20
102.039785
 30
0.0
 11
271.016475
 21
102.039785
 31
0.0
  0
LINE
  5
395
100
AcDbEntity
  8
0
  6
Continuous
 62
     8
100
AcDbLine
 10
277.016687
 20
102.039785
 30
0.0
 11
286.516846
 21
102.039785
 31
0.0
  0
LINE
  5
396
100
AcDbEntity
  8
0
  6
Continuous
 62
     8
100
AcDbLine
 10
288.516634
 20
102.039785
 30
0.0
 11
289.51674
 21
102.039785
 31
0.0
  0
LINE
  5
397
100
AcDbEntity
  8
0
  6
Continuous
 62
     8
100
AcDbLine
 10
291.516527
 20
102.039785
 30
0.0
 11
301.016686
 21
102.039785
 31
0.0
  0
LINE
  5
398
100
AcDbEntity
  8
0
  6
Continuous
 62
     8
100
AcDbLine
 10
303.016473
 20
102.039785
 30
0.0
 11
304.016579
 21
102.039785
 31
0.0
  0
LINE
  5
399
100
AcDbEntity
  8
0
  6
Continuous
 62
     8
100
AcDbLine
 10
306.016792
 20
102.039785
 30
0.0
 11
315.516526
 21
102.039785
 31
0.0
  0
LINE
  5
39A
100
AcDbEntity
  8
0
  6
Continuous
 62
     8
100
AcDbLine
 10
321.516738
 20
102.039785
 30
0.0
 11
331.016471
 21
102.039785
 31
0.0
  0
LINE
  5
39B
100
AcDbEntity
  8
0
  6
Continuous
 62
     8
100
AcDbLine
 10
333.016684
 20
102.039785
 30
0.0
 11
334.01679
 21
102.039785
 31
0.0
  0
LINE
  5
39C
100
AcDbEntity
  8
0
  6
Continuous
 62
     8
100
AcDbLine
 10
336.016577
 20
102.039785
 30
0.0
 11
345.516737
 21
102.039785
 31
0.0
  0
LINE
  5
39D
100
AcDbEntity
  8
0
  6
Continuous
 62
     8
100
AcDbLine
 10
347.516524
 20
102.039785
 30
0.0
 11
348.51663
 21
102.039785
 31
0.0
  0
LINE
  5
39E
100
AcDbEntity
  8
0
  6
Continuous
 62
     8
100
AcDbLine
 10
350.516417
 20
102.039785
 30
0.0
 11
360.016576
 21
102.039785
 31
0.0
  0
LINE
  5
39F
100
AcDbEntity
  8
0
  6
Continuous
 62
     8
100
AcDbLine
 10
366.016788
 20
102.039785
 30
0.0
 11
375.516522
 21
102.039785
 31
0.0
  0
LINE
  5
3A0
100
AcDbEntity
  8
0
  6
Continuous
 62
     8
100
AcDbLine
 10
377.516735
 20
102.039785
 30
0.0
 11
378.516415
 21
102.039785
 31
0.0
  0
LINE
  5
3A1
100
AcDbEntity
  8
0
  6
Continuous
 62
     8
100
AcDbLine
 10
380.516628
 20
102.039785
 30
0.0
 11
390.016787
 21
102.039785
 31
0.0
  0
LINE
  5
3A2
100
AcDbEntity
  8
0
  6
Continuous
 62
     8
100
AcDbLine
 10
392.016574
 20
102.039785
 30
0.0
 11
393.01668
 21
102.039785
 31
0.0
  0
LINE
  5
3A3
100
AcDbEntity
  8
0
  6
Continuous
 62
     8
100
AcDbLine
 10
395.016468
 20
102.039785
 30
0.0
 11
404.516627
 21
102.039785
 31
0.0
  0
LINE
  5
3A4
100
AcDbEntity
  8
0
  6
Continuous
 62
     8
100
AcDbLine
 10
410.516413
 20
102.039785
 30
0.0
 11
420.535777
 21
102.039785
 31
0.0
  0
LINE
  5
3A5
100
AcDbEntity
  8
0
  6
Continuous
 62
     8
100
AcDbLine
 10
422.535989
 20
102.039785
 30
0.0
 11
423.53567
 21
102.039785
 31
0.0
  0
LINE
  5
3A6
100
AcDbEntity
  8
0
  6
Continuous
 62
     8
100
AcDbLine
 10
425.535883
 20
102.039785
 30
0.0
 11
435.55482
 21
102.039785
 31
0.0
  0
LINE
  5
3A7
100
AcDbEntity
  8
0
  6
Continuous
 62
     8
100
AcDbLine
 10
437.555033
 20
102.039785
 30
0.0
 11
438.555139
 21
102.039785
 31
0.0
  0
LINE
  5
3A8
100
AcDbEntity
  8
0
  6
Continuous
 62
     8
100
AcDbLine
 10
440.554926
 20
102.039785
 30
0.0
 11
450.57429
 21
102.039785
 31
0.0
  0
LINE
  5
3A9
100
AcDbEntity
  8
0
  6
Continuous
 62
     8
100
AcDbLine
 10
452.574077
 20
102.039785
 30
0.0
 11
453.574183
 21
102.039785
 31
0.0
  0
LINE
  5
3AA
100
AcDbEntity
  8
0
  6
Continuous
 62
     8
100
AcDbLine
 10
455.574396
 20
102.039785
 30
0.0
 11
465.593333
 21
102.039785
 31
0.0
  0
ENDBLK
  5
3AB
100
AcDbEntity
  8
0
100
AcDbBlockEnd
  0
BLOCK
  5
3AE
100
AcDbEntity
  8
0
100
AcDbBlockBegin
  2
*B66
 70
     0
 10
0.0
 20
0.0
 30
0.0
  3
*B66
  1

  0
LINE
  5
3AF
100
AcDbEntity
  8
0
  6
Continuous
 62
     8
100
AcDbLine
 10
388.516628
 20
57.131606
 30
0.0
 11
388.516628
 21
88.039999
 31
0.0
  0
ENDBLK
  5
3B0
100
AcDbEntity
  8
0
100
AcDbBlockEnd
  0
BLOCK
  5
3B3
100
AcDbEntity
  8
0
100
AcDbBlockBegin
  2
*B67
 70
     0
 10
0.0
 20
0.0
 30
0.0
  3
*B67
  1

  0
LINE
  5
3B4
100
AcDbEntity
  8
0
  6
Continuous
 62
     8
100
AcDbLine
 10
100.381311
 20
380.900924
 30
0.0
 11
162.516854
 21
380.900924
 31
0.0
  0
ENDBLK
  5
3B5
100
AcDbEntity
  8
0
100
AcDbBlockEnd
  0
BLOCK
  5
3B8
100
AcDbEntity
  8
0
100
AcDbBlockBegin
  2
*B68
 70
     0
 10
0.0
 20
0.0
 30
0.0
  3
*B68
  1

  0
LINE
  5
3B9
100
AcDbEntity
  8
0
  6
Continuous
 62
     8
100
AcDbLine
 10
396.516627
 20
130.039358
 30
0.0
 11
396.516627
 21
135.039039
 31
0.0
  0
LINE
  5
3BA
100
AcDbEntity
  8
0
  6
Continuous
 62
     8
100
AcDbLine
 10
396.516627
 20
141.038826
 30
0.0
 11
396.516627
 21
146.038932
 31
0.0
  0
ENDBLK
  5
3BB
100
AcDbEntity
  8
0
100
AcDbBlockEnd
  0
BLOCK
  5
3BE
100
AcDbEntity
  8
0
100
AcDbBlockBegin
  2
*B69
 70
     0
 10
0.0
 20
0.0
 30
0.0
  3
*B69
  1

  0
LINE
  5
3BF
100
AcDbEntity
  8
0
  6
Continuous
 62
     8
100
AcDbLine
 10
274.016794
 20
57.131606
 30
0.0
 11
274.016794
 21
61.131606
 31
0.0
  0
LINE
  5
3C0
100
AcDbEntity
  8
0
  6
Continuous
 62
     8
100
AcDbLine
 10
274.016794
 20
199.298211
 30
0.0
 11
274.016794
 21
203.298211
 31
0.0
  0
LINE
  5
3C1
100
AcDbEntity
  8
0
  6
Continuous
 62
     8
100
AcDbLine
 10
274.016794
 20
61.131606
 30
0.0
 11
274.016794
 21
70.434297
 31
0.0
  0
LINE
  5
3C2
100
AcDbEntity
  8
0
  6
Continuous
 62
     8
100
AcDbLine
 10
274.016794
 20
72.434084
 30
0.0
 11
274.016794
 21
73.434191
 31
0.0
  0
LINE
  5
3C3
100
AcDbEntity
  8
0
  6
Continuous
 62
     8
100
AcDbLine
 10
274.016794
 20
75.433978
 30
0.0
 11
274.016794
 21
84.737095
 31
0.0
  0
LINE
  5
3C4
100
AcDbEntity
  8
0
  6
Continuous
 62
     8
100
AcDbLine
 10
274.016794
 20
86.736882
 30
0.0
 11
274.016794
 21
87.736988
 31
0.0
  0
LINE
  5
3C5
100
AcDbEntity
  8
0
  6
Continuous
 62
     8
100
AcDbLine
 10
274.016794
 20
89.736775
 30
0.0
 11
274.016794
 21
99.039466
 31
0.0
  0
LINE
  5
3C6
100
AcDbEntity
  8
0
  6
Continuous
 62
     8
100
AcDbLine
 10
274.016794
 20
105.039679
 30
0.0
 11
274.016794
 21
123.039465
 31
0.0
  0
LINE
  5
3C7
100
AcDbEntity
  8
0
  6
Continuous
 62
     8
100
AcDbLine
 10
274.016794
 20
129.039252
 30
0.0
 11
274.016794
 21
147.039038
 31
0.0
  0
LINE
  5
3C8
100
AcDbEntity
  8
0
  6
Continuous
 62
     8
100
AcDbLine
 10
274.016794
 20
153.038825
 30
0.0
 11
274.016794
 21
160.853698
 31
0.0
  0
LINE
  5
3C9
100
AcDbEntity
  8
0
  6
Continuous
 62
     8
100
AcDbLine
 10
274.016794
 20
162.853911
 30
0.0
 11
274.016794
 21
163.853592
 31
0.0
  0
LINE
  5
3CA
100
AcDbEntity
  8
0
  6
Continuous
 62
     8
100
AcDbLine
 10
274.016794
 20
165.853804
 30
0.0
 11
274.016794
 21
173.668678
 31
0.0
  0
LINE
  5
3CB
100
AcDbEntity
  8
0
  6
Continuous
 62
     8
100
AcDbLine
 10
274.016794
 20
175.668465
 30
0.0
 11
274.016794
 21
176.668571
 31
0.0
  0
LINE
  5
3CC
100
AcDbEntity
  8
0
  6
Continuous
 62
     8
100
AcDbLine
 10
274.016794
 20
178.668358
 30
0.0
 11
274.016794
 21
186.483657
 31
0.0
  0
LINE
  5
3CD
100
AcDbEntity
  8
0
  6
Continuous
 62
     8
100
AcDbLine
 10
274.016794
 20
188.483444
 30
0.0
 11
274.016794
 21
189.483551
 31
0.0
  0
LINE
  5
3CE
100
AcDbEntity
  8
0
  6
Continuous
 62
     8
100
AcDbLine
 10
274.016794
 20
191.483338
 30
0.0
 11
274.016794
 21
199.298211
 31
0.0
  0
ENDBLK
  5
3CF
100
AcDbEntity
  8
0
100
AcDbBlockEnd
  0
BLOCK
  5
3D2
100
AcDbEntity
  8
0
100
AcDbBlockBegin
  2
*B70
 70
     0
 10
0.0
 20
0.0
 30
0.0
  3
*B70
  1

  0
LINE
  5
3D3
100
AcDbEntity
  8
0
  6
Continuous
 62
     8
100
AcDbLine
 10
373.016682
 20
308.151913
 30
0.0
 11
373.016682
 21
317.901886
 31
0.0
  0
LINE
  5
3D4
100
AcDbEntity
  8
0
  6
Continuous
 62
     8
100
AcDbLine
 10
373.016682
 20
323.901672
 30
0.0
 11
373.016682
 21
333.651645
 31
0.0
  0
ENDBLK
  5
3D5
100
AcDbEntity
  8
0
100
AcDbBlockEnd
  0
BLOCK
  5
3D8
100
AcDbEntity
  8
0
100
AcDbBlockBegin
  2
*B71
 70
     0
 10
0.0
 20
0.0
 30
0.0
  3
*B71
  1

  0
LINE
  5
3D9
100
AcDbEntity
  8
0
  6
Continuous
 62
     8
100
AcDbLine
 10
126.036379
 20
137.789118
 30
0.0
 11
138.516855
 21
137.789118
 31
0.0
  0
ENDBLK
  5
3DA
100
AcDbEntity
  8
0
100
AcDbBlockEnd
  0
BLOCK
  5
3DD
100
AcDbEntity
  8
0
100
AcDbBlockBegin
  2
*B72
 70
     0
 10
0.0
 20
0.0
 30
0.0
  3
*B72
  1

  0
LINE
  5
3DE
100
AcDbEntity
  8
0
  6
Continuous
 62
     8
100
AcDbLine
 10
404.76644
 20
320.901779
 30
0.0
 11
414.516413
 21
320.901779
 31
0.0
  0
LINE
  5
3DF
100
AcDbEntity
  8
0
  6
Continuous
 62
     8
100
AcDbLine
 10
420.516626
 20
320.901779
 30
0.0
 11
430.266598
 21
320.901779
 31
0.0
  0
ENDBLK
  5
3E0
100
AcDbEntity
  8
0
100
AcDbBlockEnd
  0
BLOCK
  5
3E3
100
AcDbEntity
  8
0
100
AcDbBlockBegin
  2
*B73
 70
     0
 10
0.0
 20
0.0
 30
0.0
  3
*B73
  1

  0
LINE
  5
3E4
100
AcDbEntity
  8
0
  6
Continuous
 62
     8
100
AcDbLine
 10
196.016586
 20
106.03936
 30
0.0
 11
196.016586
 21
111.039466
 31
0.0
  0
LINE
  5
3E5
100
AcDbEntity
  8
0
  6
Continuous
 62
     8
100
AcDbLine
 10
196.016586
 20
117.039253
 30
0.0
 11
196.016586
 21
122.039359
 31
0.0
  0
ENDBLK
  5
3E6
100
AcDbEntity
  8
0
100
AcDbBlockEnd
  0
BLOCK
  5
3E9
100
AcDbEntity
  8
0
100
AcDbBlockBegin
  2
*B74
 70
     0
 10
0.0
 20
0.0
 30
0.0
  3
*B74
  1

  0
LINE
  5
3EA
100
AcDbEntity
  8
0
  6
Continuous
 62
     8
100
AcDbLine
 10
417.516732
 20
308.151913
 30
0.0
 11
417.516732
 21
317.901886
 31
0.0
  0
LINE
  5
3EB
100
AcDbEntity
  8
0
  6
Continuous
 62
     8
100
AcDbLine
 10
417.516732
 20
323.901672
 30
0.0
 11
417.516732
 21
333.651645
 31
0.0
  0
ENDBLK
  5
3EC
100
AcDbEntity
  8
0
100
AcDbBlockEnd
  0
BLOCK
  5
3EF
100
AcDbEntity
  8
0
100
AcDbBlockBegin
  2
*B75
 70
     0
 10
0.0
 20
0.0
 30
0.0
  3
*B75
  1

  0
LINE
  5
3F0
100
AcDbEntity
  8
0
  6
Continuous
 62
     8
100
AcDbLine
 10
346.516417
 20
83.539946
 30
0.0
 11
346.516417
 21
87.039893
 31
0.0
  0
LINE
  5
3F1
100
AcDbEntity
  8
0
  6
Continuous
 62
     8
100
AcDbLine
 10
346.516417
 20
93.03968
 30
0.0
 11
346.516417
 21
96.539626
 31
0.0
  0
ENDBLK
  5
3F2
100
AcDbEntity
  8
0
100
AcDbBlockEnd
  0
BLOCK
  5
3F5
100
AcDbEntity
  8
0
100
AcDbBlockBegin
  2
*B76
 70
     0
 10
0.0
 20
0.0
 30
0.0
  3
*B76
  1

  0
LINE
  5
3F6
100
AcDbEntity
  8
0
  6
Continuous
 62
     8
100
AcDbLine
 10
264.016582
 20
233.469079
 30
0.0
 11
264.016582
 21
237.469078
 31
0.0
  0
LINE
  5
3F7
100
AcDbEntity
  8
0
  6
Continuous
 62
     8
100
AcDbLine
 10
264.016582
 20
237.469078
 30
0.0
 11
264.016582
 21
246.82752
 31
0.0
  0
LINE
  5
3F8
100
AcDbEntity
  8
0
  6
Continuous
 62
     8
100
AcDbLine
 10
264.016582
 20
248.827307
 30
0.0
 11
264.016582
 21
249.827414
 31
0.0
  0
LINE
  5
3F9
100
AcDbEntity
  8
0
  6
Continuous
 62
     8
100
AcDbLine
 10
264.016582
 20
251.827201
 30
0.0
 11
264.016582
 21
261.185642
 31
0.0
  0
LINE
  5
3FA
100
AcDbEntity
  8
0
  6
Continuous
 62
     8
100
AcDbLine
 10
264.016582
 20
263.18543
 30
0.0
 11
264.016582
 21
264.185536
 31
0.0
  0
LINE
  5
3FB
100
AcDbEntity
  8
0
  6
Continuous
 62
     8
100
AcDbLine
 10
264.016582
 20
266.185749
 30
0.0
 11
264.016582
 21
275.543765
 31
0.0
  0
LINE
  5
3FC
100
AcDbEntity
  8
0
  6
Continuous
 62
     8
100
AcDbLine
 10
264.016582
 20
277.543977
 30
0.0
 11
264.016582
 21
278.544084
 31
0.0
  0
LINE
  5
3FD
100
AcDbEntity
  8
0
  6
Continuous
 62
     8
100
AcDbLine
 10
264.016582
 20
280.543871
 30
0.0
 11
264.016582
 21
289.902313
 31
0.0
  0
LINE
  5
3FE
100
AcDbEntity
  8
0
  6
Continuous
 62
     8
100
AcDbLine
 10
264.016582
 20
295.9021
 30
0.0
 11
264.016582
 21
305.652072
 31
0.0
  0
ENDBLK
  5
3FF
100
AcDbEntity
  8
0
100
AcDbBlockEnd
  0
BLOCK
  5
402
100
AcDbEntity
  8
0
100
AcDbBlockBegin
  2
*B77
 70
     0
 10
0.0
 20
0.0
 30
0.0
  3
*B77
  1

  0
LINE
  5
403
100
AcDbEntity
  8
0
  6
Continuous
 62
     8
100
AcDbLine
 10
152.516642
 20
57.131606
 30
0.0
 11
152.516642
 21
61.131606
 31
0.0
  0
LINE
  5
404
100
AcDbEntity
  8
0
  6
Continuous
 62
     8
100
AcDbLine
 10
152.516642
 20
61.131606
 30
0.0
 11
152.516642
 21
71.585484
 31
0.0
  0
LINE
  5
405
100
AcDbEntity
  8
0
  6
Continuous
 62
     8
100
AcDbLine
 10
152.516642
 20
73.585696
 30
0.0
 11
152.516642
 21
74.585803
 31
0.0
  0
LINE
  5
406
100
AcDbEntity
  8
0
  6
Continuous
 62
     8
100
AcDbLine
 10
152.516642
 20
76.58559
 30
0.0
 11
152.516642
 21
87.039893
 31
0.0
  0
LINE
  5
407
100
AcDbEntity
  8
0
  6
Continuous
 62
     8
100
AcDbLine
 10
152.516642
 20
93.03968
 30
0.0
 11
152.516642
 21
98.539839
 31
0.0
  0
ENDBLK
  5
408
100
AcDbEntity
  8
0
100
AcDbBlockEnd
  0
BLOCK
  5
40B
100
AcDbEntity
  8
0
100
AcDbBlockBegin
  2
*B78
 70
     0
 10
0.0
 20
0.0
 30
0.0
  3
*B78
  1

  0
LINE
  5
40C
100
AcDbEntity
  8
0
  6
Continuous
 62
     8
100
AcDbLine
 10
424.016572
 20
155.538665
 30
0.0
 11
424.016572
 21
159.038612
 31
0.0
  0
LINE
  5
40D
100
AcDbEntity
  8
0
  6
Continuous
 62
     8
100
AcDbLine
 10
424.016572
 20
165.038824
 30
0.0
 11
424.016572
 21
168.538345
 31
0.0
  0
ENDBLK
  5
40E
100
AcDbEntity
  8
0
100
AcDbBlockEnd
  0
BLOCK
  5
411
100
AcDbEntity
  8
0
100
AcDbBlockBegin
  2
*B79
 70
     0
 10
0.0
 20
0.0
 30
0.0
  3
*B79
  1

  0
LINE
  5
412
100
AcDbEntity
  8
0
  6
Continuous
 62
     8
100
AcDbLine
 10
102.036381
 20
176.038291
 30
0.0
 11
138.516855
 21
176.038291
 31
0.0
  0
ENDBLK
  5
413
100
AcDbEntity
  8
0
100
AcDbBlockEnd
  0
BLOCK
  5
416
100
AcDbEntity
  8
0
100
AcDbBlockBegin
  2
*B80
 70
     0
 10
0.0
 20
0.0
 30
0.0
  3
*B80
  1

  0
LINE
  5
417
100
AcDbEntity
  8
0
  6
Continuous
 62
     8
100
AcDbLine
 10
328.516631
 20
308.151913
 30
0.0
 11
328.516631
 21
317.901886
 31
0.0
  0
LINE
  5
418
100
AcDbEntity
  8
0
  6
Continuous
 62
     8
100
AcDbLine
 10
328.516631
 20
323.901672
 30
0.0
 11
328.516631
 21
333.651645
 31
0.0
  0
ENDBLK
  5
419
100
AcDbEntity
  8
0
100
AcDbBlockEnd
  0
BLOCK
  5
41C
100
AcDbEntity
  8
0
100
AcDbBlockBegin
  2
*B81
 70
     0
 10
0.0
 20
0.0
 30
0.0
  3
*B81
  1

  0
LINE
  5
41D
100
AcDbEntity
  8
0
  6
Continuous
 62
     8
100
AcDbLine
 10
360.266815
 20
320.901779
 30
0.0
 11
370.016788
 21
320.901779
 31
0.0
  0
LINE
  5
41E
100
AcDbEntity
  8
0
  6
Continuous
 62
     8
100
AcDbLine
 10
376.016575
 20
320.901779
 30
0.0
 11
385.766548
 21
320.901779
 31
0.0
  0
ENDBLK
  5
41F
100
AcDbEntity
  8
0
100
AcDbBlockEnd
  0
BLOCK
  5
422
100
AcDbEntity
  8
0
100
AcDbBlockBegin
  2
*B82
 70
     0
 10
0.0
 20
0.0
 30
0.0
  3
*B82
  1

  0
LINE
  5
423
100
AcDbEntity
  8
0
  6
Continuous
 62
     8
100
AcDbLine
 10
271.266714
 20
320.901779
 30
0.0
 11
281.016687
 21
320.901779
 31
0.0
  0
LINE
  5
424
100
AcDbEntity
  8
0
  6
Continuous
 62
     8
100
AcDbLine
 10
287.016474
 20
320.901779
 30
0.0
 11
296.766447
 21
320.901779
 31
0.0
  0
ENDBLK
  5
425
100
AcDbEntity
  8
0
100
AcDbBlockEnd
  0
BLOCK
  5
428
100
AcDbEntity
  8
0
100
AcDbBlockBegin
  2
*B83
 70
     0
 10
0.0
 20
0.0
 30
0.0
  3
*B83
  1

  0
LINE
  5
429
100
AcDbEntity
  8
0
  6
Continuous
 62
     8
100
AcDbLine
 10
307.516526
 20
130.039358
 30
0.0
 11
307.516526
 21
135.039039
 31
0.0
  0
LINE
  5
42A
100
AcDbEntity
  8
0
  6
Continuous
 62
     8
100
AcDbLine
 10
307.516526
 20
141.038826
 30
0.0
 11
307.516526
 21
146.038932
 31
0.0
  0
ENDBLK
  5
42B
100
AcDbEntity
  8
0
100
AcDbBlockEnd
  0
BLOCK
  5
42E
100
AcDbEntity
  8
0
100
AcDbBlockBegin
  2
*B84
 70
     0
 10
0.0
 20
0.0
 30
0.0
  3
*B84
  1

  0
LINE
  5
42F
100
AcDbEntity
  8
0
  6
Continuous
 62
     8
100
AcDbLine
 10
465.593333
 20
150.038931
 30
0.0
 11
469.593333
 21
150.038931
 31
0.0
  0
LINE
  5
430
100
AcDbEntity
  8
0
  6
Continuous
 62
     8
100
AcDbLine
 10
177.016693
 20
150.038931
 30
0.0
 11
182.016799
 21
150.038931
 31
0.0
  0
LINE
  5
431
100
AcDbEntity
  8
0
  6
Continuous
 62
     8
100
AcDbLine
 10
188.016586
 20
150.038931
 30
0.0
 11
197.516745
 21
150.038931
 31
0.0
  0
LINE
  5
432
100
AcDbEntity
  8
0
  6
Continuous
 62
     8
100
AcDbLine
 10
199.516532
 20
150.038931
 30
0.0
 11
200.516639
 21
150.038931
 31
0.0
  0
LINE
  5
433
100
AcDbEntity
  8
0
  6
Continuous
 62
     8
100
AcDbLine
 10
202.516851
 20
150.038931
 30
0.0
 11
212.016585
 21
150.038931
 31
0.0
  0
LINE
  5
434
100
AcDbEntity
  8
0
  6
Continuous
 62
     8
100
AcDbLine
 10
214.016798
 20
150.038931
 30
0.0
 11
215.016478
 21
150.038931
 31
0.0
  0
LINE
  5
435
100
AcDbEntity
  8
0
  6
Continuous
 62
     8
100
AcDbLine
 10
217.016691
 20
150.038931
 30
0.0
 11
226.51685
 21
150.038931
 31
0.0
  0
LINE
  5
436
100
AcDbEntity
  8
0
  6
Continuous
 62
     8
100
AcDbLine
 10
232.516637
 20
150.038931
 30
0.0
 11
242.016796
 21
150.038931
 31
0.0
  0
LINE
  5
437
100
AcDbEntity
  8
0
  6
Continuous
 62
     8
100
AcDbLine
 10
244.016583
 20
150.038931
 30
0.0
 11
245.016689
 21
150.038931
 31
0.0
  0
LINE
  5
438
100
AcDbEntity
  8
0
  6
Continuous
 62
     8
100
AcDbLine
 10
247.016476
 20
150.038931
 30
0.0
 11
256.516635
 21
150.038931
 31
0.0
  0
LINE
  5
439
100
AcDbEntity
  8
0
  6
Continuous
 62
     8
100
AcDbLine
 10
258.516848
 20
150.038931
 30
0.0
 11
259.516529
 21
150.038931
 31
0.0
  0
LINE
  5
43A
100
AcDbEntity
  8
0
  6
Continuous
 62
     8
100
AcDbLine
 10
261.516742
 20
150.038931
 30
0.0
 11
271.016475
 21
150.038931
 31
0.0
  0
LINE
  5
43B
100
AcDbEntity
  8
0
  6
Continuous
 62
     8
100
AcDbLine
 10
277.016687
 20
150.038931
 30
0.0
 11
286.516846
 21
150.038931
 31
0.0
  0
LINE
  5
43C
100
AcDbEntity
  8
0
  6
Continuous
 62
     8
100
AcDbLine
 10
288.516634
 20
150.038931
 30
0.0
 11
289.51674
 21
150.038931
 31
0.0
  0
LINE
  5
43D
100
AcDbEntity
  8
0
  6
Continuous
 62
     8
100
AcDbLine
 10
291.516527
 20
150.038931
 30
0.0
 11
301.016686
 21
150.038931
 31
0.0
  0
LINE
  5
43E
100
AcDbEntity
  8
0
  6
Continuous
 62
     8
100
AcDbLine
 10
303.016473
 20
150.038931
 30
0.0
 11
304.016579
 21
150.038931
 31
0.0
  0
LINE
  5
43F
100
AcDbEntity
  8
0
  6
Continuous
 62
     8
100
AcDbLine
 10
306.016792
 20
150.038931
 30
0.0
 11
315.516526
 21
150.038931
 31
0.0
  0
LINE
  5
440
100
AcDbEntity
  8
0
  6
Continuous
 62
     8
100
AcDbLine
 10
321.516738
 20
150.038931
 30
0.0
 11
331.016471
 21
150.038931
 31
0.0
  0
LINE
  5
441
100
AcDbEntity
  8
0
  6
Continuous
 62
     8
100
AcDbLine
 10
333.016684
 20
150.038931
 30
0.0
 11
334.01679
 21
150.038931
 31
0.0
  0
LINE
  5
442
100
AcDbEntity
  8
0
  6
Continuous
 62
     8
100
AcDbLine
 10
336.016577
 20
150.038931
 30
0.0
 11
345.516737
 21
150.038931
 31
0.0
  0
LINE
  5
443
100
AcDbEntity
  8
0
  6
Continuous
 62
     8
100
AcDbLine
 10
347.516524
 20
150.038931
 30
0.0
 11
348.51663
 21
150.038931
 31
0.0
  0
LINE
  5
444
100
AcDbEntity
  8
0
  6
Continuous
 62
     8
100
AcDbLine
 10
350.516417
 20
150.038931
 30
0.0
 11
360.016576
 21
150.038931
 31
0.0
  0
LINE
  5
445
100
AcDbEntity
  8
0
  6
Continuous
 62
     8
100
AcDbLine
 10
366.016788
 20
150.038931
 30
0.0
 11
375.516522
 21
150.038931
 31
0.0
  0
LINE
  5
446
100
AcDbEntity
  8
0
  6
Continuous
 62
     8
100
AcDbLine
 10
377.516735
 20
150.038931
 30
0.0
 11
378.516415
 21
150.038931
 31
0.0
  0
LINE
  5
447
100
AcDbEntity
  8
0
  6
Continuous
 62
     8
100
AcDbLine
 10
380.516628
 20
150.038931
 30
0.0
 11
390.016787
 21
150.038931
 31
0.0
  0
LINE
  5
448
100
AcDbEntity
  8
0
  6
Continuous
 62
     8
100
AcDbLine
 10
392.016574
 20
150.038931
 30
0.0
 11
393.01668
 21
150.038931
 31
0.0
  0
LINE
  5
449
100
AcDbEntity
  8
0
  6
Continuous
 62
     8
100
AcDbLine
 10
395.016468
 20
150.038931
 30
0.0
 11
404.516627
 21
150.038931
 31
0.0
  0
LINE
  5
44A
100
AcDbEntity
  8
0
  6
Continuous
 62
     8
100
AcDbLine
 10
410.516413
 20
150.038931
 30
0.0
 11
420.535777
 21
150.038931
 31
0.0
  0
LINE
  5
44B
100
AcDbEntity
  8
0
  6
Continuous
 62
     8
100
AcDbLine
 10
422.535989
 20
150.038931
 30
0.0
 11
423.53567
 21
150.038931
 31
0.0
  0
LINE
  5
44C
100
AcDbEntity
  8
0
  6
Continuous
 62
     8
100
AcDbLine
 10
425.535883
 20
150.038931
 30
0.0
 11
435.55482
 21
150.038931
 31
0.0
  0
LINE
  5
44D
100
AcDbEntity
  8
0
  6
Continuous
 62
     8
100
AcDbLine
 10
437.555033
 20
150.038931
 30
0.0
 11
438.555139
 21
150.038931
 31
0.0
  0
LINE
  5
44E
100
AcDbEntity
  8
0
  6
Continuous
 62
     8
100
AcDbLine
 10
440.554926
 20
150.038931
 30
0.0
 11
450.57429
 21
150.038931
 31
0.0
  0
LINE
  5
44F
100
AcDbEntity
  8
0
  6
Continuous
 62
     8
100
AcDbLine
 10
452.574077
 20
150.038931
 30
0.0
 11
453.574183
 21
150.038931
 31
0.0
  0
LINE
  5
450
100
AcDbEntity
  8
0
  6
Continuous
 62
     8
100
AcDbLine
 10
455.574396
 20
150.038931
 30
0.0
 11
465.593333
 21
150.038931
 31
0.0
  0
ENDBLK
  5
451
100
AcDbEntity
  8
0
100
AcDbBlockEnd
  0
BLOCK
  5
454
100
AcDbEntity
  8
0
100
AcDbBlockBegin
  2
*B85
 70
     0
 10
0.0
 20
0.0
 30
0.0
  3
*B85
  1

  0
LINE
  5
455
100
AcDbEntity
  8
0
  6
Continuous
 62
     8
100
AcDbLine
 10
166.0168
 20
138.038932
 30
0.0
 11
171.016906
 21
138.038932
 31
0.0
  0
LINE
  5
456
100
AcDbEntity
  8
0
  6
Continuous
 62
     8
100
AcDbLine
 10
177.016693
 20
138.038932
 30
0.0
 11
186.516852
 21
138.038932
 31
0.0
  0
LINE
  5
457
100
AcDbEntity
  8
0
  6
Continuous
 62
     8
100
AcDbLine
 10
188.516639
 20
138.038932
 30
0.0
 11
189.516746
 21
138.038932
 31
0.0
  0
LINE
  5
458
100
AcDbEntity
  8
0
  6
Continuous
 62
     8
100
AcDbLine
 10
191.516533
 20
138.038932
 30
0.0
 11
201.016692
 21
138.038932
 31
0.0
  0
LINE
  5
459
100
AcDbEntity
  8
0
  6
Continuous
 62
     8
100
AcDbLine
 10
203.016479
 20
138.038932
 30
0.0
 11
204.016585
 21
138.038932
 31
0.0
  0
LINE
  5
45A
100
AcDbEntity
  8
0
  6
Continuous
 62
     8
100
AcDbLine
 10
206.016798
 20
138.038932
 30
0.0
 11
215.516531
 21
138.038932
 31
0.0
  0
LINE
  5
45B
100
AcDbEntity
  8
0
  6
Continuous
 62
     8
100
AcDbLine
 10
221.516744
 20
138.038932
 30
0.0
 11
231.016477
 21
138.038932
 31
0.0
  0
LINE
  5
45C
100
AcDbEntity
  8
0
  6
Continuous
 62
     8
100
AcDbLine
 10
233.01669
 20
138.038932
 30
0.0
 11
234.016796
 21
138.038932
 31
0.0
  0
LINE
  5
45D
100
AcDbEntity
  8
0
  6
Continuous
 62
     8
100
AcDbLine
 10
236.016583
 20
138.038932
 30
0.0
 11
245.516742
 21
138.038932
 31
0.0
  0
LINE
  5
45E
100
AcDbEntity
  8
0
  6
Continuous
 62
     8
100
AcDbLine
 10
247.51653
 20
138.038932
 30
0.0
 11
248.516636
 21
138.038932
 31
0.0
  0
LINE
  5
45F
100
AcDbEntity
  8
0
  6
Continuous
 62
     8
100
AcDbLine
 10
250.516849
 20
138.038932
 30
0.0
 11
260.016582
 21
138.038932
 31
0.0
  0
LINE
  5
460
100
AcDbEntity
  8
0
  6
Continuous
 62
     8
100
AcDbLine
 10
266.016794
 20
138.038932
 30
0.0
 11
275.516528
 21
138.038932
 31
0.0
  0
LINE
  5
461
100
AcDbEntity
  8
0
  6
Continuous
 62
     8
100
AcDbLine
 10
277.516741
 20
138.038932
 30
0.0
 11
278.516847
 21
138.038932
 31
0.0
  0
LINE
  5
462
100
AcDbEntity
  8
0
  6
Continuous
 62
     8
100
AcDbLine
 10
280.516634
 20
138.038932
 30
0.0
 11
290.016793
 21
138.038932
 31
0.0
  0
LINE
  5
463
100
AcDbEntity
  8
0
  6
Continuous
 62
     8
100
AcDbLine
 10
292.01658
 20
138.038932
 30
0.0
 11
293.016686
 21
138.038932
 31
0.0
  0
LINE
  5
464
100
AcDbEntity
  8
0
  6
Continuous
 62
     8
100
AcDbLine
 10
295.016474
 20
138.038932
 30
0.0
 11
304.516633
 21
138.038932
 31
0.0
  0
LINE
  5
465
100
AcDbEntity
  8
0
  6
Continuous
 62
     8
100
AcDbLine
 10
310.516845
 20
138.038932
 30
0.0
 11
320.016578
 21
138.038932
 31
0.0
  0
LINE
  5
466
100
AcDbEntity
  8
0
  6
Continuous
 62
     8
100
AcDbLine
 10
322.016791
 20
138.038932
 30
0.0
 11
323.016472
 21
138.038932
 31
0.0
  0
LINE
  5
467
100
AcDbEntity
  8
0
  6
Continuous
 62
     8
100
AcDbLine
 10
325.016685
 20
138.038932
 30
0.0
 11
334.516418
 21
138.038932
 31
0.0
  0
LINE
  5
468
100
AcDbEntity
  8
0
  6
Continuous
 62
     8
100
AcDbLine
 10
336.516631
 20
138.038932
 30
0.0
 11
337.516737
 21
138.038932
 31
0.0
  0
LINE
  5
469
100
AcDbEntity
  8
0
  6
Continuous
 62
     8
100
AcDbLine
 10
339.516524
 20
138.038932
 30
0.0
 11
349.016683
 21
138.038932
 31
0.0
  0
LINE
  5
46A
100
AcDbEntity
  8
0
  6
Continuous
 62
     8
100
AcDbLine
 10
355.01647
 20
138.038932
 30
0.0
 11
364.516629
 21
138.038932
 31
0.0
  0
LINE
  5
46B
100
AcDbEntity
  8
0
  6
Continuous
 62
     8
100
AcDbLine
 10
366.516416
 20
138.038932
 30
0.0
 11
367.516522
 21
138.038932
 31
0.0
  0
LINE
  5
46C
100
AcDbEntity
  8
0
  6
Continuous
 62
     8
100
AcDbLine
 10
369.516735
 20
138.038932
 30
0.0
 11
379.016469
 21
138.038932
 31
0.0
  0
LINE
  5
46D
100
AcDbEntity
  8
0
  6
Continuous
 62
     8
100
AcDbLine
 10
381.016681
 20
138.038932
 30
0.0
 11
382.016788
 21
138.038932
 31
0.0
  0
LINE
  5
46E
100
AcDbEntity
  8
0
  6
Continuous
 62
     8
100
AcDbLine
 10
384.016575
 20
138.038932
 30
0.0
 11
393.516734
 21
138.038932
 31
0.0
  0
LINE
  5
46F
100
AcDbEntity
  8
0
  6
Continuous
 62
     8
100
AcDbLine
 10
399.516521
 20
138.038932
 30
0.0
 11
404.516627
 21
138.038932
 31
0.0
  0
ENDBLK
  5
470
100
AcDbEntity
  8
0
100
AcDbBlockEnd
  0
BLOCK
  5
473
100
AcDbEntity
  8
0
100
AcDbBlockBegin
  2
*B86
 70
     0
 10
0.0
 20
0.0
 30
0.0
  3
*B86
  1

  0
LINE
  5
474
100
AcDbEntity
  8
0
  6
Continuous
 62
     8
100
AcDbLine
 10
353.016683
 20
233.469079
 30
0.0
 11
353.016683
 21
237.469078
 31
0.0
  0
LINE
  5
475
100
AcDbEntity
  8
0
  6
Continuous
 62
     8
100
AcDbLine
 10
353.016683
 20
237.469078
 30
0.0
 11
353.016683
 21
246.82752
 31
0.0
  0
LINE
  5
476
100
AcDbEntity
  8
0
  6
Continuous
 62
     8
100
AcDbLine
 10
353.016683
 20
248.827307
 30
0.0
 11
353.016683
 21
249.827414
 31
0.0
  0
LINE
  5
477
100
AcDbEntity
  8
0
  6
Continuous
 62
     8
100
AcDbLine
 10
353.016683
 20
251.827201
 30
0.0
 11
353.016683
 21
261.185642
 31
0.0
  0
LINE
  5
478
100
AcDbEntity
  8
0
  6
Continuous
 62
     8
100
AcDbLine
 10
353.016683
 20
263.18543
 30
0.0
 11
353.016683
 21
264.185536
 31
0.0
  0
LINE
  5
479
100
AcDbEntity
  8
0
  6
Continuous
 62
     8
100
AcDbLine
 10
353.016683
 20
266.185749
 30
0.0
 11
353.016683
 21
275.543765
 31
0.0
  0
LINE
  5
47A
100
AcDbEntity
  8
0
  6
Continuous
 62
     8
100
AcDbLine
 10
353.016683
 20
277.543977
 30
0.0
 11
353.016683
 21
278.544084
 31
0.0
  0
LINE
  5
47B
100
AcDbEntity
  8
0
  6
Continuous
 62
     8
100
AcDbLine
 10
353.016683
 20
280.543871
 30
0.0
 11
353.016683
 21
289.902313
 31
0.0
  0
LINE
  5
47C
100
AcDbEntity
  8
0
  6
Continuous
 62
     8
100
AcDbLine
 10
353.016683
 20
295.9021
 30
0.0
 11
353.016683
 21
305.652072
 31
0.0
  0
ENDBLK
  5
47D
100
AcDbEntity
  8
0
100
AcDbBlockEnd
  0
BLOCK
  5
480
100
AcDbEntity
  8
0
100
AcDbBlockBegin
  2
*B87
 70
     0
 10
0.0
 20
0.0
 30
0.0
  3
*B87
  1

  0
LINE
  5
481
100
AcDbEntity
  8
0
  6
Continuous
 62
     8
100
AcDbLine
 10
140.516642
 20
57.131606
 30
0.0
 11
140.516642
 21
74.040213
 31
0.0
  0
LINE
  5
482
100
AcDbEntity
  8
0
  6
Continuous
 62
     8
100
AcDbLine
 10
140.516642
 20
178.038504
 30
0.0
 11
140.516642
 21
203.298211
 31
0.0
  0
ENDBLK
  5
483
100
AcDbEntity
  8
0
100
AcDbBlockEnd
  0
BLOCK
  5
486
100
AcDbEntity
  8
0
100
AcDbBlockBegin
  2
*B88
 70
     0
 10
0.0
 20
0.0
 30
0.0
  3
*B88
  1

  0
LINE
  5
487
100
AcDbEntity
  8
0
  6
Continuous
 62
     8
100
AcDbLine
 10
362.516416
 20
332.868158
 30
0.0
 11
362.516416
 21
342.126589
 31
0.0
  0
LINE
  5
488
100
AcDbEntity
  8
0
  6
Continuous
 62
     8
100
AcDbLine
 10
362.516416
 20
344.126376
 30
0.0
 11
362.516416
 21
345.126482
 31
0.0
  0
LINE
  5
489
100
AcDbEntity
  8
0
  6
Continuous
 62
     8
100
AcDbLine
 10
362.516416
 20
347.126269
 30
0.0
 11
362.516416
 21
356.384701
 31
0.0
  0
LINE
  5
48A
100
AcDbEntity
  8
0
  6
Continuous
 62
     8
100
AcDbLine
 10
362.516416
 20
358.384488
 30
0.0
 11
362.516416
 21
359.384594
 31
0.0
  0
LINE
  5
48B
100
AcDbEntity
  8
0
  6
Continuous
 62
     8
100
AcDbLine
 10
362.516416
 20
361.384381
 30
0.0
 11
362.516416
 21
370.642812
 31
0.0
  0
LINE
  5
48C
100
AcDbEntity
  8
0
  6
Continuous
 62
     8
100
AcDbLine
 10
362.516416
 20
372.642599
 30
0.0
 11
362.516416
 21
373.642706
 31
0.0
  0
LINE
  5
48D
100
AcDbEntity
  8
0
  6
Continuous
 62
     8
100
AcDbLine
 10
362.516416
 20
375.642493
 30
0.0
 11
362.516416
 21
384.900924
 31
0.0
  0
ENDBLK
  5
48E
100
AcDbEntity
  8
0
100
AcDbBlockEnd
  0
BLOCK
  5
491
100
AcDbEntity
  8
0
100
AcDbBlockBegin
  2
*B89
 70
     0
 10
0.0
 20
0.0
 30
0.0
  3
*B89
  1

  0
LINE
  5
492
100
AcDbEntity
  8
0
  6
Continuous
 62
     8
100
AcDbLine
 10
440.016571
 20
272.902633
 30
0.0
 11
440.016571
 21
282.502377
 31
0.0
  0
LINE
  5
493
100
AcDbEntity
  8
0
  6
Continuous
 62
     8
100
AcDbLine
 10
440.016571
 20
284.502164
 30
0.0
 11
440.016571
 21
285.50227
 31
0.0
  0
LINE
  5
494
100
AcDbEntity
  8
0
  6
Continuous
 62
     8
100
AcDbLine
 10
440.016571
 20
287.502058
 30
0.0
 11
440.016571
 21
297.102227
 31
0.0
  0
LINE
  5
495
100
AcDbEntity
  8
0
  6
Continuous
 62
     8
100
AcDbLine
 10
440.016571
 20
299.102014
 30
0.0
 11
440.016571
 21
300.102121
 31
0.0
  0
LINE
  5
496
100
AcDbEntity
  8
0
  6
Continuous
 62
     8
100
AcDbLine
 10
440.016571
 20
302.101908
 30
0.0
 11
440.016571
 21
311.702077
 31
0.0
  0
LINE
  5
497
100
AcDbEntity
  8
0
  6
Continuous
 62
     8
100
AcDbLine
 10
440.016571
 20
313.701864
 30
0.0
 11
440.016571
 21
314.701971
 31
0.0
  0
LINE
  5
498
100
AcDbEntity
  8
0
  6
Continuous
 62
     8
100
AcDbLine
 10
440.016571
 20
316.701758
 30
0.0
 11
440.016571
 21
326.301502
 31
0.0
  0
LINE
  5
499
100
AcDbEntity
  8
0
  6
Continuous
 62
     8
100
AcDbLine
 10
440.016571
 20
328.301715
 30
0.0
 11
440.016571
 21
329.301395
 31
0.0
  0
LINE
  5
49A
100
AcDbEntity
  8
0
  6
Continuous
 62
     8
100
AcDbLine
 10
440.016571
 20
331.301608
 30
0.0
 11
440.016571
 21
340.901352
 31
0.0
  0
ENDBLK
  5
49B
100
AcDbEntity
  8
0
100
AcDbBlockEnd
  0
BLOCK
  5
49E
100
AcDbEntity
  8
0
100
AcDbBlockBegin
  2
*B90
 70
     0
 10
0.0
 20
0.0
 30
0.0
  3
*B90
  1

  0
LINE
  5
49F
100
AcDbEntity
  8
0
  6
Continuous
 62
     8
100
AcDbLine
 10
318.516419
 20
94.039786
 30
0.0
 11
318.516419
 21
99.039466
 31
0.0
  0
LINE
  5
4A0
100
AcDbEntity
  8
0
  6
Continuous
 62
     8
100
AcDbLine
 10
318.516419
 20
105.039679
 30
0.0
 11
318.516419
 21
110.039359
 31
0.0
  0
ENDBLK
  5
4A1
100
AcDbEntity
  8
0
100
AcDbBlockEnd
  0
BLOCK
  5
4A4
100
AcDbEntity
  8
0
100
AcDbBlockBegin
  2
*B91
 70
     0
 10
0.0
 20
0.0
 30
0.0
  3
*B91
  1

  0
LINE
  5
4A5
100
AcDbEntity
  8
0
  6
Continuous
 62
     8
100
AcDbLine
 10
407.51652
 20
118.039359
 30
0.0
 11
407.51652
 21
123.039465
 31
0.0
  0
LINE
  5
4A6
100
AcDbEntity
  8
0
  6
Continuous
 62
     8
100
AcDbLine
 10
407.51652
 20
129.039252
 30
0.0
 11
407.51652
 21
134.038932
 31
0.0
  0
ENDBLK
  5
4A7
100
AcDbEntity
  8
0
100
AcDbBlockEnd
  0
BLOCK
  5
4AA
100
AcDbEntity
  8
0
100
AcDbBlockBegin
  2
*B92
 70
     0
 10
0.0
 20
0.0
 30
0.0
  3
*B92
  1

  0
LINE
  5
4AB
100
AcDbEntity
  8
0
  6
Continuous
 62
     8
100
AcDbLine
 10
175.016906
 20
233.469079
 30
0.0
 11
175.016906
 21
261.468651
 31
0.0
  0
LINE
  5
4AC
100
AcDbEntity
  8
0
  6
Continuous
 62
     8
100
AcDbLine
 10
175.016906
 20
261.468651
 30
0.0
 11
175.016906
 21
273.185642
 31
0.0
  0
LINE
  5
4AD
100
AcDbEntity
  8
0
  6
Continuous
 62
     8
100
AcDbLine
 10
175.016906
 20
275.185429
 30
0.0
 11
175.016906
 21
276.185535
 31
0.0
  0
LINE
  5
4AE
100
AcDbEntity
  8
0
  6
Continuous
 62
     8
100
AcDbLine
 10
175.016906
 20
278.185322
 30
0.0
 11
175.016906
 21
289.902313
 31
0.0
  0
LINE
  5
4AF
100
AcDbEntity
  8
0
  6
Continuous
 62
     8
100
AcDbLine
 10
175.016906
 20
295.9021
 30
0.0
 11
175.016906
 21
305.652072
 31
0.0
  0
ENDBLK
  5
4B0
100
AcDbEntity
  8
0
100
AcDbBlockEnd
  0
BLOCK
  5
4B3
100
AcDbEntity
  8
0
100
AcDbBlockBegin
  2
*B93
 70
     0
 10
0.0
 20
0.0
 30
0.0
  3
*B93
  1

  0
LINE
  5
4B4
100
AcDbEntity
  8
0
  6
Continuous
 62
     8
100
AcDbLine
 10
185.016693
 20
94.039786
 30
0.0
 11
185.016693
 21
99.039466
 31
0.0
  0
LINE
  5
4B5
100
AcDbEntity
  8
0
  6
Continuous
 62
     8
100
AcDbLine
 10
185.016693
 20
105.039679
 30
0.0
 11
185.016693
 21
110.039359
 31
0.0
  0
ENDBLK
  5
4B6
100
AcDbEntity
  8
0
100
AcDbBlockEnd
  0
BLOCK
  5
4B9
100
AcDbEntity
  8
0
100
AcDbBlockBegin
  2
*B94
 70
     0
 10
0.0
 20
0.0
 30
0.0
  3
*B94
  1

  0
LINE
  5
4BA
100
AcDbEntity
  8
0
  6
Continuous
 62
     8
100
AcDbLine
 10
174.0168
 20
130.039358
 30
0.0
 11
174.0168
 21
135.039039
 31
0.0
  0
LINE
  5
4BB
100
AcDbEntity
  8
0
  6
Continuous
 62
     8
100
AcDbLine
 10
174.0168
 20
141.038826
 30
0.0
 11
174.0168
 21
146.038932
 31
0.0
  0
ENDBLK
  5
4BC
100
AcDbEntity
  8
0
100
AcDbBlockEnd
  0
BLOCK
  5
4BF
100
AcDbEntity
  8
0
100
AcDbBlockBegin
  2
*B95
 70
     0
 10
0.0
 20
0.0
 30
0.0
  3
*B95
  1

  0
LINE
  5
4C0
100
AcDbEntity
  8
0
  6
Continuous
 62
     8
100
AcDbLine
 10
335.016471
 20
155.538665
 30
0.0
 11
335.016471
 21
159.038612
 31
0.0
  0
LINE
  5
4C1
100
AcDbEntity
  8
0
  6
Continuous
 62
     8
100
AcDbLine
 10
335.016471
 20
165.038824
 30
0.0
 11
335.016471
 21
168.538345
 31
0.0
  0
ENDBLK
  5
4C2
100
AcDbEntity
  8
0
100
AcDbBlockEnd
  0
BLOCK
  5
4C5
100
AcDbEntity
  8
0
100
AcDbBlockBegin
  2
*B96
 70
     0
 10
0.0
 20
0.0
 30
0.0
  3
*B96
  1

  0
LINE
  5
4C6
100
AcDbEntity
  8
0
  6
Continuous
 62
     8
100
AcDbLine
 10
435.516518
 20
257.995942
 30
0.0
 11
435.516518
 21
274.90242
 31
0.0
  0
ENDBLK
  5
4C7
100
AcDbEntity
  8
0
100
AcDbBlockEnd
  0
BLOCK
  5
4CA
100
AcDbEntity
  8
0
100
AcDbBlockBegin
  2
*B97
 70
     0
 10
0.0
 20
0.0
 30
0.0
  3
*B97
  1

  0
LINE
  5
4CB
100
AcDbEntity
  8
0
  6
Continuous
 62
     8
100
AcDbLine
 10
152.516642
 20
272.902633
 30
0.0
 11
152.516642
 21
282.502377
 31
0.0
  0
LINE
  5
4CC
100
AcDbEntity
  8
0
  6
Continuous
 62
     8
100
AcDbLine
 10
152.516642
 20
284.502164
 30
0.0
 11
152.516642
 21
285.50227
 31
0.0
  0
LINE
  5
4CD
100
AcDbEntity
  8
0
  6
Continuous
 62
     8
100
AcDbLine
 10
152.516642
 20
287.502058
 30
0.0
 11
152.516642
 21
297.102227
 31
0.0
  0
LINE
  5
4CE
100
AcDbEntity
  8
0
  6
Continuous
 62
     8
100
AcDbLine
 10
152.516642
 20
299.102014
 30
0.0
 11
152.516642
 21
300.102121
 31
0.0
  0
LINE
  5
4CF
100
AcDbEntity
  8
0
  6
Continuous
 62
     8
100
AcDbLine
 10
152.516642
 20
302.101908
 30
0.0
 11
152.516642
 21
311.702077
 31
0.0
  0
LINE
  5
4D0
100
AcDbEntity
  8
0
  6
Continuous
 62
     8
100
AcDbLine
 10
152.516642
 20
313.701864
 30
0.0
 11
152.516642
 21
314.701971
 31
0.0
  0
LINE
  5
4D1
100
AcDbEntity
  8
0
  6
Continuous
 62
     8
100
AcDbLine
 10
152.516642
 20
316.701758
 30
0.0
 11
152.516642
 21
326.301502
 31
0.0
  0
LINE
  5
4D2
100
AcDbEntity
  8
0
  6
Continuous
 62
     8
100
AcDbLine
 10
152.516642
 20
328.301715
 30
0.0
 11
152.516642
 21
329.301395
 31
0.0
  0
LINE
  5
4D3
100
AcDbEntity
  8
0
  6
Continuous
 62
     8
100
AcDbLine
 10
152.516642
 20
331.301608
 30
0.0
 11
152.516642
 21
340.901352
 31
0.0
  0
ENDBLK
  5
4D4
100
AcDbEntity
  8
0
100
AcDbBlockEnd
  0
BLOCK
  5
4D7
100
AcDbEntity
  8
0
100
AcDbBlockBegin
  2
*B98
 70
     0
 10
0.0
 20
0.0
 30
0.0
  3
*B98
  1

  0
LINE
  5
4D8
100
AcDbEntity
  8
0
  6
Continuous
 62
     8
100
AcDbLine
 10
213.016691
 20
57.131606
 30
0.0
 11
213.016691
 21
61.131606
 31
0.0
  0
LINE
  5
4D9
100
AcDbEntity
  8
0
  6
Continuous
 62
     8
100
AcDbLine
 10
213.016691
 20
61.131606
 30
0.0
 11
213.016691
 21
71.585484
 31
0.0
  0
LINE
  5
4DA
100
AcDbEntity
  8
0
  6
Continuous
 62
     8
100
AcDbLine
 10
213.016691
 20
73.585696
 30
0.0
 11
213.016691
 21
74.585803
 31
0.0
  0
LINE
  5
4DB
100
AcDbEntity
  8
0
  6
Continuous
 62
     8
100
AcDbLine
 10
213.016691
 20
76.58559
 30
0.0
 11
213.016691
 21
87.039893
 31
0.0
  0
LINE
  5
4DC
100
AcDbEntity
  8
0
  6
Continuous
 62
     8
100
AcDbLine
 10
213.016691
 20
93.03968
 30
0.0
 11
213.016691
 21
96.539626
 31
0.0
  0
ENDBLK
  5
4DD
100
AcDbEntity
  8
0
100
AcDbBlockEnd
  0
BLOCK
  5
4E0
100
AcDbEntity
  8
0
100
AcDbBlockBegin
  2
*B99
 70
     0
 10
0.0
 20
0.0
 30
0.0
  3
*B99
  1

  0
LINE
  5
4E1
100
AcDbEntity
  8
0
  6
Continuous
 62
     8
100
AcDbLine
 10
140.516642
 20
233.469079
 30
0.0
 11
140.516642
 21
274.90242
 31
0.0
  0
ENDBLK
  5
4E2
100
AcDbEntity
  8
0
100
AcDbBlockEnd
  0
BLOCK
  5
4E5
100
AcDbEntity
  8
0
100
AcDbBlockBegin
  2
*B100
 70
     0
 10
0.0
 20
0.0
 30
0.0
  3
*B100
  1

  0
LINE
  5
4E6
100
AcDbEntity
  8
0
  6
Continuous
 62
     8
100
AcDbLine
 10
317.266499
 20
257.468652
 30
0.0
 11
317.266499
 21
290.902419
 31
0.0
  0
ENDBLK
  5
4E7
100
AcDbEntity
  8
0
100
AcDbBlockEnd
  0
BLOCK
  5
4EA
100
AcDbEntity
  8
0
100
AcDbBlockBegin
  2
*B101
 70
     0
 10
0.0
 20
0.0
 30
0.0
  3
*B101
  1

  0
LINE
  5
4EB
100
AcDbEntity
  8
0
  6
Continuous
 62
     8
100
AcDbLine
 10
302.016792
 20
83.539946
 30
0.0
 11
302.016792
 21
87.039893
 31
0.0
  0
LINE
  5
4EC
100
AcDbEntity
  8
0
  6
Continuous
 62
     8
100
AcDbLine
 10
302.016792
 20
93.03968
 30
0.0
 11
302.016792
 21
96.539626
 31
0.0
  0
ENDBLK
  5
4ED
100
AcDbEntity
  8
0
100
AcDbBlockEnd
  0
BLOCK
  5
4F0
100
AcDbEntity
  8
0
100
AcDbBlockBegin
  2
*B102
 70
     0
 10
0.0
 20
0.0
 30
0.0
  3
*B102
  1

  0
LINE
  5
4F1
100
AcDbEntity
  8
0
  6
Continuous
 62
     8
100
AcDbLine
 10
218.51685
 20
130.039358
 30
0.0
 11
218.51685
 21
135.039039
 31
0.0
  0
LINE
  5
4F2
100
AcDbEntity
  8
0
  6
Continuous
 62
     8
100
AcDbLine
 10
218.51685
 20
141.038826
 30
0.0
 11
218.51685
 21
146.038932
 31
0.0
  0
ENDBLK
  5
4F3
100
AcDbEntity
  8
0
100
AcDbBlockEnd
  0
BLOCK
  5
4F6
100
AcDbEntity
  8
0
100
AcDbBlockBegin
  2
*B103
 70
     0
 10
0.0
 20
0.0
 30
0.0
  3
*B103
  1

  0
LINE
  5
4F7
100
AcDbEntity
  8
0
  6
Continuous
 62
     8
100
AcDbLine
 10
379.516522
 20
155.538665
 30
0.0
 11
379.516522
 21
159.038612
 31
0.0
  0
LINE
  5
4F8
100
AcDbEntity
  8
0
  6
Continuous
 62
     8
100
AcDbLine
 10
379.516522
 20
165.038824
 30
0.0
 11
379.516522
 21
168.538345
 31
0.0
  0
ENDBLK
  5
4F9
100
AcDbEntity
  8
0
100
AcDbBlockEnd
  0
BLOCK
  5
4FC
100
AcDbEntity
  8
0
100
AcDbBlockBegin
  2
*B104
 70
     0
 10
0.0
 20
0.0
 30
0.0
  3
*B104
  1

  0
LINE
  5
4FD
100
AcDbEntity
  8
0
  6
Continuous
 62
     8
100
AcDbLine
 10
186.516852
 20
332.868158
 30
0.0
 11
186.516852
 21
342.126589
 31
0.0
  0
LINE
  5
4FE
100
AcDbEntity
  8
0
  6
Continuous
 62
     8
100
AcDbLine
 10
186.516852
 20
344.126376
 30
0.0
 11
186.516852
 21
345.126482
 31
0.0
  0
LINE
  5
4FF
100
AcDbEntity
  8
0
  6
Continuous
 62
     8
100
AcDbLine
 10
186.516852
 20
347.126269
 30
0.0
 11
186.516852
 21
356.384701
 31
0.0
  0
LINE
  5
500
100
AcDbEntity
  8
0
  6
Continuous
 62
     8
100
AcDbLine
 10
186.516852
 20
358.384488
 30
0.0
 11
186.516852
 21
359.384594
 31
0.0
  0
LINE
  5
501
100
AcDbEntity
  8
0
  6
Continuous
 62
     8
100
AcDbLine
 10
186.516852
 20
361.384381
 30
0.0
 11
186.516852
 21
370.642812
 31
0.0
  0
LINE
  5
502
100
AcDbEntity
  8
0
  6
Continuous
 62
     8
100
AcDbLine
 10
186.516852
 20
372.642599
 30
0.0
 11
186.516852
 21
373.642706
 31
0.0
  0
LINE
  5
503
100
AcDbEntity
  8
0
  6
Continuous
 62
     8
100
AcDbLine
 10
186.516852
 20
375.642493
 30
0.0
 11
186.516852
 21
384.900924
 31
0.0
  0
ENDBLK
  5
504
100
AcDbEntity
  8
0
100
AcDbBlockEnd
  0
BLOCK
  5
507
100
AcDbEntity
  8
0
100
AcDbBlockBegin
  2
*B105
 70
     0
 10
0.0
 20
0.0
 30
0.0
  3
*B105
  1

  0
LINE
  5
508
100
AcDbEntity
  8
0
  6
Continuous
 62
     8
100
AcDbLine
 10
185.016693
 20
199.298211
 30
0.0
 11
185.016693
 21
203.298211
 31
0.0
  0
LINE
  5
509
100
AcDbEntity
  8
0
  6
Continuous
 62
     8
100
AcDbLine
 10
185.016693
 20
142.038932
 30
0.0
 11
185.016693
 21
147.039038
 31
0.0
  0
LINE
  5
50A
100
AcDbEntity
  8
0
  6
Continuous
 62
     8
100
AcDbLine
 10
185.016693
 20
153.038825
 30
0.0
 11
185.016693
 21
160.853698
 31
0.0
  0
LINE
  5
50B
100
AcDbEntity
  8
0
  6
Continuous
 62
     8
100
AcDbLine
 10
185.016693
 20
162.853911
 30
0.0
 11
185.016693
 21
163.853592
 31
0.0
  0
LINE
  5
50C
100
AcDbEntity
  8
0
  6
Continuous
 62
     8
100
AcDbLine
 10
185.016693
 20
165.853804
 30
0.0
 11
185.016693
 21
173.668678
 31
0.0
  0
LINE
  5
50D
100
AcDbEntity
  8
0
  6
Continuous
 62
     8
100
AcDbLine
 10
185.016693
 20
175.668465
 30
0.0
 11
185.016693
 21
176.668571
 31
0.0
  0
LINE
  5
50E
100
AcDbEntity
  8
0
  6
Continuous
 62
     8
100
AcDbLine
 10
185.016693
 20
178.668358
 30
0.0
 11
185.016693
 21
186.483657
 31
0.0
  0
LINE
  5
50F
100
AcDbEntity
  8
0
  6
Continuous
 62
     8
100
AcDbLine
 10
185.016693
 20
188.483444
 30
0.0
 11
185.016693
 21
189.483551
 31
0.0
  0
LINE
  5
510
100
AcDbEntity
  8
0
  6
Continuous
 62
     8
100
AcDbLine
 10
185.016693
 20
191.483338
 30
0.0
 11
185.016693
 21
199.298211
 31
0.0
  0
ENDBLK
  5
511
100
AcDbEntity
  8
0
100
AcDbBlockEnd
  0
BLOCK
  5
514
100
AcDbEntity
  8
0
100
AcDbBlockBegin
  2
*B106
 70
     0
 10
0.0
 20
0.0
 30
0.0
  3
*B106
  1

  0
LINE
  5
515
100
AcDbEntity
  8
0
  6
Continuous
 62
     8
100
AcDbLine
 10
195.016479
 20
257.468652
 30
0.0
 11
195.016479
 21
261.468651
 31
0.0
  0
LINE
  5
516
100
AcDbEntity
  8
0
  6
Continuous
 62
     8
100
AcDbLine
 10
195.016479
 20
261.468651
 30
0.0
 11
195.016479
 21
271.827199
 31
0.0
  0
LINE
  5
517
100
AcDbEntity
  8
0
  6
Continuous
 62
     8
100
AcDbLine
 10
195.016479
 20
273.826987
 30
0.0
 11
195.016479
 21
274.827093
 31
0.0
  0
LINE
  5
518
100
AcDbEntity
  8
0
  6
Continuous
 62
     8
100
AcDbLine
 10
195.016479
 20
276.82688
 30
0.0
 11
195.016479
 21
287.185428
 31
0.0
  0
LINE
  5
519
100
AcDbEntity
  8
0
  6
Continuous
 62
     8
100
AcDbLine
 10
195.016479
 20
289.185215
 30
0.0
 11
195.016479
 21
290.185322
 31
0.0
  0
LINE
  5
51A
100
AcDbEntity
  8
0
  6
Continuous
 62
     8
100
AcDbLine
 10
195.016479
 20
292.185109
 30
0.0
 11
195.016479
 21
302.543657
 31
0.0
  0
LINE
  5
51B
100
AcDbEntity
  8
0
  6
Continuous
 62
     8
100
AcDbLine
 10
195.016479
 20
304.543444
 30
0.0
 11
195.016479
 21
305.54355
 31
0.0
  0
LINE
  5
51C
100
AcDbEntity
  8
0
  6
Continuous
 62
     8
100
AcDbLine
 10
195.016479
 20
307.543337
 30
0.0
 11
195.016479
 21
317.901886
 31
0.0
  0
LINE
  5
51D
100
AcDbEntity
  8
0
  6
Continuous
 62
     8
100
AcDbLine
 10
195.016479
 20
323.901672
 30
0.0
 11
195.016479
 21
333.651645
 31
0.0
  0
ENDBLK
  5
51E
100
AcDbEntity
  8
0
100
AcDbBlockEnd
  0
BLOCK
  5
521
100
AcDbEntity
  8
0
100
AcDbBlockBegin
  2
*B107
 70
     0
 10
0.0
 20
0.0
 30
0.0
  3
*B107
  1

  0
LINE
  5
522
100
AcDbEntity
  8
0
  6
Continuous
 62
     8
100
AcDbLine
 10
406.516414
 20
333.2682
 30
0.0
 11
406.516414
 21
342.426621
 31
0.0
  0
LINE
  5
523
100
AcDbEntity
  8
0
  6
Continuous
 62
     8
100
AcDbLine
 10
406.516414
 20
344.426408
 30
0.0
 11
406.516414
 21
345.426514
 31
0.0
  0
LINE
  5
524
100
AcDbEntity
  8
0
  6
Continuous
 62
     8
100
AcDbLine
 10
406.516414
 20
347.426301
 30
0.0
 11
406.516414
 21
356.584722
 31
0.0
  0
LINE
  5
525
100
AcDbEntity
  8
0
  6
Continuous
 62
     8
100
AcDbLine
 10
406.516414
 20
358.584509
 30
0.0
 11
406.516414
 21
359.584615
 31
0.0
  0
LINE
  5
526
100
AcDbEntity
  8
0
  6
Continuous
 62
     8
100
AcDbLine
 10
406.516414
 20
361.584402
 30
0.0
 11
406.516414
 21
370.742823
 31
0.0
  0
LINE
  5
527
100
AcDbEntity
  8
0
  6
Continuous
 62
     8
100
AcDbLine
 10
406.516414
 20
372.74261
 30
0.0
 11
406.516414
 21
373.742716
 31
0.0
  0
LINE
  5
528
100
AcDbEntity
  8
0
  6
Continuous
 62
     8
100
AcDbLine
 10
406.516414
 20
375.742503
 30
0.0
 11
406.516414
 21
384.900924
 31
0.0
  0
ENDBLK
  5
529
100
AcDbEntity
  8
0
100
AcDbBlockEnd
  0
BLOCK
  5
52C
100
AcDbEntity
  8
0
100
AcDbBlockBegin
  2
*B108
 70
     0
 10
0.0
 20
0.0
 30
0.0
  3
*B108
  1

  0
LINE
  5
52D
100
AcDbEntity
  8
0
  6
Continuous
 62
     8
100
AcDbLine
 10
100.381311
 20
276.902633
 30
0.0
 11
138.516855
 21
276.902633
 31
0.0
  0
ENDBLK
  5
52E
100
AcDbEntity
  8
0
100
AcDbBlockEnd
  0
BLOCK
  5
531
100
AcDbEntity
  8
0
100
AcDbBlockBegin
  2
*B109
 70
     0
 10
0.0
 20
0.0
 30
0.0
  3
*B109
  1

  0
LINE
  5
532
100
AcDbEntity
  8
0
  6
Continuous
 62
     8
100
AcDbLine
 10
263.016475
 20
130.039358
 30
0.0
 11
263.016475
 21
135.039039
 31
0.0
  0
LINE
  5
533
100
AcDbEntity
  8
0
  6
Continuous
 62
     8
100
AcDbLine
 10
263.016475
 20
141.038826
 30
0.0
 11
263.016475
 21
146.038932
 31
0.0
  0
ENDBLK
  5
534
100
AcDbEntity
  8
0
100
AcDbBlockEnd
  0
BLOCK
  5
537
100
AcDbEntity
  8
0
100
AcDbBlockBegin
  2
*B110
 70
     0
 10
0.0
 20
0.0
 30
0.0
  3
*B110
  1

  0
LINE
  5
538
100
AcDbEntity
  8
0
  6
Continuous
 62
     8
100
AcDbLine
 10
363.016469
 20
94.039786
 30
0.0
 11
363.016469
 21
99.039466
 31
0.0
  0
LINE
  5
539
100
AcDbEntity
  8
0
  6
Continuous
 62
     8
100
AcDbLine
 10
363.016469
 20
105.039679
 30
0.0
 11
363.016469
 21
110.039359
 31
0.0
  0
ENDBLK
  5
53A
100
AcDbEntity
  8
0
100
AcDbBlockEnd
  0
BLOCK
  5
53D
100
AcDbEntity
  8
0
100
AcDbBlockBegin
  2
*B111
 70
     0
 10
0.0
 20
0.0
 30
0.0
  3
*B111
  1

  0
LINE
  5
53E
100
AcDbEntity
  8
0
  6
Continuous
 62
     8
100
AcDbLine
 10
329.516737
 20
106.03936
 30
0.0
 11
329.516737
 21
111.039466
 31
0.0
  0
LINE
  5
53F
100
AcDbEntity
  8
0
  6
Continuous
 62
     8
100
AcDbLine
 10
329.516737
 20
117.039253
 30
0.0
 11
329.516737
 21
122.039359
 31
0.0
  0
ENDBLK
  5
540
100
AcDbEntity
  8
0
100
AcDbBlockEnd
  0
BLOCK
  5
543
100
AcDbEntity
  8
0
100
AcDbBlockBegin
  2
*B112
 70
     0
 10
0.0
 20
0.0
 30
0.0
  3
*B112
  1

  0
LINE
  5
544
100
AcDbEntity
  8
0
  6
Continuous
 62
     8
100
AcDbLine
 10
308.516632
 20
233.469079
 30
0.0
 11
308.516632
 21
237.469078
 31
0.0
  0
LINE
  5
545
100
AcDbEntity
  8
0
  6
Continuous
 62
     8
100
AcDbLine
 10
308.516632
 20
237.469078
 30
0.0
 11
308.516632
 21
246.82752
 31
0.0
  0
LINE
  5
546
100
AcDbEntity
  8
0
  6
Continuous
 62
     8
100
AcDbLine
 10
308.516632
 20
248.827307
 30
0.0
 11
308.516632
 21
249.827414
 31
0.0
  0
LINE
  5
547
100
AcDbEntity
  8
0
  6
Continuous
 62
     8
100
AcDbLine
 10
308.516632
 20
251.827201
 30
0.0
 11
308.516632
 21
261.185642
 31
0.0
  0
LINE
  5
548
100
AcDbEntity
  8
0
  6
Continuous
 62
     8
100
AcDbLine
 10
308.516632
 20
263.18543
 30
0.0
 11
308.516632
 21
264.185536
 31
0.0
  0
LINE
  5
549
100
AcDbEntity
  8
0
  6
Continuous
 62
     8
100
AcDbLine
 10
308.516632
 20
266.185749
 30
0.0
 11
308.516632
 21
275.543765
 31
0.0
  0
LINE
  5
54A
100
AcDbEntity
  8
0
  6
Continuous
 62
     8
100
AcDbLine
 10
308.516632
 20
277.543977
 30
0.0
 11
308.516632
 21
278.544084
 31
0.0
  0
LINE
  5
54B
100
AcDbEntity
  8
0
  6
Continuous
 62
     8
100
AcDbLine
 10
308.516632
 20
280.543871
 30
0.0
 11
308.516632
 21
289.902313
 31
0.0
  0
LINE
  5
54C
100
AcDbEntity
  8
0
  6
Continuous
 62
     8
100
AcDbLine
 10
308.516632
 20
295.9021
 30
0.0
 11
308.516632
 21
305.652072
 31
0.0
  0
ENDBLK
  5
54D
100
AcDbEntity
  8
0
100
AcDbBlockEnd
  0
BLOCK
  5
550
100
AcDbEntity
  8
0
100
AcDbBlockBegin
  2
*B113
 70
     0
 10
0.0
 20
0.0
 30
0.0
  3
*B113
  1

  0
LINE
  5
551
100
AcDbEntity
  8
0
  6
Continuous
 62
     8
100
AcDbLine
 10
257.516742
 20
83.539946
 30
0.0
 11
257.516742
 21
87.039893
 31
0.0
  0
LINE
  5
552
100
AcDbEntity
  8
0
  6
Continuous
 62
     8
100
AcDbLine
 10
257.516742
 20
93.03968
 30
0.0
 11
257.516742
 21
96.539626
 31
0.0
  0
ENDBLK
  5
553
100
AcDbEntity
  8
0
100
AcDbBlockEnd
  0
BLOCK
  5
556
100
AcDbEntity
  8
0
100
AcDbBlockBegin
  2
*B114
 70
     0
 10
0.0
 20
0.0
 30
0.0
  3
*B114
  1

  0
LINE
  5
557
100
AcDbEntity
  8
0
  6
Continuous
 62
     8
100
AcDbLine
 10
481.593332
 20
162.038505
 30
0.0
 11
485.593332
 21
162.038505
 31
0.0
  0
LINE
  5
558
100
AcDbEntity
  8
0
  6
Continuous
 62
     8
100
AcDbLine
 10
144.016589
 20
162.038505
 30
0.0
 11
149.516748
 21
162.038505
 31
0.0
  0
LINE
  5
559
100
AcDbEntity
  8
0
  6
Continuous
 62
     8
100
AcDbLine
 10
155.516535
 20
162.038505
 30
0.0
 11
166.516854
 21
162.038505
 31
0.0
  0
LINE
  5
55A
100
AcDbEntity
  8
0
  6
Continuous
 62
     8
100
AcDbLine
 10
168.516641
 20
162.038505
 30
0.0
 11
169.516747
 21
162.038505
 31
0.0
  0
LINE
  5
55B
100
AcDbEntity
  8
0
  6
Continuous
 62
     8
100
AcDbLine
 10
171.516534
 20
162.038505
 30
0.0
 11
182.516853
 21
162.038505
 31
0.0
  0
LINE
  5
55C
100
AcDbEntity
  8
0
  6
Continuous
 62
     8
100
AcDbLine
 10
184.51664
 20
162.038505
 30
0.0
 11
185.516746
 21
162.038505
 31
0.0
  0
LINE
  5
55D
100
AcDbEntity
  8
0
  6
Continuous
 62
     8
100
AcDbLine
 10
187.516533
 20
162.038505
 30
0.0
 11
198.516852
 21
162.038505
 31
0.0
  0
LINE
  5
55E
100
AcDbEntity
  8
0
  6
Continuous
 62
     8
100
AcDbLine
 10
204.516639
 20
162.038505
 30
0.0
 11
214.016798
 21
162.038505
 31
0.0
  0
LINE
  5
55F
100
AcDbEntity
  8
0
  6
Continuous
 62
     8
100
AcDbLine
 10
216.016585
 20
162.038505
 30
0.0
 11
217.016691
 21
162.038505
 31
0.0
  0
LINE
  5
560
100
AcDbEntity
  8
0
  6
Continuous
 62
     8
100
AcDbLine
 10
219.016478
 20
162.038505
 30
0.0
 11
228.516637
 21
162.038505
 31
0.0
  0
LINE
  5
561
100
AcDbEntity
  8
0
  6
Continuous
 62
     8
100
AcDbLine
 10
230.51685
 20
162.038505
 30
0.0
 11
231.516531
 21
162.038505
 31
0.0
  0
LINE
  5
562
100
AcDbEntity
  8
0
  6
Continuous
 62
     8
100
AcDbLine
 10
233.516743
 20
162.038505
 30
0.0
 11
243.016477
 21
162.038505
 31
0.0
  0
LINE
  5
563
100
AcDbEntity
  8
0
  6
Continuous
 62
     8
100
AcDbLine
 10
249.016689
 20
162.038505
 30
0.0
 11
258.516848
 21
162.038505
 31
0.0
  0
LINE
  5
564
100
AcDbEntity
  8
0
  6
Continuous
 62
     8
100
AcDbLine
 10
260.516635
 20
162.038505
 30
0.0
 11
261.516742
 21
162.038505
 31
0.0
  0
LINE
  5
565
100
AcDbEntity
  8
0
  6
Continuous
 62
     8
100
AcDbLine
 10
263.516529
 20
162.038505
 30
0.0
 11
273.016688
 21
162.038505
 31
0.0
  0
LINE
  5
566
100
AcDbEntity
  8
0
  6
Continuous
 62
     8
100
AcDbLine
 10
275.016475
 20
162.038505
 30
0.0
 11
276.016581
 21
162.038505
 31
0.0
  0
LINE
  5
567
100
AcDbEntity
  8
0
  6
Continuous
 62
     8
100
AcDbLine
 10
278.016794
 20
162.038505
 30
0.0
 11
287.516527
 21
162.038505
 31
0.0
  0
LINE
  5
568
100
AcDbEntity
  8
0
  6
Continuous
 62
     8
100
AcDbLine
 10
293.51674
 20
162.038505
 30
0.0
 11
303.016473
 21
162.038505
 31
0.0
  0
LINE
  5
569
100
AcDbEntity
  8
0
  6
Continuous
 62
     8
100
AcDbLine
 10
305.016686
 20
162.038505
 30
0.0
 11
306.016792
 21
162.038505
 31
0.0
  0
LINE
  5
56A
100
AcDbEntity
  8
0
  6
Continuous
 62
     8
100
AcDbLine
 10
308.016579
 20
162.038505
 30
0.0
 11
317.516738
 21
162.038505
 31
0.0
  0
LINE
  5
56B
100
AcDbEntity
  8
0
  6
Continuous
 62
     8
100
AcDbLine
 10
319.516525
 20
162.038505
 30
0.0
 11
320.516632
 21
162.038505
 31
0.0
  0
LINE
  5
56C
100
AcDbEntity
  8
0
  6
Continuous
 62
     8
100
AcDbLine
 10
322.516419
 20
162.038505
 30
0.0
 11
332.016578
 21
162.038505
 31
0.0
  0
LINE
  5
56D
100
AcDbEntity
  8
0
  6
Continuous
 62
     8
100
AcDbLine
 10
338.01679
 20
162.038505
 30
0.0
 11
347.516524
 21
162.038505
 31
0.0
  0
LINE
  5
56E
100
AcDbEntity
  8
0
  6
Continuous
 62
     8
100
AcDbLine
 10
349.516736
 20
162.038505
 30
0.0
 11
350.516417
 21
162.038505
 31
0.0
  0
LINE
  5
56F
100
AcDbEntity
  8
0
  6
Continuous
 62
     8
100
AcDbLine
 10
352.51663
 20
162.038505
 30
0.0
 11
362.016789
 21
162.038505
 31
0.0
  0
LINE
  5
570
100
AcDbEntity
  8
0
  6
Continuous
 62
     8
100
AcDbLine
 10
364.016576
 20
162.038505
 30
0.0
 11
365.016682
 21
162.038505
 31
0.0
  0
LINE
  5
571
100
AcDbEntity
  8
0
  6
Continuous
 62
     8
100
AcDbLine
 10
367.016469
 20
162.038505
 30
0.0
 11
376.516628
 21
162.038505
 31
0.0
  0
LINE
  5
572
100
AcDbEntity
  8
0
  6
Continuous
 62
     8
100
AcDbLine
 10
382.516415
 20
162.038505
 30
0.0
 11
392.016574
 21
162.038505
 31
0.0
  0
LINE
  5
573
100
AcDbEntity
  8
0
  6
Continuous
 62
     8
100
AcDbLine
 10
394.016787
 20
162.038505
 30
0.0
 11
395.016468
 21
162.038505
 31
0.0
  0
LINE
  5
574
100
AcDbEntity
  8
0
  6
Continuous
 62
     8
100
AcDbLine
 10
397.01668
 20
162.038505
 30
0.0
 11
406.516414
 21
162.038505
 31
0.0
  0
LINE
  5
575
100
AcDbEntity
  8
0
  6
Continuous
 62
     8
100
AcDbLine
 10
408.516626
 20
162.038505
 30
0.0
 11
409.516733
 21
162.038505
 31
0.0
  0
LINE
  5
576
100
AcDbEntity
  8
0
  6
Continuous
 62
     8
100
AcDbLine
 10
411.51652
 20
162.038505
 30
0.0
 11
421.016679
 21
162.038505
 31
0.0
  0
LINE
  5
577
100
AcDbEntity
  8
0
  6
Continuous
 62
     8
100
AcDbLine
 10
427.016466
 20
162.038505
 30
0.0
 11
436.910709
 21
162.038505
 31
0.0
  0
LINE
  5
578
100
AcDbEntity
  8
0
  6
Continuous
 62
     8
100
AcDbLine
 10
438.910922
 20
162.038505
 30
0.0
 11
439.910603
 21
162.038505
 31
0.0
  0
LINE
  5
579
100
AcDbEntity
  8
0
  6
Continuous
 62
     8
100
AcDbLine
 10
441.910815
 20
162.038505
 30
0.0
 11
451.805059
 21
162.038505
 31
0.0
  0
LINE
  5
57A
100
AcDbEntity
  8
0
  6
Continuous
 62
     8
100
AcDbLine
 10
453.804846
 20
162.038505
 30
0.0
 11
454.804952
 21
162.038505
 31
0.0
  0
LINE
  5
57B
100
AcDbEntity
  8
0
  6
Continuous
 62
     8
100
AcDbLine
 10
456.805165
 20
162.038505
 30
0.0
 11
466.699408
 21
162.038505
 31
0.0
  0
LINE
  5
57C
100
AcDbEntity
  8
0
  6
Continuous
 62
     8
100
AcDbLine
 10
468.699195
 20
162.038505
 30
0.0
 11
469.699302
 21
162.038505
 31
0.0
  0
LINE
  5
57D
100
AcDbEntity
  8
0
  6
Continuous
 62
     8
100
AcDbLine
 10
471.699089
 20
162.038505
 30
0.0
 11
481.593332
 21
162.038505
 31
0.0
  0
ENDBLK
  5
57E
100
AcDbEntity
  8
0
100
AcDbBlockEnd
  0
BLOCK
  5
581
100
AcDbEntity
  8
0
100
AcDbBlockBegin
  2
*B115
 70
     0
 10
0.0
 20
0.0
 30
0.0
  3
*B115
  1

  0
LINE
  5
582
100
AcDbEntity
  8
0
  6
Continuous
 62
     8
100
AcDbLine
 10
246.016796
 20
57.131606
 30
0.0
 11
246.016796
 21
61.131606
 31
0.0
  0
LINE
  5
583
100
AcDbEntity
  8
0
  6
Continuous
 62
     8
100
AcDbLine
 10
246.016796
 20
61.131606
 30
0.0
 11
246.016796
 21
68.994995
 31
0.0
  0
LINE
  5
584
100
AcDbEntity
  8
0
  6
Continuous
 62
     8
100
AcDbLine
 10
246.016796
 20
70.994782
 30
0.0
 11
246.016796
 21
71.994889
 31
0.0
  0
LINE
  5
585
100
AcDbEntity
  8
0
  6
Continuous
 62
     8
100
AcDbLine
 10
246.016796
 20
73.994676
 30
0.0
 11
246.016796
 21
81.858491
 31
0.0
  0
LINE
  5
586
100
AcDbEntity
  8
0
  6
Continuous
 62
     8
100
AcDbLine
 10
246.016796
 20
83.858278
 30
0.0
 11
246.016796
 21
84.858384
 31
0.0
  0
LINE
  5
587
100
AcDbEntity
  8
0
  6
Continuous
 62
     8
100
AcDbLine
 10
246.016796
 20
86.858171
 30
0.0
 11
246.016796
 21
94.72156
 31
0.0
  0
LINE
  5
588
100
AcDbEntity
  8
0
  6
Continuous
 62
     8
100
AcDbLine
 10
246.016796
 20
96.721773
 30
0.0
 11
246.016796
 21
97.721879
 31
0.0
  0
LINE
  5
589
100
AcDbEntity
  8
0
  6
Continuous
 62
     8
100
AcDbLine
 10
246.016796
 20
99.721667
 30
0.0
 11
246.016796
 21
107.585056
 31
0.0
  0
LINE
  5
58A
100
AcDbEntity
  8
0
  6
Continuous
 62
     8
100
AcDbLine
 10
246.016796
 20
109.585268
 30
0.0
 11
246.016796
 21
110.584949
 31
0.0
  0
LINE
  5
58B
100
AcDbEntity
  8
0
  6
Continuous
 62
     8
100
AcDbLine
 10
246.016796
 20
112.585162
 30
0.0
 11
246.016796
 21
120.448551
 31
0.0
  0
LINE
  5
58C
100
AcDbEntity
  8
0
  6
Continuous
 62
     8
100
AcDbLine
 10
246.016796
 20
122.448338
 30
0.0
 11
246.016796
 21
123.448445
 31
0.0
  0
LINE
  5
58D
100
AcDbEntity
  8
0
  6
Continuous
 62
     8
100
AcDbLine
 10
246.016796
 20
125.448232
 30
0.0
 11
246.016796
 21
133.312047
 31
0.0
  0
LINE
  5
58E
100
AcDbEntity
  8
0
  6
Continuous
 62
     8
100
AcDbLine
 10
246.016796
 20
135.311834
 30
0.0
 11
246.016796
 21
136.31194
 31
0.0
  0
LINE
  5
58F
100
AcDbEntity
  8
0
  6
Continuous
 62
     8
100
AcDbLine
 10
246.016796
 20
138.311727
 30
0.0
 11
246.016796
 21
146.175116
 31
0.0
  0
LINE
  5
590
100
AcDbEntity
  8
0
  6
Continuous
 62
     8
100
AcDbLine
 10
246.016796
 20
148.175329
 30
0.0
 11
246.016796
 21
149.175435
 31
0.0
  0
LINE
  5
591
100
AcDbEntity
  8
0
  6
Continuous
 62
     8
100
AcDbLine
 10
246.016796
 20
151.175222
 30
0.0
 11
246.016796
 21
159.038612
 31
0.0
  0
LINE
  5
592
100
AcDbEntity
  8
0
  6
Continuous
 62
     8
100
AcDbLine
 10
246.016796
 20
165.038824
 30
0.0
 11
246.016796
 21
168.538345
 31
0.0
  0
ENDBLK
  5
593
100
AcDbEntity
  8
0
100
AcDbBlockEnd
  0
BLOCK
  5
596
100
AcDbEntity
  8
0
100
AcDbBlockBegin
  2
*B116
 70
     0
 10
0.0
 20
0.0
 30
0.0
  3
*B116
  1

  0
LINE
  5
597
100
AcDbEntity
  8
0
  6
Continuous
 62
     8
100
AcDbLine
 10
407.51652
 20
94.039786
 30
0.0
 11
407.51652
 21
99.039466
 31
0.0
  0
LINE
  5
598
100
AcDbEntity
  8
0
  6
Continuous
 62
     8
100
AcDbLine
 10
407.51652
 20
105.039679
 30
0.0
 11
407.51652
 21
110.039359
 31
0.0
  0
ENDBLK
  5
599
100
AcDbEntity
  8
0
100
AcDbBlockEnd
  0
BLOCK
  5
59C
100
AcDbEntity
  8
0
100
AcDbBlockBegin
  2
*B117
 70
     0
 10
0.0
 20
0.0
 30
0.0
  3
*B117
  1

  0
LINE
  5
59D
100
AcDbEntity
  8
0
  6
Continuous
 62
     8
100
AcDbLine
 10
285.016687
 20
57.131606
 30
0.0
 11
285.016687
 21
61.131606
 31
0.0
  0
LINE
  5
59E
100
AcDbEntity
  8
0
  6
Continuous
 62
     8
100
AcDbLine
 10
285.016687
 20
61.131606
 30
0.0
 11
285.016687
 21
69.858491
 31
0.0
  0
LINE
  5
59F
100
AcDbEntity
  8
0
  6
Continuous
 62
     8
100
AcDbLine
 10
285.016687
 20
71.858704
 30
0.0
 11
285.016687
 21
72.858385
 31
0.0
  0
LINE
  5
5A0
100
AcDbEntity
  8
0
  6
Continuous
 62
     8
100
AcDbLine
 10
285.016687
 20
74.858598
 30
0.0
 11
285.016687
 21
83.585483
 31
0.0
  0
LINE
  5
5A1
100
AcDbEntity
  8
0
  6
Continuous
 62
     8
100
AcDbLine
 10
285.016687
 20
85.58527
 30
0.0
 11
285.016687
 21
86.585376
 31
0.0
  0
LINE
  5
5A2
100
AcDbEntity
  8
0
  6
Continuous
 62
     8
100
AcDbLine
 10
285.016687
 20
88.585589
 30
0.0
 11
285.016687
 21
97.312474
 31
0.0
  0
LINE
  5
5A3
100
AcDbEntity
  8
0
  6
Continuous
 62
     8
100
AcDbLine
 10
285.016687
 20
99.312261
 30
0.0
 11
285.016687
 21
100.312368
 31
0.0
  0
LINE
  5
5A4
100
AcDbEntity
  8
0
  6
Continuous
 62
     8
100
AcDbLine
 10
285.016687
 20
102.31258
 30
0.0
 11
285.016687
 21
111.039466
 31
0.0
  0
LINE
  5
5A5
100
AcDbEntity
  8
0
  6
Continuous
 62
     8
100
AcDbLine
 10
285.016687
 20
117.039253
 30
0.0
 11
285.016687
 21
122.039359
 31
0.0
  0
ENDBLK
  5
5A6
100
AcDbEntity
  8
0
100
AcDbBlockEnd
  0
BLOCK
  5
5A9
100
AcDbEntity
  8
0
100
AcDbBlockBegin
  2
*B118
 70
     0
 10
0.0
 20
0.0
 30
0.0
  3
*B118
  1

  0
LINE
  5
5AA
100
AcDbEntity
  8
0
  6
Continuous
 62
     8
100
AcDbLine
 10
152.516642
 20
153.538878
 30
0.0
 11
152.516642
 21
159.038612
 31
0.0
  0
LINE
  5
5AB
100
AcDbEntity
  8
0
  6
Continuous
 62
     8
100
AcDbLine
 10
152.516642
 20
165.038824
 30
0.0
 11
152.516642
 21
170.538558
 31
0.0
  0
ENDBLK
  5
5AC
100
AcDbEntity
  8
0
100
AcDbBlockEnd
  0
BLOCK
  5
5AF
100
AcDbEntity
  8
0
100
AcDbBlockBegin
  2
*B119
 70
     0
 10
0.0
 20
0.0
 30
0.0
  3
*B119
  1

  0
LINE
  5
5B0
100
AcDbEntity
  8
0
  6
Continuous
 62
     8
100
AcDbLine
 10
363.016469
 20
118.039359
 30
0.0
 11
363.016469
 21
123.039465
 31
0.0
  0
LINE
  5
5B1
100
AcDbEntity
  8
0
  6
Continuous
 62
     8
100
AcDbLine
 10
363.016469
 20
129.039252
 30
0.0
 11
363.016469
 21
134.038932
 31
0.0
  0
ENDBLK
  5
5B2
100
AcDbEntity
  8
0
100
AcDbBlockEnd
  0
BLOCK
  5
5B5
100
AcDbEntity
  8
0
100
AcDbBlockBegin
  2
*B120
 70
     0
 10
0.0
 20
0.0
 30
0.0
  3
*B120
  1

  0
LINE
  5
5B6
100
AcDbEntity
  8
0
  6
Continuous
 62
     8
100
AcDbLine
 10
120.036592
 20
320.901779
 30
0.0
 11
124.036592
 21
320.901779
 31
0.0
  0
LINE
  5
5B7
100
AcDbEntity
  8
0
  6
Continuous
 62
     8
100
AcDbLine
 10
124.036592
 20
320.901779
 30
0.0
 11
133.632506
 21
320.901779
 31
0.0
  0
LINE
  5
5B8
100
AcDbEntity
  8
0
  6
Continuous
 62
     8
100
AcDbLine
 10
135.632293
 20
320.901779
 30
0.0
 11
136.6324
 21
320.901779
 31
0.0
  0
LINE
  5
5B9
100
AcDbEntity
  8
0
  6
Continuous
 62
     8
100
AcDbLine
 10
138.632612
 20
320.901779
 30
0.0
 11
148.228526
 21
320.901779
 31
0.0
  0
LINE
  5
5BA
100
AcDbEntity
  8
0
  6
Continuous
 62
     8
100
AcDbLine
 10
150.228313
 20
320.901779
 30
0.0
 11
151.22842
 21
320.901779
 31
0.0
  0
LINE
  5
5BB
100
AcDbEntity
  8
0
  6
Continuous
 62
     8
100
AcDbLine
 10
153.228632
 20
320.901779
 30
0.0
 11
162.824546
 21
320.901779
 31
0.0
  0
LINE
  5
5BC
100
AcDbEntity
  8
0
  6
Continuous
 62
     8
100
AcDbLine
 10
164.824759
 20
320.901779
 30
0.0
 11
165.82444
 21
320.901779
 31
0.0
  0
LINE
  5
5BD
100
AcDbEntity
  8
0
  6
Continuous
 62
     8
100
AcDbLine
 10
167.824652
 20
320.901779
 30
0.0
 11
177.420566
 21
320.901779
 31
0.0
  0
LINE
  5
5BE
100
AcDbEntity
  8
0
  6
Continuous
 62
     8
100
AcDbLine
 10
179.420779
 20
320.901779
 30
0.0
 11
180.42046
 21
320.901779
 31
0.0
  0
LINE
  5
5BF
100
AcDbEntity
  8
0
  6
Continuous
 62
     8
100
AcDbLine
 10
182.420672
 20
320.901779
 30
0.0
 11
192.016586
 21
320.901779
 31
0.0
  0
LINE
  5
5C0
100
AcDbEntity
  8
0
  6
Continuous
 62
     8
100
AcDbLine
 10
198.016798
 20
320.901779
 30
0.0
 11
207.766771
 21
320.901779
 31
0.0
  0
ENDBLK
  5
5C1
100
AcDbEntity
  8
0
100
AcDbBlockEnd
  0
BLOCK
  5
5C4
100
AcDbEntity
  8
0
100
AcDbBlockBegin
  2
*B121
 70
     0
 10
0.0
 20
0.0
 30
0.0
  3
*B121
  1

  0
LINE
  5
5C5
100
AcDbEntity
  8
0
  6
Continuous
 62
     8
100
AcDbLine
 10
418.516413
 20
106.03936
 30
0.0
 11
418.516413
 21
111.039466
 31
0.0
  0
LINE
  5
5C6
100
AcDbEntity
  8
0
  6
Continuous
 62
     8
100
AcDbLine
 10
418.516413
 20
117.039253
 30
0.0
 11
418.516413
 21
122.039359
 31
0.0
  0
ENDBLK
  5
5C7
100
AcDbEntity
  8
0
100
AcDbBlockEnd
  0
BLOCK
  5
5CA
100
AcDbEntity
  8
0
100
AcDbBlockBegin
  2
*B122
 70
     0
 10
0.0
 20
0.0
 30
0.0
  3
*B122
  1

  0
LINE
  5
5CB
100
AcDbEntity
  8
0
  6
Continuous
 62
     8
100
AcDbLine
 10
397.516733
 20
233.469079
 30
0.0
 11
397.516733
 21
237.469078
 31
0.0
  0
LINE
  5
5CC
100
AcDbEntity
  8
0
  6
Continuous
 62
     8
100
AcDbLine
 10
397.516733
 20
237.469078
 30
0.0
 11
397.516733
 21
246.82752
 31
0.0
  0
LINE
  5
5CD
100
AcDbEntity
  8
0
  6
Continuous
 62
     8
100
AcDbLine
 10
397.516733
 20
248.827307
 30
0.0
 11
397.516733
 21
249.827414
 31
0.0
  0
LINE
  5
5CE
100
AcDbEntity
  8
0
  6
Continuous
 62
     8
100
AcDbLine
 10
397.516733
 20
251.827201
 30
0.0
 11
397.516733
 21
261.185642
 31
0.0
  0
LINE
  5
5CF
100
AcDbEntity
  8
0
  6
Continuous
 62
     8
100
AcDbLine
 10
397.516733
 20
263.18543
 30
0.0
 11
397.516733
 21
264.185536
 31
0.0
  0
LINE
  5
5D0
100
AcDbEntity
  8
0
  6
Continuous
 62
     8
100
AcDbLine
 10
397.516733
 20
266.185749
 30
0.0
 11
397.516733
 21
275.543765
 31
0.0
  0
LINE
  5
5D1
100
AcDbEntity
  8
0
  6
Continuous
 62
     8
100
AcDbLine
 10
397.516733
 20
277.543977
 30
0.0
 11
397.516733
 21
278.544084
 31
0.0
  0
LINE
  5
5D2
100
AcDbEntity
  8
0
  6
Continuous
 62
     8
100
AcDbLine
 10
397.516733
 20
280.543871
 30
0.0
 11
397.516733
 21
289.902313
 31
0.0
  0
LINE
  5
5D3
100
AcDbEntity
  8
0
  6
Continuous
 62
     8
100
AcDbLine
 10
397.516733
 20
295.9021
 30
0.0
 11
397.516733
 21
305.652072
 31
0.0
  0
ENDBLK
  5
5D4
100
AcDbEntity
  8
0
100
AcDbBlockEnd
  0
BLOCK
  5
5D7
100
AcDbEntity
  8
0
100
AcDbBlockBegin
  2
*B123
 70
     0
 10
0.0
 20
0.0
 30
0.0
  3
*B123
  1

  0
LINE
  5
5D8
100
AcDbEntity
  8
0
  6
Continuous
 62
     8
100
AcDbLine
 10
185.016693
 20
118.039359
 30
0.0
 11
185.016693
 21
123.039465
 31
0.0
  0
LINE
  5
5D9
100
AcDbEntity
  8
0
  6
Continuous
 62
     8
100
AcDbLine
 10
185.016693
 20
129.039252
 30
0.0
 11
185.016693
 21
134.038932
 31
0.0
  0
ENDBLK
  5
5DA
100
AcDbEntity
  8
0
100
AcDbBlockEnd
  0
BLOCK
  5
5DD
100
AcDbEntity
  8
0
100
AcDbBlockBegin
  2
*B124
 70
     0
 10
0.0
 20
0.0
 30
0.0
  3
*B124
  1

  0
LINE
  5
5DE
100
AcDbEntity
  8
0
  6
Continuous
 62
     8
100
AcDbLine
 10
481.593332
 20
90.039786
 30
0.0
 11
485.593332
 21
90.039786
 31
0.0
  0
LINE
  5
5DF
100
AcDbEntity
  8
0
  6
Continuous
 62
     8
100
AcDbLine
 10
162.016801
 20
90.039786
 30
0.0
 11
165.516747
 21
90.039786
 31
0.0
  0
LINE
  5
5E0
100
AcDbEntity
  8
0
  6
Continuous
 62
     8
100
AcDbLine
 10
171.516534
 20
90.039786
 30
0.0
 11
181.016693
 21
90.039786
 31
0.0
  0
LINE
  5
5E1
100
AcDbEntity
  8
0
  6
Continuous
 62
     8
100
AcDbLine
 10
183.016906
 20
90.039786
 30
0.0
 11
184.016587
 21
90.039786
 31
0.0
  0
LINE
  5
5E2
100
AcDbEntity
  8
0
  6
Continuous
 62
     8
100
AcDbLine
 10
186.016799
 20
90.039786
 30
0.0
 11
195.516533
 21
90.039786
 31
0.0
  0
LINE
  5
5E3
100
AcDbEntity
  8
0
  6
Continuous
 62
     8
100
AcDbLine
 10
197.516745
 20
90.039786
 30
0.0
 11
198.516852
 21
90.039786
 31
0.0
  0
LINE
  5
5E4
100
AcDbEntity
  8
0
  6
Continuous
 62
     8
100
AcDbLine
 10
200.516639
 20
90.039786
 30
0.0
 11
210.016798
 21
90.039786
 31
0.0
  0
LINE
  5
5E5
100
AcDbEntity
  8
0
  6
Continuous
 62
     8
100
AcDbLine
 10
216.016585
 20
90.039786
 30
0.0
 11
225.516744
 21
90.039786
 31
0.0
  0
LINE
  5
5E6
100
AcDbEntity
  8
0
  6
Continuous
 62
     8
100
AcDbLine
 10
227.516531
 20
90.039786
 30
0.0
 11
228.516637
 21
90.039786
 31
0.0
  0
LINE
  5
5E7
100
AcDbEntity
  8
0
  6
Continuous
 62
     8
100
AcDbLine
 10
230.51685
 20
90.039786
 30
0.0
 11
240.016583
 21
90.039786
 31
0.0
  0
LINE
  5
5E8
100
AcDbEntity
  8
0
  6
Continuous
 62
     8
100
AcDbLine
 10
242.016796
 20
90.039786
 30
0.0
 11
243.016477
 21
90.039786
 31
0.0
  0
LINE
  5
5E9
100
AcDbEntity
  8
0
  6
Continuous
 62
     8
100
AcDbLine
 10
245.016689
 20
90.039786
 30
0.0
 11
254.516848
 21
90.039786
 31
0.0
  0
LINE
  5
5EA
100
AcDbEntity
  8
0
  6
Continuous
 62
     8
100
AcDbLine
 10
260.516635
 20
90.039786
 30
0.0
 11
270.016794
 21
90.039786
 31
0.0
  0
LINE
  5
5EB
100
AcDbEntity
  8
0
  6
Continuous
 62
     8
100
AcDbLine
 10
272.016581
 20
90.039786
 30
0.0
 11
273.016688
 21
90.039786
 31
0.0
  0
LINE
  5
5EC
100
AcDbEntity
  8
0
  6
Continuous
 62
     8
100
AcDbLine
 10
275.016475
 20
90.039786
 30
0.0
 11
284.516634
 21
90.039786
 31
0.0
  0
LINE
  5
5ED
100
AcDbEntity
  8
0
  6
Continuous
 62
     8
100
AcDbLine
 10
286.516846
 20
90.039786
 30
0.0
 11
287.516527
 21
90.039786
 31
0.0
  0
LINE
  5
5EE
100
AcDbEntity
  8
0
  6
Continuous
 62
     8
100
AcDbLine
 10
289.51674
 20
90.039786
 30
0.0
 11
299.016473
 21
90.039786
 31
0.0
  0
LINE
  5
5EF
100
AcDbEntity
  8
0
  6
Continuous
 62
     8
100
AcDbLine
 10
305.016686
 20
90.039786
 30
0.0
 11
314.516845
 21
90.039786
 31
0.0
  0
LINE
  5
5F0
100
AcDbEntity
  8
0
  6
Continuous
 62
     8
100
AcDbLine
 10
316.516632
 20
90.039786
 30
0.0
 11
317.516738
 21
90.039786
 31
0.0
  0
LINE
  5
5F1
100
AcDbEntity
  8
0
  6
Continuous
 62
     8
100
AcDbLine
 10
319.516525
 20
90.039786
 30
0.0
 11
329.016684
 21
90.039786
 31
0.0
  0
LINE
  5
5F2
100
AcDbEntity
  8
0
  6
Continuous
 62
     8
100
AcDbLine
 10
331.016471
 20
90.039786
 30
0.0
 11
332.016578
 21
90.039786
 31
0.0
  0
LINE
  5
5F3
100
AcDbEntity
  8
0
  6
Continuous
 62
     8
100
AcDbLine
 10
334.01679
 20
90.039786
 30
0.0
 11
343.516524
 21
90.039786
 31
0.0
  0
LINE
  5
5F4
100
AcDbEntity
  8
0
  6
Continuous
 62
     8
100
AcDbLine
 10
349.516736
 20
90.039786
 30
0.0
 11
359.01647
 21
90.039786
 31
0.0
  0
LINE
  5
5F5
100
AcDbEntity
  8
0
  6
Continuous
 62
     8
100
AcDbLine
 10
361.016682
 20
90.039786
 30
0.0
 11
362.016789
 21
90.039786
 31
0.0
  0
LINE
  5
5F6
100
AcDbEntity
  8
0
  6
Continuous
 62
     8
100
AcDbLine
 10
364.016576
 20
90.039786
 30
0.0
 11
373.516735
 21
90.039786
 31
0.0
  0
LINE
  5
5F7
100
AcDbEntity
  8
0
  6
Continuous
 62
     8
100
AcDbLine
 10
375.516522
 20
90.039786
 30
0.0
 11
376.516628
 21
90.039786
 31
0.0
  0
LINE
  5
5F8
100
AcDbEntity
  8
0
  6
Continuous
 62
     8
100
AcDbLine
 10
378.516415
 20
90.039786
 30
0.0
 11
388.016574
 21
90.039786
 31
0.0
  0
LINE
  5
5F9
100
AcDbEntity
  8
0
  6
Continuous
 62
     8
100
AcDbLine
 10
394.016787
 20
90.039786
 30
0.0
 11
402.241917
 21
90.039786
 31
0.0
  0
LINE
  5
5FA
100
AcDbEntity
  8
0
  6
Continuous
 62
     8
100
AcDbLine
 10
404.241704
 20
90.039786
 30
0.0
 11
405.24181
 21
90.039786
 31
0.0
  0
LINE
  5
5FB
100
AcDbEntity
  8
0
  6
Continuous
 62
     8
100
AcDbLine
 10
407.242023
 20
90.039786
 30
0.0
 11
415.467153
 21
90.039786
 31
0.0
  0
LINE
  5
5FC
100
AcDbEntity
  8
0
  6
Continuous
 62
     8
100
AcDbLine
 10
417.46694
 20
90.039786
 30
0.0
 11
418.467046
 21
90.039786
 31
0.0
  0
LINE
  5
5FD
100
AcDbEntity
  8
0
  6
Continuous
 62
     8
100
AcDbLine
 10
420.467259
 20
90.039786
 30
0.0
 11
428.692389
 21
90.039786
 31
0.0
  0
LINE
  5
5FE
100
AcDbEntity
  8
0
  6
Continuous
 62
     8
100
AcDbLine
 10
430.692601
 20
90.039786
 30
0.0
 11
431.692282
 21
90.039786
 31
0.0
  0
LINE
  5
5FF
100
AcDbEntity
  8
0
  6
Continuous
 62
     8
100
AcDbLine
 10
433.692495
 20
90.039786
 30
0.0
 11
441.917624
 21
90.039786
 31
0.0
  0
LINE
  5
600
100
AcDbEntity
  8
0
  6
Continuous
 62
     8
100
AcDbLine
 10
443.917837
 20
90.039786
 30
0.0
 11
444.917518
 21
90.039786
 31
0.0
  0
LINE
  5
601
100
AcDbEntity
  8
0
  6
Continuous
 62
     8
100
AcDbLine
 10
446.917731
 20
90.039786
 30
0.0
 11
455.14286
 21
90.039786
 31
0.0
  0
LINE
  5
602
100
AcDbEntity
  8
0
  6
Continuous
 62
     8
100
AcDbLine
 10
457.143073
 20
90.039786
 30
0.0
 11
458.142754
 21
90.039786
 31
0.0
  0
LINE
  5
603
100
AcDbEntity
  8
0
  6
Continuous
 62
     8
100
AcDbLine
 10
460.142967
 20
90.039786
 30
0.0
 11
468.368096
 21
90.039786
 31
0.0
  0
LINE
  5
604
100
AcDbEntity
  8
0
  6
Continuous
 62
     8
100
AcDbLine
 10
470.368309
 20
90.039786
 30
0.0
 11
471.36799
 21
90.039786
 31
0.0
  0
LINE
  5
605
100
AcDbEntity
  8
0
  6
Continuous
 62
     8
100
AcDbLine
 10
473.368202
 20
90.039786
 30
0.0
 11
481.593332
 21
90.039786
 31
0.0
  0
ENDBLK
  5
606
100
AcDbEntity
  8
0
100
AcDbBlockEnd
  0
BLOCK
  5
609
100
AcDbEntity
  8
0
100
AcDbBlockBegin
  2
*B125
 70
     0
 10
0.0
 20
0.0
 30
0.0
  3
*B125
  1

  0
LINE
  5
60A
100
AcDbEntity
  8
0
  6
Continuous
 62
     8
100
AcDbLine
 10
144.016589
 20
90.039786
 30
0.0
 11
149.516748
 21
90.039786
 31
0.0
  0
LINE
  5
60B
100
AcDbEntity
  8
0
  6
Continuous
 62
     8
100
AcDbLine
 10
155.516535
 20
90.039786
 30
0.0
 11
161.016694
 21
90.039786
 31
0.0
  0
ENDBLK
  5
60C
100
AcDbEntity
  8
0
100
AcDbBlockEnd
  0
BLOCK
  5
60F
100
AcDbEntity
  8
0
100
AcDbBlockBegin
  2
*B126
 70
     0
 10
0.0
 20
0.0
 30
0.0
  3
*B126
  1

  0
LINE
  5
610
100
AcDbEntity
  8
0
  6
Continuous
 62
     8
100
AcDbLine
 10
126.036379
 20
114.289598
 30
0.0
 11
138.516855
 21
114.289598
 31
0.0
  0
ENDBLK
  5
611
100
AcDbEntity
  8
0
100
AcDbBlockEnd
  0
BLOCK
  5
614
100
AcDbEntity
  8
0
100
AcDbBlockBegin
  2
*B127
 70
     0
 10
0.0
 20
0.0
 30
0.0
  3
*B127
  1

  0
LINE
  5
615
100
AcDbEntity
  8
0
  6
Continuous
 62
     8
100
AcDbLine
 10
299.766766
 20
257.468652
 30
0.0
 11
299.766766
 21
290.902419
 31
0.0
  0
ENDBLK
  5
616
100
AcDbEntity
  8
0
100
AcDbBlockEnd
  0
BLOCK
  5
619
100
AcDbEntity
  8
0
100
AcDbBlockBegin
  2
*B128
 70
     0
 10
0.0
 20
0.0
 30
0.0
  3
*B128
  1

  0
LINE
  5
61A
100
AcDbEntity
  8
0
  6
Continuous
 62
     8
100
AcDbLine
 10
284.016581
 20
308.151913
 30
0.0
 11
284.016581
 21
317.901886
 31
0.0
  0
LINE
  5
61B
100
AcDbEntity
  8
0
  6
Continuous
 62
     8
100
AcDbLine
 10
284.016581
 20
323.901672
 30
0.0
 11
284.016581
 21
333.651645
 31
0.0
  0
ENDBLK
  5
61C
100
AcDbEntity
  8
0
100
AcDbBlockEnd
  0
BLOCK
  5
61F
100
AcDbEntity
  8
0
100
AcDbBlockBegin
  2
*B129
 70
     0
 10
0.0
 20
0.0
 30
0.0
  3
*B129
  1

  0
LINE
  5
620
100
AcDbEntity
  8
0
  6
Continuous
 62
     8
100
AcDbLine
 10
393.516734
 20
57.131606
 30
0.0
 11
393.516734
 21
88.039999
 31
0.0
  0
ENDBLK
  5
621
100
AcDbEntity
  8
0
100
AcDbBlockEnd
  0
BLOCK
  5
624
100
AcDbEntity
  8
0
100
AcDbBlockBegin
  2
*B130
 70
     0
 10
0.0
 20
0.0
 30
0.0
  3
*B130
  1

  0
LINE
  5
625
100
AcDbEntity
  8
0
  6
Continuous
 62
     8
100
AcDbLine
 10
363.016469
 20
199.298211
 30
0.0
 11
363.016469
 21
203.298211
 31
0.0
  0
LINE
  5
626
100
AcDbEntity
  8
0
  6
Continuous
 62
     8
100
AcDbLine
 10
363.016469
 20
142.038932
 30
0.0
 11
363.016469
 21
147.039038
 31
0.0
  0
LINE
  5
627
100
AcDbEntity
  8
0
  6
Continuous
 62
     8
100
AcDbLine
 10
363.016469
 20
153.038825
 30
0.0
 11
363.016469
 21
160.853698
 31
0.0
  0
LINE
  5
628
100
AcDbEntity
  8
0
  6
Continuous
 62
     8
100
AcDbLine
 10
363.016469
 20
162.853911
 30
0.0
 11
363.016469
 21
163.853592
 31
0.0
  0
LINE
  5
629
100
AcDbEntity
  8
0
  6
Continuous
 62
     8
100
AcDbLine
 10
363.016469
 20
165.853804
 30
0.0
 11
363.016469
 21
173.668678
 31
0.0
  0
LINE
  5
62A
100
AcDbEntity
  8
0
  6
Continuous
 62
     8
100
AcDbLine
 10
363.016469
 20
175.668465
 30
0.0
 11
363.016469
 21
176.668571
 31
0.0
  0
LINE
  5
62B
100
AcDbEntity
  8
0
  6
Continuous
 62
     8
100
AcDbLine
 10
363.016469
 20
178.668358
 30
0.0
 11
363.016469
 21
186.483657
 31
0.0
  0
LINE
  5
62C
100
AcDbEntity
  8
0
  6
Continuous
 62
     8
100
AcDbLine
 10
363.016469
 20
188.483444
 30
0.0
 11
363.016469
 21
189.483551
 31
0.0
  0
LINE
  5
62D
100
AcDbEntity
  8
0
  6
Continuous
 62
     8
100
AcDbLine
 10
363.016469
 20
191.483338
 30
0.0
 11
363.016469
 21
199.298211
 31
0.0
  0
ENDBLK
  5
62E
100
AcDbEntity
  8
0
100
AcDbBlockEnd
  0
BLOCK
  5
631
100
AcDbEntity
  8
0
100
AcDbBlockBegin
  2
*B131
 70
     0
 10
0.0
 20
0.0
 30
0.0
  3
*B131
  1

  0
LINE
  5
632
100
AcDbEntity
  8
0
  6
Continuous
 62
     8
100
AcDbLine
 10
102.036381
 20
76.04
 30
0.0
 11
138.516855
 21
76.04
 31
0.0
  0
ENDBLK
  5
633
100
AcDbEntity
  8
0
100
AcDbBlockEnd
  0
BLOCK
  5
636
100
AcDbEntity
  8
0
100
AcDbBlockBegin
  2
*B132
 70
     0
 10
0.0
 20
0.0
 30
0.0
  3
*B132
  1

  0
LINE
  5
637
100
AcDbEntity
  8
0
  6
Continuous
 62
     8
100
AcDbLine
 10
136.516643
 20
126.039358
 30
0.0
 11
144.141709
 21
126.039358
 31
0.0
  0
LINE
  5
638
100
AcDbEntity
  8
0
  6
Continuous
 62
     8
100
AcDbLine
 10
146.141496
 20
126.039358
 30
0.0
 11
147.141602
 21
126.039358
 31
0.0
  0
LINE
  5
639
100
AcDbEntity
  8
0
  6
Continuous
 62
     8
100
AcDbLine
 10
149.141815
 20
126.039358
 30
0.0
 11
156.766881
 21
126.039358
 31
0.0
  0
LINE
  5
63A
100
AcDbEntity
  8
0
  6
Continuous
 62
     8
100
AcDbLine
 10
158.766668
 20
126.039358
 30
0.0
 11
159.766774
 21
126.039358
 31
0.0
  0
LINE
  5
63B
100
AcDbEntity
  8
0
  6
Continuous
 62
     8
100
AcDbLine
 10
161.766561
 20
126.039358
 30
0.0
 11
169.391627
 21
126.039358
 31
0.0
  0
LINE
  5
63C
100
AcDbEntity
  8
0
  6
Continuous
 62
     8
100
AcDbLine
 10
171.39184
 20
126.039358
 30
0.0
 11
172.391521
 21
126.039358
 31
0.0
  0
LINE
  5
63D
100
AcDbEntity
  8
0
  6
Continuous
 62
     8
100
AcDbLine
 10
174.391733
 20
126.039358
 30
0.0
 11
182.016799
 21
126.039358
 31
0.0
  0
LINE
  5
63E
100
AcDbEntity
  8
0
  6
Continuous
 62
     8
100
AcDbLine
 10
188.016586
 20
126.039358
 30
0.0
 11
197.516745
 21
126.039358
 31
0.0
  0
LINE
  5
63F
100
AcDbEntity
  8
0
  6
Continuous
 62
     8
100
AcDbLine
 10
199.516532
 20
126.039358
 30
0.0
 11
200.516639
 21
126.039358
 31
0.0
  0
LINE
  5
640
100
AcDbEntity
  8
0
  6
Continuous
 62
     8
100
AcDbLine
 10
202.516851
 20
126.039358
 30
0.0
 11
212.016585
 21
126.039358
 31
0.0
  0
LINE
  5
641
100
AcDbEntity
  8
0
  6
Continuous
 62
     8
100
AcDbLine
 10
214.016798
 20
126.039358
 30
0.0
 11
215.016478
 21
126.039358
 31
0.0
  0
LINE
  5
642
100
AcDbEntity
  8
0
  6
Continuous
 62
     8
100
AcDbLine
 10
217.016691
 20
126.039358
 30
0.0
 11
226.51685
 21
126.039358
 31
0.0
  0
LINE
  5
643
100
AcDbEntity
  8
0
  6
Continuous
 62
     8
100
AcDbLine
 10
232.516637
 20
126.039358
 30
0.0
 11
242.016796
 21
126.039358
 31
0.0
  0
LINE
  5
644
100
AcDbEntity
  8
0
  6
Continuous
 62
     8
100
AcDbLine
 10
244.016583
 20
126.039358
 30
0.0
 11
245.016689
 21
126.039358
 31
0.0
  0
LINE
  5
645
100
AcDbEntity
  8
0
  6
Continuous
 62
     8
100
AcDbLine
 10
247.016476
 20
126.039358
 30
0.0
 11
256.516635
 21
126.039358
 31
0.0
  0
LINE
  5
646
100
AcDbEntity
  8
0
  6
Continuous
 62
     8
100
AcDbLine
 10
258.516848
 20
126.039358
 30
0.0
 11
259.516529
 21
126.039358
 31
0.0
  0
LINE
  5
647
100
AcDbEntity
  8
0
  6
Continuous
 62
     8
100
AcDbLine
 10
261.516742
 20
126.039358
 30
0.0
 11
271.016475
 21
126.039358
 31
0.0
  0
LINE
  5
648
100
AcDbEntity
  8
0
  6
Continuous
 62
     8
100
AcDbLine
 10
277.016687
 20
126.039358
 30
0.0
 11
286.516846
 21
126.039358
 31
0.0
  0
LINE
  5
649
100
AcDbEntity
  8
0
  6
Continuous
 62
     8
100
AcDbLine
 10
288.516634
 20
126.039358
 30
0.0
 11
289.51674
 21
126.039358
 31
0.0
  0
LINE
  5
64A
100
AcDbEntity
  8
0
  6
Continuous
 62
     8
100
AcDbLine
 10
291.516527
 20
126.039358
 30
0.0
 11
301.016686
 21
126.039358
 31
0.0
  0
LINE
  5
64B
100
AcDbEntity
  8
0
  6
Continuous
 62
     8
100
AcDbLine
 10
303.016473
 20
126.039358
 30
0.0
 11
304.016579
 21
126.039358
 31
0.0
  0
LINE
  5
64C
100
AcDbEntity
  8
0
  6
Continuous
 62
     8
100
AcDbLine
 10
306.016792
 20
126.039358
 30
0.0
 11
315.516526
 21
126.039358
 31
0.0
  0
LINE
  5
64D
100
AcDbEntity
  8
0
  6
Continuous
 62
     8
100
AcDbLine
 10
321.516738
 20
126.039358
 30
0.0
 11
331.016471
 21
126.039358
 31
0.0
  0
LINE
  5
64E
100
AcDbEntity
  8
0
  6
Continuous
 62
     8
100
AcDbLine
 10
333.016684
 20
126.039358
 30
0.0
 11
334.01679
 21
126.039358
 31
0.0
  0
LINE
  5
64F
100
AcDbEntity
  8
0
  6
Continuous
 62
     8
100
AcDbLine
 10
336.016577
 20
126.039358
 30
0.0
 11
345.516737
 21
126.039358
 31
0.0
  0
LINE
  5
650
100
AcDbEntity
  8
0
  6
Continuous
 62
     8
100
AcDbLine
 10
347.516524
 20
126.039358
 30
0.0
 11
348.51663
 21
126.039358
 31
0.0
  0
LINE
  5
651
100
AcDbEntity
  8
0
  6
Continuous
 62
     8
100
AcDbLine
 10
350.516417
 20
126.039358
 30
0.0
 11
360.016576
 21
126.039358
 31
0.0
  0
LINE
  5
652
100
AcDbEntity
  8
0
  6
Continuous
 62
     8
100
AcDbLine
 10
366.016788
 20
126.039358
 30
0.0
 11
375.516522
 21
126.039358
 31
0.0
  0
LINE
  5
653
100
AcDbEntity
  8
0
  6
Continuous
 62
     8
100
AcDbLine
 10
377.516735
 20
126.039358
 30
0.0
 11
378.516415
 21
126.039358
 31
0.0
  0
LINE
  5
654
100
AcDbEntity
  8
0
  6
Continuous
 62
     8
100
AcDbLine
 10
380.516628
 20
126.039358
 30
0.0
 11
390.016787
 21
126.039358
 31
0.0
  0
LINE
  5
655
100
AcDbEntity
  8
0
  6
Continuous
 62
     8
100
AcDbLine
 10
392.016574
 20
126.039358
 30
0.0
 11
393.01668
 21
126.039358
 31
0.0
  0
LINE
  5
656
100
AcDbEntity
  8
0
  6
Continuous
 62
     8
100
AcDbLine
 10
395.016468
 20
126.039358
 30
0.0
 11
404.516627
 21
126.039358
 31
0.0
  0
LINE
  5
657
100
AcDbEntity
  8
0
  6
Continuous
 62
     8
100
AcDbLine
 10
410.516413
 20
126.039358
 30
0.0
 11
421.266493
 21
126.039358
 31
0.0
  0
LINE
  5
658
100
AcDbEntity
  8
0
  6
Continuous
 62
     8
100
AcDbLine
 10
423.266705
 20
126.039358
 30
0.0
 11
424.266386
 21
126.039358
 31
0.0
  0
LINE
  5
659
100
AcDbEntity
  8
0
  6
Continuous
 62
     8
100
AcDbLine
 10
426.266599
 20
126.039358
 30
0.0
 11
437.016678
 21
126.039358
 31
0.0
  0
LINE
  5
65A
100
AcDbEntity
  8
0
  6
Continuous
 62
     8
100
AcDbLine
 10
443.016465
 20
126.039358
 30
0.0
 11
456.01657
 21
126.039358
 31
0.0
  0
ENDBLK
  5
65B
100
AcDbEntity
  8
0
100
AcDbBlockEnd
  0
BLOCK
  5
65E
100
AcDbEntity
  8
0
100
AcDbBlockBegin
  2
*B133
 70
     0
 10
0.0
 20
0.0
 30
0.0
  3
*B133
  1

  0
LINE
  5
65F
100
AcDbEntity
  8
0
  6
Continuous
 62
     6
100
AcDbLine
 10
239.51653
 20
319.901673
 30
0.0
 11
239.51653
 21
321.901885
 31
0.0
  0
LINE
  5
660
100
AcDbEntity
  8
0
  6
Continuous
 62
     6
100
AcDbLine
 10
238.516849
 20
320.901779
 30
0.0
 11
240.516636
 21
320.901779
 31
0.0
  0
ENDBLK
  5
661
100
AcDbEntity
  8
0
100
AcDbBlockEnd
  0
BLOCK
  5
664
100
AcDbEntity
  8
0
100
AcDbBlockBegin
  2
*B134
 70
     0
 10
0.0
 20
0.0
 30
0.0
  3
*B134
  1

  0
LINE
  5
665
100
AcDbEntity
  8
0
  6
Continuous
 62
     6
100
AcDbLine
 10
374.016788
 20
113.039253
 30
0.0
 11
374.016788
 21
115.039465
 31
0.0
  0
LINE
  5
666
100
AcDbEntity
  8
0
  6
Continuous
 62
     6
100
AcDbLine
 10
373.016682
 20
114.039359
 30
0.0
 11
375.016469
 21
114.039359
 31
0.0
  0
ENDBLK
  5
667
100
AcDbEntity
  8
0
100
AcDbBlockEnd
  0
BLOCK
  5
66A
100
AcDbEntity
  8
0
100
AcDbBlockBegin
  2
*B135
 70
     0
 10
0.0
 20
0.0
 30
0.0
  3
*B135
  1

  0
LINE
  5
66B
100
AcDbEntity
  8
0
  6
Continuous
 62
     6
100
AcDbLine
 10
184.016587
 20
102.039785
 30
0.0
 11
186.016799
 21
102.039785
 31
0.0
  0
LINE
  5
66C
100
AcDbEntity
  8
0
  6
Continuous
 62
     6
100
AcDbLine
 10
185.016693
 20
101.039679
 30
0.0
 11
185.016693
 21
103.039466
 31
0.0
  0
ENDBLK
  5
66D
100
AcDbEntity
  8
0
100
AcDbBlockEnd
  0
BLOCK
  5
670
100
AcDbEntity
  8
0
100
AcDbBlockBegin
  2
*B136
 70
     0
 10
0.0
 20
0.0
 30
0.0
  3
*B136
  1

  0
LINE
  5
671
100
AcDbEntity
  8
0
  6
Continuous
 62
     6
100
AcDbLine
 10
335.016471
 20
161.038824
 30
0.0
 11
335.016471
 21
163.038611
 31
0.0
  0
LINE
  5
672
100
AcDbEntity
  8
0
  6
Continuous
 62
     6
100
AcDbLine
 10
334.01679
 20
162.038505
 30
0.0
 11
336.016577
 21
162.038505
 31
0.0
  0
ENDBLK
  5
673
100
AcDbEntity
  8
0
100
AcDbBlockEnd
  0
BLOCK
  5
676
100
AcDbEntity
  8
0
100
AcDbBlockBegin
  2
*B137
 70
     0
 10
0.0
 20
0.0
 30
0.0
  3
*B137
  1

  0
LINE
  5
677
100
AcDbEntity
  8
0
  6
Continuous
 62
     6
100
AcDbLine
 10
391.016468
 20
89.03968
 30
0.0
 11
391.016468
 21
91.039892
 31
0.0
  0
LINE
  5
678
100
AcDbEntity
  8
0
  6
Continuous
 62
     6
100
AcDbLine
 10
390.016787
 20
90.039786
 30
0.0
 11
392.016574
 21
90.039786
 31
0.0
  0
ENDBLK
  5
679
100
AcDbEntity
  8
0
100
AcDbBlockEnd
  0
BLOCK
  5
67C
100
AcDbEntity
  8
0
100
AcDbBlockBegin
  2
*B138
 70
     0
 10
0.0
 20
0.0
 30
0.0
  3
*B138
  1

  0
LINE
  5
67D
100
AcDbEntity
  8
0
  6
Continuous
 62
     6
100
AcDbLine
 10
151.516535
 20
90.039786
 30
0.0
 11
153.516748
 21
90.039786
 31
0.0
  0
LINE
  5
67E
100
AcDbEntity
  8
0
  6
Continuous
 62
     6
100
AcDbLine
 10
152.516642
 20
89.03968
 30
0.0
 11
152.516642
 21
91.039892
 31
0.0
  0
ENDBLK
  5
67F
100
AcDbEntity
  8
0
100
AcDbBlockEnd
  0
BLOCK
  5
682
100
AcDbEntity
  8
0
100
AcDbBlockBegin
  2
*B139
 70
     0
 10
0.0
 20
0.0
 30
0.0
  3
*B139
  1

  0
LINE
  5
683
100
AcDbEntity
  8
0
  6
Continuous
 62
     6
100
AcDbLine
 10
218.51685
 20
137.039251
 30
0.0
 11
218.51685
 21
139.039038
 31
0.0
  0
LINE
  5
684
100
AcDbEntity
  8
0
  6
Continuous
 62
     6
100
AcDbLine
 10
217.516744
 20
138.038932
 30
0.0
 11
219.516531
 21
138.038932
 31
0.0
  0
ENDBLK
  5
685
100
AcDbEntity
  8
0
100
AcDbBlockEnd
  0
BLOCK
  5
688
100
AcDbEntity
  8
0
100
AcDbBlockBegin
  2
*B140
 70
     0
 10
0.0
 20
0.0
 30
0.0
  3
*B140
  1

  0
LINE
  5
689
100
AcDbEntity
  8
0
  6
Continuous
 62
     6
100
AcDbLine
 10
151.516535
 20
162.038505
 30
0.0
 11
153.516748
 21
162.038505
 31
0.0
  0
LINE
  5
68A
100
AcDbEntity
  8
0
  6
Continuous
 62
     6
100
AcDbLine
 10
152.516642
 20
161.038824
 30
0.0
 11
152.516642
 21
163.038611
 31
0.0
  0
ENDBLK
  5
68B
100
AcDbEntity
  8
0
100
AcDbBlockEnd
  0
BLOCK
  5
68E
100
AcDbEntity
  8
0
100
AcDbBlockBegin
  2
*B141
 70
     0
 10
0.0
 20
0.0
 30
0.0
  3
*B141
  1

  0
LINE
  5
68F
100
AcDbEntity
  8
0
  6
Continuous
 62
     6
100
AcDbLine
 10
362.016789
 20
102.039785
 30
0.0
 11
364.016576
 21
102.039785
 31
0.0
  0
LINE
  5
690
100
AcDbEntity
  8
0
  6
Continuous
 62
     6
100
AcDbLine
 10
363.016469
 20
101.039679
 30
0.0
 11
363.016469
 21
103.039466
 31
0.0
  0
ENDBLK
  5
691
100
AcDbEntity
  8
0
100
AcDbBlockEnd
  0
BLOCK
  5
694
100
AcDbEntity
  8
0
100
AcDbBlockBegin
  2
*B142
 70
     0
 10
0.0
 20
0.0
 30
0.0
  3
*B142
  1

  0
LINE
  5
695
100
AcDbEntity
  8
0
  6
Continuous
 62
     6
100
AcDbLine
 10
229.516743
 20
149.038825
 30
0.0
 11
229.516743
 21
151.039038
 31
0.0
  0
LINE
  5
696
100
AcDbEntity
  8
0
  6
Continuous
 62
     6
100
AcDbLine
 10
228.516637
 20
150.038931
 30
0.0
 11
230.51685
 21
150.038931
 31
0.0
  0
ENDBLK
  5
697
100
AcDbEntity
  8
0
100
AcDbBlockEnd
  0
BLOCK
  5
69A
100
AcDbEntity
  8
0
100
AcDbBlockBegin
  2
*B143
 70
     0
 10
0.0
 20
0.0
 30
0.0
  3
*B143
  1

  0
LINE
  5
69B
100
AcDbEntity
  8
0
  6
Continuous
 62
     6
100
AcDbLine
 10
308.516632
 20
291.9021
 30
0.0
 11
308.516632
 21
293.902313
 31
0.0
  0
LINE
  5
69C
100
AcDbEntity
  8
0
  6
Continuous
 62
     6
100
AcDbLine
 10
307.516526
 20
292.902206
 30
0.0
 11
309.516739
 21
292.902206
 31
0.0
  0
ENDBLK
  5
69D
100
AcDbEntity
  8
0
100
AcDbBlockEnd
  0
BLOCK
  5
6A0
100
AcDbEntity
  8
0
100
AcDbBlockBegin
  2
*B144
 70
     0
 10
0.0
 20
0.0
 30
0.0
  3
*B144
  1

  0
LINE
  5
6A1
100
AcDbEntity
  8
0
  6
Continuous
 62
     6
100
AcDbLine
 10
416.516626
 20
320.901779
 30
0.0
 11
418.516413
 21
320.901779
 31
0.0
  0
LINE
  5
6A2
100
AcDbEntity
  8
0
  6
Continuous
 62
     6
100
AcDbLine
 10
417.516732
 20
319.901673
 30
0.0
 11
417.516732
 21
321.901885
 31
0.0
  0
ENDBLK
  5
6A3
100
AcDbEntity
  8
0
100
AcDbBlockEnd
  0
BLOCK
  5
6A6
100
AcDbEntity
  8
0
100
AcDbBlockBegin
  2
*B145
 70
     0
 10
0.0
 20
0.0
 30
0.0
  3
*B145
  1

  0
LINE
  5
6A7
100
AcDbEntity
  8
0
  6
Continuous
 62
     6
100
AcDbLine
 10
395.516521
 20
138.038932
 30
0.0
 11
397.516733
 21
138.038932
 31
0.0
  0
LINE
  5
6A8
100
AcDbEntity
  8
0
  6
Continuous
 62
     6
100
AcDbLine
 10
396.516627
 20
137.039251
 30
0.0
 11
396.516627
 21
139.039038
 31
0.0
  0
ENDBLK
  5
6A9
100
AcDbEntity
  8
0
100
AcDbBlockEnd
  0
BLOCK
  5
6AC
100
AcDbEntity
  8
0
100
AcDbBlockBegin
  2
*B146
 70
     0
 10
0.0
 20
0.0
 30
0.0
  3
*B146
  1

  0
LINE
  5
6AD
100
AcDbEntity
  8
0
  6
Continuous
 62
     6
100
AcDbLine
 10
173.016694
 20
138.038932
 30
0.0
 11
175.016906
 21
138.038932
 31
0.0
  0
LINE
  5
6AE
100
AcDbEntity
  8
0
  6
Continuous
 62
     6
100
AcDbLine
 10
174.0168
 20
137.039251
 30
0.0
 11
174.0168
 21
139.039038
 31
0.0
  0
ENDBLK
  5
6AF
100
AcDbEntity
  8
0
100
AcDbBlockEnd
  0
BLOCK
  5
6B2
100
AcDbEntity
  8
0
100
AcDbBlockBegin
  2
*B147
 70
     0
 10
0.0
 20
0.0
 30
0.0
  3
*B147
  1

  0
LINE
  5
6B3
100
AcDbEntity
  8
0
  6
Continuous
 62
     6
100
AcDbLine
 10
318.516419
 20
125.039252
 30
0.0
 11
318.516419
 21
127.039039
 31
0.0
  0
LINE
  5
6B4
100
AcDbEntity
  8
0
  6
Continuous
 62
     6
100
AcDbLine
 10
317.516738
 20
126.039358
 30
0.0
 11
319.516525
 21
126.039358
 31
0.0
  0
ENDBLK
  5
6B5
100
AcDbEntity
  8
0
100
AcDbBlockEnd
  0
BLOCK
  5
6B8
100
AcDbEntity
  8
0
100
AcDbBlockBegin
  2
*B148
 70
     0
 10
0.0
 20
0.0
 30
0.0
  3
*B148
  1

  0
LINE
  5
6B9
100
AcDbEntity
  8
0
  6
Continuous
 62
     6
100
AcDbLine
 10
352.016577
 20
137.039251
 30
0.0
 11
352.016577
 21
139.039038
 31
0.0
  0
LINE
  5
6BA
100
AcDbEntity
  8
0
  6
Continuous
 62
     6
100
AcDbLine
 10
351.01647
 20
138.038932
 30
0.0
 11
353.016683
 21
138.038932
 31
0.0
  0
ENDBLK
  5
6BB
100
AcDbEntity
  8
0
100
AcDbBlockEnd
  0
BLOCK
  5
6BE
100
AcDbEntity
  8
0
100
AcDbBlockBegin
  2
*B149
 70
     0
 10
0.0
 20
0.0
 30
0.0
  3
*B149
  1

  0
LINE
  5
6BF
100
AcDbEntity
  8
0
  6
Continuous
 62
     6
100
AcDbLine
 10
418.516413
 20
113.039253
 30
0.0
 11
418.516413
 21
115.039465
 31
0.0
  0
LINE
  5
6C0
100
AcDbEntity
  8
0
  6
Continuous
 62
     6
100
AcDbLine
 10
417.516732
 20
114.039359
 30
0.0
 11
419.516519
 21
114.039359
 31
0.0
  0
ENDBLK
  5
6C1
100
AcDbEntity
  8
0
100
AcDbBlockEnd
  0
BLOCK
  5
6C4
100
AcDbEntity
  8
0
100
AcDbBlockBegin
  2
*B150
 70
     0
 10
0.0
 20
0.0
 30
0.0
  3
*B150
  1

  0
LINE
  5
6C5
100
AcDbEntity
  8
0
  6
Continuous
 62
     6
100
AcDbLine
 10
273.016688
 20
150.038931
 30
0.0
 11
275.016475
 21
150.038931
 31
0.0
  0
LINE
  5
6C6
100
AcDbEntity
  8
0
  6
Continuous
 62
     6
100
AcDbLine
 10
274.016794
 20
149.038825
 30
0.0
 11
274.016794
 21
151.039038
 31
0.0
  0
ENDBLK
  5
6C7
100
AcDbEntity
  8
0
100
AcDbBlockEnd
  0
BLOCK
  5
6CA
100
AcDbEntity
  8
0
100
AcDbBlockBegin
  2
*B151
 70
     0
 10
0.0
 20
0.0
 30
0.0
  3
*B151
  1

  0
LINE
  5
6CB
100
AcDbEntity
  8
0
  6
Continuous
 62
     6
100
AcDbLine
 10
424.016572
 20
161.038824
 30
0.0
 11
424.016572
 21
163.038611
 31
0.0
  0
LINE
  5
6CC
100
AcDbEntity
  8
0
  6
Continuous
 62
     6
100
AcDbLine
 10
423.016466
 20
162.038505
 30
0.0
 11
425.016679
 21
162.038505
 31
0.0
  0
ENDBLK
  5
6CD
100
AcDbEntity
  8
0
100
AcDbBlockEnd
  0
BLOCK
  5
6D0
100
AcDbEntity
  8
0
100
AcDbBlockBegin
  2
*B152
 70
     0
 10
0.0
 20
0.0
 30
0.0
  3
*B152
  1

  0
LINE
  5
6D1
100
AcDbEntity
  8
0
  6
Continuous
 62
     6
100
AcDbLine
 10
196.016586
 20
113.039253
 30
0.0
 11
196.016586
 21
115.039465
 31
0.0
  0
LINE
  5
6D2
100
AcDbEntity
  8
0
  6
Continuous
 62
     6
100
AcDbLine
 10
195.016479
 20
114.039359
 30
0.0
 11
197.016692
 21
114.039359
 31
0.0
  0
ENDBLK
  5
6D3
100
AcDbEntity
  8
0
100
AcDbBlockEnd
  0
BLOCK
  5
6D6
100
AcDbEntity
  8
0
100
AcDbBlockBegin
  2
*B153
 70
     0
 10
0.0
 20
0.0
 30
0.0
  3
*B153
  1

  0
LINE
  5
6D7
100
AcDbEntity
  8
0
  6
Continuous
 62
     6
100
AcDbLine
 10
201.516745
 20
161.038824
 30
0.0
 11
201.516745
 21
163.038611
 31
0.0
  0
LINE
  5
6D8
100
AcDbEntity
  8
0
  6
Continuous
 62
     6
100
AcDbLine
 10
200.516639
 20
162.038505
 30
0.0
 11
202.516851
 21
162.038505
 31
0.0
  0
ENDBLK
  5
6D9
100
AcDbEntity
  8
0
100
AcDbBlockEnd
  0
BLOCK
  5
6DC
100
AcDbEntity
  8
0
100
AcDbBlockBegin
  2
*B154
 70
     0
 10
0.0
 20
0.0
 30
0.0
  3
*B154
  1

  0
LINE
  5
6DD
100
AcDbEntity
  8
0
  6
Continuous
 62
     6
100
AcDbLine
 10
329.516737
 20
113.039253
 30
0.0
 11
329.516737
 21
115.039465
 31
0.0
  0
LINE
  5
6DE
100
AcDbEntity
  8
0
  6
Continuous
 62
     6
100
AcDbLine
 10
328.516631
 20
114.039359
 30
0.0
 11
330.516844
 21
114.039359
 31
0.0
  0
ENDBLK
  5
6DF
100
AcDbEntity
  8
0
100
AcDbBlockEnd
  0
BLOCK
  5
6E2
100
AcDbEntity
  8
0
100
AcDbBlockBegin
  2
*B155
 70
     0
 10
0.0
 20
0.0
 30
0.0
  3
*B155
  1

  0
LINE
  5
6E3
100
AcDbEntity
  8
0
  6
Continuous
 62
     6
100
AcDbLine
 10
229.516743
 20
101.039679
 30
0.0
 11
229.516743
 21
103.039466
 31
0.0
  0
LINE
  5
6E4
100
AcDbEntity
  8
0
  6
Continuous
 62
     6
100
AcDbLine
 10
228.516637
 20
102.039785
 30
0.0
 11
230.51685
 21
102.039785
 31
0.0
  0
ENDBLK
  5
6E5
100
AcDbEntity
  8
0
100
AcDbBlockEnd
  0
BLOCK
  5
6E8
100
AcDbEntity
  8
0
100
AcDbBlockBegin
  2
*B156
 70
     0
 10
0.0
 20
0.0
 30
0.0
  3
*B156
  1

  0
LINE
  5
6E9
100
AcDbEntity
  8
0
  6
Continuous
 62
     6
100
AcDbLine
 10
406.516414
 20
102.039785
 30
0.0
 11
408.516626
 21
102.039785
 31
0.0
  0
LINE
  5
6EA
100
AcDbEntity
  8
0
  6
Continuous
 62
     6
100
AcDbLine
 10
407.51652
 20
101.039679
 30
0.0
 11
407.51652
 21
103.039466
 31
0.0
  0
ENDBLK
  5
6EB
100
AcDbEntity
  8
0
100
AcDbBlockEnd
  0
BLOCK
  5
6EE
100
AcDbEntity
  8
0
100
AcDbBlockBegin
  2
*B157
 70
     0
 10
0.0
 20
0.0
 30
0.0
  3
*B157
  1

  0
LINE
  5
6EF
100
AcDbEntity
  8
0
  6
Continuous
 62
     6
100
AcDbLine
 10
363.016469
 20
125.039252
 30
0.0
 11
363.016469
 21
127.039039
 31
0.0
  0
LINE
  5
6F0
100
AcDbEntity
  8
0
  6
Continuous
 62
     6
100
AcDbLine
 10
362.016789
 20
126.039358
 30
0.0
 11
364.016576
 21
126.039358
 31
0.0
  0
ENDBLK
  5
6F1
100
AcDbEntity
  8
0
100
AcDbBlockEnd
  0
BLOCK
  5
6F4
100
AcDbEntity
  8
0
100
AcDbBlockBegin
  2
*B158
 70
     0
 10
0.0
 20
0.0
 30
0.0
  3
*B158
  1

  0
LINE
  5
6F5
100
AcDbEntity
  8
0
  6
Continuous
 62
     6
100
AcDbLine
 10
194.016799
 20
320.901779
 30
0.0
 11
196.016586
 21
320.901779
 31
0.0
  0
LINE
  5
6F6
100
AcDbEntity
  8
0
  6
Continuous
 62
     6
100
AcDbLine
 10
195.016479
 20
319.901673
 30
0.0
 11
195.016479
 21
321.901885
 31
0.0
  0
ENDBLK
  5
6F7
100
AcDbEntity
  8
0
100
AcDbBlockEnd
  0
BLOCK
  5
6FA
100
AcDbEntity
  8
0
100
AcDbBlockBegin
  2
*B159
 70
     0
 10
0.0
 20
0.0
 30
0.0
  3
*B159
  1

  0
LINE
  5
6FB
100
AcDbEntity
  8
0
  6
Continuous
 62
     6
100
AcDbLine
 10
407.51652
 20
149.038825
 30
0.0
 11
407.51652
 21
151.039038
 31
0.0
  0
LINE
  5
6FC
100
AcDbEntity
  8
0
  6
Continuous
 62
     6
100
AcDbLine
 10
406.516414
 20
150.038931
 30
0.0
 11
408.516626
 21
150.038931
 31
0.0
  0
ENDBLK
  5
6FD
100
AcDbEntity
  8
0
100
AcDbBlockEnd
  0
BLOCK
  5
700
100
AcDbEntity
  8
0
100
AcDbBlockBegin
  2
*B160
 70
     0
 10
0.0
 20
0.0
 30
0.0
  3
*B160
  1

  0
LINE
  5
701
100
AcDbEntity
  8
0
  6
Continuous
 62
     6
100
AcDbLine
 10
168.516641
 20
89.03968
 30
0.0
 11
168.516641
 21
91.039892
 31
0.0
  0
LINE
  5
702
100
AcDbEntity
  8
0
  6
Continuous
 62
     6
100
AcDbLine
 10
167.516534
 20
90.039786
 30
0.0
 11
169.516747
 21
90.039786
 31
0.0
  0
ENDBLK
  5
703
100
AcDbEntity
  8
0
100
AcDbBlockEnd
  0
BLOCK
  5
706
100
AcDbEntity
  8
0
100
AcDbBlockBegin
  2
*B161
 70
     0
 10
0.0
 20
0.0
 30
0.0
  3
*B161
  1

  0
LINE
  5
707
100
AcDbEntity
  8
0
  6
Continuous
 62
     6
100
AcDbLine
 10
362.016789
 20
150.038931
 30
0.0
 11
364.016576
 21
150.038931
 31
0.0
  0
LINE
  5
708
100
AcDbEntity
  8
0
  6
Continuous
 62
     6
100
AcDbLine
 10
363.016469
 20
149.038825
 30
0.0
 11
363.016469
 21
151.039038
 31
0.0
  0
ENDBLK
  5
709
100
AcDbEntity
  8
0
100
AcDbBlockEnd
  0
BLOCK
  5
70C
100
AcDbEntity
  8
0
100
AcDbBlockBegin
  2
*B162
 70
     0
 10
0.0
 20
0.0
 30
0.0
  3
*B162
  1

  0
LINE
  5
70D
100
AcDbEntity
  8
0
  6
Continuous
 62
     6
100
AcDbLine
 10
213.016691
 20
89.03968
 30
0.0
 11
213.016691
 21
91.039892
 31
0.0
  0
LINE
  5
70E
100
AcDbEntity
  8
0
  6
Continuous
 62
     6
100
AcDbLine
 10
212.016585
 20
90.039786
 30
0.0
 11
214.016798
 21
90.039786
 31
0.0
  0
ENDBLK
  5
70F
100
AcDbEntity
  8
0
100
AcDbBlockEnd
  0
BLOCK
  5
712
100
AcDbEntity
  8
0
100
AcDbBlockBegin
  2
*B163
 70
     0
 10
0.0
 20
0.0
 30
0.0
  3
*B163
  1

  0
LINE
  5
713
100
AcDbEntity
  8
0
  6
Continuous
 62
     6
100
AcDbLine
 10
353.016683
 20
291.9021
 30
0.0
 11
353.016683
 21
293.902313
 31
0.0
  0
LINE
  5
714
100
AcDbEntity
  8
0
  6
Continuous
 62
     6
100
AcDbLine
 10
352.016577
 20
292.902206
 30
0.0
 11
354.016789
 21
292.902206
 31
0.0
  0
ENDBLK
  5
715
100
AcDbEntity
  8
0
100
AcDbBlockEnd
  0
BLOCK
  5
718
100
AcDbEntity
  8
0
100
AcDbBlockBegin
  2
*B164
 70
     0
 10
0.0
 20
0.0
 30
0.0
  3
*B164
  1

  0
LINE
  5
719
100
AcDbEntity
  8
0
  6
Continuous
 62
     6
100
AcDbLine
 10
318.516419
 20
149.038825
 30
0.0
 11
318.516419
 21
151.039038
 31
0.0
  0
LINE
  5
71A
100
AcDbEntity
  8
0
  6
Continuous
 62
     6
100
AcDbLine
 10
317.516738
 20
150.038931
 30
0.0
 11
319.516525
 21
150.038931
 31
0.0
  0
ENDBLK
  5
71B
100
AcDbEntity
  8
0
100
AcDbBlockEnd
  0
BLOCK
  5
71E
100
AcDbEntity
  8
0
100
AcDbBlockBegin
  2
*B165
 70
     0
 10
0.0
 20
0.0
 30
0.0
  3
*B165
  1

  0
LINE
  5
71F
100
AcDbEntity
  8
0
  6
Continuous
 62
     6
100
AcDbLine
 10
257.516742
 20
89.03968
 30
0.0
 11
257.516742
 21
91.039892
 31
0.0
  0
LINE
  5
720
100
AcDbEntity
  8
0
  6
Continuous
 62
     6
100
AcDbLine
 10
256.516635
 20
90.039786
 30
0.0
 11
258.516848
 21
90.039786
 31
0.0
  0
ENDBLK
  5
721
100
AcDbEntity
  8
0
100
AcDbBlockEnd
  0
BLOCK
  5
724
100
AcDbEntity
  8
0
100
AcDbBlockBegin
  2
*B166
 70
     0
 10
0.0
 20
0.0
 30
0.0
  3
*B166
  1

  0
LINE
  5
725
100
AcDbEntity
  8
0
  6
Continuous
 62
     6
100
AcDbLine
 10
219.516531
 20
291.9021
 30
0.0
 11
219.516531
 21
293.902313
 31
0.0
  0
LINE
  5
726
100
AcDbEntity
  8
0
  6
Continuous
 62
     6
100
AcDbLine
 10
218.51685
 20
292.902206
 30
0.0
 11
220.516638
 21
292.902206
 31
0.0
  0
ENDBLK
  5
727
100
AcDbEntity
  8
0
100
AcDbBlockEnd
  0
BLOCK
  5
72A
100
AcDbEntity
  8
0
100
AcDbBlockBegin
  2
*B167
 70
     0
 10
0.0
 20
0.0
 30
0.0
  3
*B167
  1

  0
LINE
  5
72B
100
AcDbEntity
  8
0
  6
Continuous
 62
     6
100
AcDbLine
 10
397.516733
 20
291.9021
 30
0.0
 11
397.516733
 21
293.902313
 31
0.0
  0
LINE
  5
72C
100
AcDbEntity
  8
0
  6
Continuous
 62
     6
100
AcDbLine
 10
396.516627
 20
292.902206
 30
0.0
 11
398.516414
 21
292.902206
 31
0.0
  0
ENDBLK
  5
72D
100
AcDbEntity
  8
0
100
AcDbBlockEnd
  0
BLOCK
  5
730
100
AcDbEntity
  8
0
100
AcDbBlockBegin
  2
*B168
 70
     0
 10
0.0
 20
0.0
 30
0.0
  3
*B168
  1

  0
LINE
  5
731
100
AcDbEntity
  8
0
  6
Continuous
 62
     6
100
AcDbLine
 10
274.016794
 20
125.039252
 30
0.0
 11
274.016794
 21
127.039039
 31
0.0
  0
LINE
  5
732
100
AcDbEntity
  8
0
  6
Continuous
 62
     6
100
AcDbLine
 10
273.016688
 20
126.039358
 30
0.0
 11
275.016475
 21
126.039358
 31
0.0
  0
ENDBLK
  5
733
100
AcDbEntity
  8
0
100
AcDbBlockEnd
  0
BLOCK
  5
736
100
AcDbEntity
  8
0
100
AcDbBlockBegin
  2
*B169
 70
     0
 10
0.0
 20
0.0
 30
0.0
  3
*B169
  1

  0
LINE
  5
737
100
AcDbEntity
  8
0
  6
Continuous
 62
     6
100
AcDbLine
 10
283.016474
 20
320.901779
 30
0.0
 11
285.016687
 21
320.901779
 31
0.0
  0
LINE
  5
738
100
AcDbEntity
  8
0
  6
Continuous
 62
     6
100
AcDbLine
 10
284.016581
 20
319.901673
 30
0.0
 11
284.016581
 21
321.901885
 31
0.0
  0
ENDBLK
  5
739
100
AcDbEntity
  8
0
100
AcDbBlockEnd
  0
BLOCK
  5
73C
100
AcDbEntity
  8
0
100
AcDbBlockBegin
  2
*B170
 70
     0
 10
0.0
 20
0.0
 30
0.0
  3
*B170
  1

  0
LINE
  5
73D
100
AcDbEntity
  8
0
  6
Continuous
 62
     6
100
AcDbLine
 10
185.016693
 20
125.039252
 30
0.0
 11
185.016693
 21
127.039039
 31
0.0
  0
LINE
  5
73E
100
AcDbEntity
  8
0
  6
Continuous
 62
     6
100
AcDbLine
 10
184.016587
 20
126.039358
 30
0.0
 11
186.016799
 21
126.039358
 31
0.0
  0
ENDBLK
  5
73F
100
AcDbEntity
  8
0
100
AcDbBlockEnd
  0
BLOCK
  5
742
100
AcDbEntity
  8
0
100
AcDbBlockBegin
  2
*B171
 70
     0
 10
0.0
 20
0.0
 30
0.0
  3
*B171
  1

  0
LINE
  5
743
100
AcDbEntity
  8
0
  6
Continuous
 62
     6
100
AcDbLine
 10
174.0168
 20
292.902206
 30
0.0
 11
176.016587
 21
292.902206
 31
0.0
  0
LINE
  5
744
100
AcDbEntity
  8
0
  6
Continuous
 62
     6
100
AcDbLine
 10
175.016906
 20
291.9021
 30
0.0
 11
175.016906
 21
293.902313
 31
0.0
  0
ENDBLK
  5
745
100
AcDbEntity
  8
0
100
AcDbBlockEnd
  0
BLOCK
  5
748
100
AcDbEntity
  8
0
100
AcDbBlockBegin
  2
*B172
 70
     0
 10
0.0
 20
0.0
 30
0.0
  3
*B172
  1

  0
LINE
  5
749
100
AcDbEntity
  8
0
  6
Continuous
 62
     6
100
AcDbLine
 10
301.016686
 20
90.039786
 30
0.0
 11
303.016473
 21
90.039786
 31
0.0
  0
LINE
  5
74A
100
AcDbEntity
  8
0
  6
Continuous
 62
     6
100
AcDbLine
 10
302.016792
 20
89.03968
 30
0.0
 11
302.016792
 21
91.039892
 31
0.0
  0
ENDBLK
  5
74B
100
AcDbEntity
  8
0
100
AcDbBlockEnd
  0
BLOCK
  5
74E
100
AcDbEntity
  8
0
100
AcDbBlockBegin
  2
*B173
 70
     0
 10
0.0
 20
0.0
 30
0.0
  3
*B173
  1

  0
LINE
  5
74F
100
AcDbEntity
  8
0
  6
Continuous
 62
     6
100
AcDbLine
 10
372.016575
 20
320.901779
 30
0.0
 11
374.016788
 21
320.901779
 31
0.0
  0
LINE
  5
750
100
AcDbEntity
  8
0
  6
Continuous
 62
     6
100
AcDbLine
 10
373.016682
 20
319.901673
 30
0.0
 11
373.016682
 21
321.901885
 31
0.0
  0
ENDBLK
  5
751
100
AcDbEntity
  8
0
100
AcDbBlockEnd
  0
BLOCK
  5
754
100
AcDbEntity
  8
0
100
AcDbBlockBegin
  2
*B174
 70
     0
 10
0.0
 20
0.0
 30
0.0
  3
*B174
  1

  0
LINE
  5
755
100
AcDbEntity
  8
0
  6
Continuous
 62
     6
100
AcDbLine
 10
245.016689
 20
162.038505
 30
0.0
 11
247.016476
 21
162.038505
 31
0.0
  0
LINE
  5
756
100
AcDbEntity
  8
0
  6
Continuous
 62
     6
100
AcDbLine
 10
246.016796
 20
161.038824
 30
0.0
 11
246.016796
 21
163.038611
 31
0.0
  0
ENDBLK
  5
757
100
AcDbEntity
  8
0
100
AcDbBlockEnd
  0
BLOCK
  5
75A
100
AcDbEntity
  8
0
100
AcDbBlockBegin
  2
*B175
 70
     0
 10
0.0
 20
0.0
 30
0.0
  3
*B175
  1

  0
LINE
  5
75B
100
AcDbEntity
  8
0
  6
Continuous
 62
     6
100
AcDbLine
 10
307.516526
 20
137.039251
 30
0.0
 11
307.516526
 21
139.039038
 31
0.0
  0
LINE
  5
75C
100
AcDbEntity
  8
0
  6
Continuous
 62
     6
100
AcDbLine
 10
306.51642
 20
138.038932
 30
0.0
 11
308.516632
 21
138.038932
 31
0.0
  0
ENDBLK
  5
75D
100
AcDbEntity
  8
0
100
AcDbBlockEnd
  0
BLOCK
  5
760
100
AcDbEntity
  8
0
100
AcDbBlockBegin
  2
*B176
 70
     0
 10
0.0
 20
0.0
 30
0.0
  3
*B176
  1

  0
LINE
  5
761
100
AcDbEntity
  8
0
  6
Continuous
 62
     6
100
AcDbLine
 10
346.516417
 20
89.03968
 30
0.0
 11
346.516417
 21
91.039892
 31
0.0
  0
LINE
  5
762
100
AcDbEntity
  8
0
  6
Continuous
 62
     6
100
AcDbLine
 10
345.516737
 20
90.039786
 30
0.0
 11
347.516524
 21
90.039786
 31
0.0
  0
ENDBLK
  5
763
100
AcDbEntity
  8
0
100
AcDbBlockEnd
  0
BLOCK
  5
766
100
AcDbEntity
  8
0
100
AcDbBlockBegin
  2
*B177
 70
     0
 10
0.0
 20
0.0
 30
0.0
  3
*B177
  1

  0
LINE
  5
767
100
AcDbEntity
  8
0
  6
Continuous
 62
     6
100
AcDbLine
 10
264.016582
 20
291.9021
 30
0.0
 11
264.016582
 21
293.902313
 31
0.0
  0
LINE
  5
768
100
AcDbEntity
  8
0
  6
Continuous
 62
     6
100
AcDbLine
 10
263.016475
 20
292.902206
 30
0.0
 11
265.016688
 21
292.902206
 31
0.0
  0
ENDBLK
  5
769
100
AcDbEntity
  8
0
100
AcDbBlockEnd
  0
BLOCK
  5
76C
100
AcDbEntity
  8
0
100
AcDbBlockBegin
  2
*B178
 70
     0
 10
0.0
 20
0.0
 30
0.0
  3
*B178
  1

  0
LINE
  5
76D
100
AcDbEntity
  8
0
  6
Continuous
 62
     6
100
AcDbLine
 10
229.516743
 20
125.039252
 30
0.0
 11
229.516743
 21
127.039039
 31
0.0
  0
LINE
  5
76E
100
AcDbEntity
  8
0
  6
Continuous
 62
     6
100
AcDbLine
 10
228.516637
 20
126.039358
 30
0.0
 11
230.51685
 21
126.039358
 31
0.0
  0
ENDBLK
  5
76F
100
AcDbEntity
  8
0
100
AcDbBlockEnd
  0
BLOCK
  5
772
100
AcDbEntity
  8
0
100
AcDbBlockBegin
  2
*B179
 70
     0
 10
0.0
 20
0.0
 30
0.0
  3
*B179
  1

  0
LINE
  5
773
100
AcDbEntity
  8
0
  6
Continuous
 62
     6
100
AcDbLine
 10
185.016693
 20
149.038825
 30
0.0
 11
185.016693
 21
151.039038
 31
0.0
  0
LINE
  5
774
100
AcDbEntity
  8
0
  6
Continuous
 62
     6
100
AcDbLine
 10
184.016587
 20
150.038931
 30
0.0
 11
186.016799
 21
150.038931
 31
0.0
  0
ENDBLK
  5
775
100
AcDbEntity
  8
0
100
AcDbBlockEnd
  0
BLOCK
  5
778
100
AcDbEntity
  8
0
100
AcDbBlockBegin
  2
*B180
 70
     0
 10
0.0
 20
0.0
 30
0.0
  3
*B180
  1

  0
LINE
  5
779
100
AcDbEntity
  8
0
  6
Continuous
 62
     6
100
AcDbLine
 10
273.016688
 20
102.039785
 30
0.0
 11
275.016475
 21
102.039785
 31
0.0
  0
LINE
  5
77A
100
AcDbEntity
  8
0
  6
Continuous
 62
     6
100
AcDbLine
 10
274.016794
 20
101.039679
 30
0.0
 11
274.016794
 21
103.039466
 31
0.0
  0
ENDBLK
  5
77B
100
AcDbEntity
  8
0
100
AcDbBlockEnd
  0
BLOCK
  5
77E
100
AcDbEntity
  8
0
100
AcDbBlockBegin
  2
*B181
 70
     0
 10
0.0
 20
0.0
 30
0.0
  3
*B181
  1

  0
LINE
  5
77F
100
AcDbEntity
  8
0
  6
Continuous
 62
     6
100
AcDbLine
 10
379.516522
 20
161.038824
 30
0.0
 11
379.516522
 21
163.038611
 31
0.0
  0
LINE
  5
780
100
AcDbEntity
  8
0
  6
Continuous
 62
     6
100
AcDbLine
 10
378.516415
 20
162.038505
 30
0.0
 11
380.516628
 21
162.038505
 31
0.0
  0
ENDBLK
  5
781
100
AcDbEntity
  8
0
100
AcDbBlockEnd
  0
BLOCK
  5
784
100
AcDbEntity
  8
0
100
AcDbBlockBegin
  2
*B182
 70
     0
 10
0.0
 20
0.0
 30
0.0
  3
*B182
  1

  0
LINE
  5
785
100
AcDbEntity
  8
0
  6
Continuous
 62
     6
100
AcDbLine
 10
328.516631
 20
319.901673
 30
0.0
 11
328.516631
 21
321.901885
 31
0.0
  0
LINE
  5
786
100
AcDbEntity
  8
0
  6
Continuous
 62
     6
100
AcDbLine
 10
327.516525
 20
320.901779
 30
0.0
 11
329.516737
 21
320.901779
 31
0.0
  0
ENDBLK
  5
787
100
AcDbEntity
  8
0
100
AcDbBlockEnd
  0
BLOCK
  5
78A
100
AcDbEntity
  8
0
100
AcDbBlockBegin
  2
*B183
 70
     0
 10
0.0
 20
0.0
 30
0.0
  3
*B183
  1

  0
LINE
  5
78B
100
AcDbEntity
  8
0
  6
Continuous
 62
     6
100
AcDbLine
 10
290.516846
 20
161.038824
 30
0.0
 11
290.516846
 21
163.038611
 31
0.0
  0
LINE
  5
78C
100
AcDbEntity
  8
0
  6
Continuous
 62
     6
100
AcDbLine
 10
289.51674
 20
162.038505
 30
0.0
 11
291.516527
 21
162.038505
 31
0.0
  0
ENDBLK
  5
78D
100
AcDbEntity
  8
0
100
AcDbBlockEnd
  0
BLOCK
  5
790
100
AcDbEntity
  8
0
100
AcDbBlockBegin
  2
*B184
 70
     0
 10
0.0
 20
0.0
 30
0.0
  3
*B184
  1

  0
LINE
  5
791
100
AcDbEntity
  8
0
  6
Continuous
 62
     6
100
AcDbLine
 10
318.516419
 20
101.039679
 30
0.0
 11
318.516419
 21
103.039466
 31
0.0
  0
LINE
  5
792
100
AcDbEntity
  8
0
  6
Continuous
 62
     6
100
AcDbLine
 10
317.516738
 20
102.039785
 30
0.0
 11
319.516525
 21
102.039785
 31
0.0
  0
ENDBLK
  5
793
100
AcDbEntity
  8
0
100
AcDbBlockEnd
  0
BLOCK
  5
796
100
AcDbEntity
  8
0
100
AcDbBlockBegin
  2
*B185
 70
     0
 10
0.0
 20
0.0
 30
0.0
  3
*B185
  1

  0
LINE
  5
797
100
AcDbEntity
  8
0
  6
Continuous
 62
     6
100
AcDbLine
 10
440.016571
 20
125.039252
 30
0.0
 11
440.016571
 21
127.039039
 31
0.0
  0
LINE
  5
798
100
AcDbEntity
  8
0
  6
Continuous
 62
     6
100
AcDbLine
 10
439.016465
 20
126.039358
 30
0.0
 11
441.016678
 21
126.039358
 31
0.0
  0
ENDBLK
  5
799
100
AcDbEntity
  8
0
100
AcDbBlockEnd
  0
BLOCK
  5
79C
100
AcDbEntity
  8
0
100
AcDbBlockBegin
  2
*B186
 70
     0
 10
0.0
 20
0.0
 30
0.0
  3
*B186
  1

  0
LINE
  5
79D
100
AcDbEntity
  8
0
  6
Continuous
 62
     6
100
AcDbLine
 10
285.016687
 20
113.039253
 30
0.0
 11
285.016687
 21
115.039465
 31
0.0
  0
LINE
  5
79E
100
AcDbEntity
  8
0
  6
Continuous
 62
     6
100
AcDbLine
 10
284.016581
 20
114.039359
 30
0.0
 11
286.016793
 21
114.039359
 31
0.0
  0
ENDBLK
  5
79F
100
AcDbEntity
  8
0
100
AcDbBlockEnd
  0
BLOCK
  5
7A2
100
AcDbEntity
  8
0
100
AcDbBlockBegin
  2
*B187
 70
     0
 10
0.0
 20
0.0
 30
0.0
  3
*B187
  1

  0
LINE
  5
7A3
100
AcDbEntity
  8
0
  6
Continuous
 62
     6
100
AcDbLine
 10
407.51652
 20
125.039252
 30
0.0
 11
407.51652
 21
127.039039
 31
0.0
  0
LINE
  5
7A4
100
AcDbEntity
  8
0
  6
Continuous
 62
     6
100
AcDbLine
 10
406.516414
 20
126.039358
 30
0.0
 11
408.516626
 21
126.039358
 31
0.0
  0
ENDBLK
  5
7A5
100
AcDbEntity
  8
0
100
AcDbBlockEnd
  0
BLOCK
  5
7A8
100
AcDbEntity
  8
0
100
AcDbBlockBegin
  2
*B188
 70
     0
 10
0.0
 20
0.0
 30
0.0
  3
*B188
  1

  0
LINE
  5
7A9
100
AcDbEntity
  8
0
  6
Continuous
 62
     6
100
AcDbLine
 10
240.516636
 20
113.039253
 30
0.0
 11
240.516636
 21
115.039465
 31
0.0
  0
LINE
  5
7AA
100
AcDbEntity
  8
0
  6
Continuous
 62
     6
100
AcDbLine
 10
239.51653
 20
114.039359
 30
0.0
 11
241.516743
 21
114.039359
 31
0.0
  0
ENDBLK
  5
7AB
100
AcDbEntity
  8
0
100
AcDbBlockEnd
  0
BLOCK
  5
7AE
100
AcDbEntity
  8
0
100
AcDbBlockBegin
  2
*B189
 70
     0
 10
0.0
 20
0.0
 30
0.0
  3
*B189
  1

  0
LINE
  5
7AF
100
AcDbEntity
  8
0
  6
Continuous
 62
     6
100
AcDbLine
 10
262.016795
 20
138.038932
 30
0.0
 11
264.016582
 21
138.038932
 31
0.0
  0
LINE
  5
7B0
100
AcDbEntity
  8
0
  6
Continuous
 62
     6
100
AcDbLine
 10
263.016475
 20
137.039251
 30
0.0
 11
263.016475
 21
139.039038
 31
0.0
  0
ENDBLK
  5
7B1
100
AcDbEntity
  8
0
100
AcDbBlockEnd
  0
BLOCK
  5
7B4
100
AcDbEntity
  8
0
100
AcDbBlockBegin
  2
*B190
 70
     0
 10
0.0
 20
0.0
 30
0.0
  3
*B190
  1

  0
TEXT
  5
7B5
100
AcDbEntity
  8
TEXT
  6
Continuous
 62
     0
100
AcDbText
 10
193.53005
 20
298.5
 30
0.0
 40
7.0
  1
2
100
AcDbText
  0
ENDBLK
  5
7B6
100
AcDbEntity
  8
0
100
AcDbBlockEnd
  0
BLOCK
  5
7B9
100
AcDbEntity
  8
0
100
AcDbBlockBegin
  2
*B191
 70
     0
 10
0.0
 20
0.0
 30
0.0
  3
*B191
  1

  0
TEXT
  5
7BA
100
AcDbEntity
  8
TEXT
  6
Continuous
 62
     0
100
AcDbText
 10
237.53005
 20
298.5
 30
0.0
 40
7.0
  1
2
100
AcDbText
  0
ENDBLK
  5
7BB
100
AcDbEntity
  8
0
100
AcDbBlockEnd
  0
BLOCK
  5
7BE
100
AcDbEntity
  8
0
100
AcDbBlockBegin
  2
*B192
 70
     0
 10
0.0
 20
0.0
 30
0.0
  3
*B192
  1

  0
TEXT
  5
7BF
100
AcDbEntity
  8
TEXT
  6
Continuous
 62
     0
100
AcDbText
 10
283.53005
 20
298.5
 30
0.0
 40
7.0
  1
2
100
AcDbText
  0
ENDBLK
  5
7C0
100
AcDbEntity
  8
0
100
AcDbBlockEnd
  0
BLOCK
  5
7C3
100
AcDbEntity
  8
0
100
AcDbBlockBegin
  2
*B193
 70
     0
 10
0.0
 20
0.0
 30
0.0
  3
*B193
  1

  0
TEXT
  5
7C4
100
AcDbEntity
  8
TEXT
  6
Continuous
 62
     0
100
AcDbText
 10
327.53005
 20
298.5
 30
0.0
 40
7.0
  1
2
100
AcDbText
  0
ENDBLK
  5
7C5
100
AcDbEntity
  8
0
100
AcDbBlockEnd
  0
BLOCK
  5
7C8
100
AcDbEntity
  8
0
100
AcDbBlockBegin
  2
*B194
 70
     0
 10
0.0
 20
0.0
 30
0.0
  3
*B194
  1

  0
TEXT
  5
7C9
100
AcDbEntity
  8
TEXT
  6
Continuous
 62
     0
100
AcDbText
 10
373.53005
 20
298.5
 30
0.0
 40
7.0
  1
2
100
AcDbText
  0
ENDBLK
  5
7CA
100
AcDbEntity
  8
0
100
AcDbBlockEnd
  0
BLOCK
  5
7CD
100
AcDbEntity
  8
0
100
AcDbBlockBegin
  2
*B195
 70
     0
 10
0.0
 20
0.0
 30
0.0
  3
*B195
  1

  0
TEXT
  5
7CE
100
AcDbEntity
  8
TEXT
  6
Continuous
 62
     0
100
AcDbText
 10
415.53005
 20
298.5
 30
0.0
 40
7.0
  1
2
100
AcDbText
  0
ENDBLK
  5
7CF
100
AcDbEntity
  8
0
100
AcDbBlockEnd
  0
BLOCK
  5
7D2
100
AcDbEntity
  8
0
100
AcDbBlockBegin
  2
*B196
 70
     0
 10
0.0
 20
0.0
 30
0.0
  3
*B196
  1

  0
TEXT
  5
7D3
100
AcDbEntity
  8
TEXT
  6
Continuous
 62
     0
100
AcDbText
 10
395.53005
 20
308.5
 30
0.0
 40
7.0
  1
4
100
AcDbText
  0
ENDBLK
  5
7D4
100
AcDbEntity
  8
0
100
AcDbBlockEnd
  0
BLOCK
  5
7D7
100
AcDbEntity
  8
0
100
AcDbBlockBegin
  2
*B197
 70
     0
 10
0.0
 20
0.0
 30
0.0
  3
*B197
  1

  0
TEXT
  5
7D8
100
AcDbEntity
  8
TEXT
  6
Continuous
 62
     0
100
AcDbText
 10
349.53005
 20
308.5
 30
0.0
 40
7.0
  1
4
100
AcDbText
  0
ENDBLK
  5
7D9
100
AcDbEntity
  8
0
100
AcDbBlockEnd
  0
BLOCK
  5
7DC
100
AcDbEntity
  8
0
100
AcDbBlockBegin
  2
*B198
 70
     0
 10
0.0
 20
0.0
 30
0.0
  3
*B198
  1

  0
TEXT
  5
7DD
100
AcDbEntity
  8
TEXT
  6
Continuous
 62
     0
100
AcDbText
 10
305.53005
 20
308.5
 30
0.0
 40
7.0
  1
4
100
AcDbText
  0
ENDBLK
  5
7DE
100
AcDbEntity
  8
0
100
AcDbBlockEnd
  0
BLOCK
  5
7E1
100
AcDbEntity
  8
0
100
AcDbBlockBegin
  2
*B199
 70
     0
 10
0.0
 20
0.0
 30
0.0
  3
*B199
  1

  0
TEXT
  5
7E2
100
AcDbEntity
  8
TEXT
  6
Continuous
 62
     0
100
AcDbText
 10
261.53005
 20
308.5
 30
0.0
 40
7.0
  1
4
100
AcDbText
  0
ENDBLK
  5
7E3
100
AcDbEntity
  8
0
100
AcDbBlockEnd
  0
BLOCK
  5
7E6
100
AcDbEntity
  8
0
100
AcDbBlockBegin
  2
*B200
 70
     0
 10
0.0
 20
0.0
 30
0.0
  3
*B200
  1

  0
TEXT
  5
7E7
100
AcDbEntity
  8
TEXT
  6
Continuous
 62
     0
100
AcDbText
 10
217.53005
 20
308.5
 30
0.0
 40
7.0
  1
4
100
AcDbText
  0
ENDBLK
  5
7E8
100
AcDbEntity
  8
0
100
AcDbBlockEnd
  0
BLOCK
  5
7EB
100
AcDbEntity
  8
0
100
AcDbBlockBegin
  2
*B201
 70
     0
 10
0.0
 20
0.0
 30
0.0
  3
*B201
  1

  0
TEXT
  5
7EC
100
AcDbEntity
  8
TEXT
  6
Continuous
 62
     0
100
AcDbText
 10
173.53005
 20
308.5
 30
0.0
 40
7.0
  1
4
100
AcDbText
  0
ENDBLK
  5
7ED
100
AcDbEntity
  8
0
100
AcDbBlockEnd
  0
BLOCK
  5
7F0
100
AcDbEntity
  8
0
100
AcDbBlockBegin
  2
*B202
 70
     0
 10
0.0
 20
0.0
 30
0.0
  3
*B202
  1

  0
TEXT
  5
7F1
100
AcDbEntity
  8
TEXT
  6
Continuous
 62
     0
100
AcDbText
 10
147.53005
 20
122.5
 30
0.0
 40
7.0
  1
1
100
AcDbText
  0
ENDBLK
  5
7F2
100
AcDbEntity
  8
0
100
AcDbBlockEnd
  0
BLOCK
  5
7F5
100
AcDbEntity
  8
0
100
AcDbBlockBegin
  2
*B203
 70
     0
 10
0.0
 20
0.0
 30
0.0
  3
*B203
  1

  0
TEXT
  5
7F6
100
AcDbEntity
  8
TEXT
  6
Continuous
 62
     0
100
AcDbText
 10
439.53005
 20
98.5
 30
0.0
 40
7.0
  1
3
100
AcDbText
  0
ENDBLK
  5
7F7
100
AcDbEntity
  8
0
100
AcDbBlockEnd
  0
BLOCK
  5
7FA
100
AcDbEntity
  8
0
100
AcDbBlockBegin
  2
*B204
 70
     0
 10
0.0
 20
0.0
 30
0.0
  3
*B204
  1

  0
TEXT
  5
7FB
100
AcDbEntity
  8
TEXT
  6
Continuous
 62
     0
100
AcDbText
 10
439.53005
 20
146.5
 30
0.0
 40
7.0
  1
5
100
AcDbText
  0
ENDBLK
  5
7FC
100
AcDbEntity
  8
0
100
AcDbBlockEnd
  0
BLOCK
  5
7FF
100
AcDbEntity
  8
0
100
AcDbBlockBegin
  2
*B205
 70
     0
 10
0.0
 20
0.0
 30
0.0
  3
*B205
  1

  0
TEXT
  5
800
100
AcDbEntity
  8
TEXT
  6
Continuous
 62
     0
100
AcDbText
 10
100.595011
 20
303.57338
 30
0.0
 40
3.5
  1
30
 50
90.0
100
AcDbText
  0
ENDBLK
  5
801
100
AcDbEntity
  8
0
100
AcDbBlockEnd
  0
BLOCK
  5
804
100
AcDbEntity
  8
0
100
AcDbBlockBegin
  2
*B206
 70
     0
 10
0.0
 20
0.0
 30
0.0
  3
*B206
  1

  0
TEXT
  5
805
100
AcDbEntity
  8
TEXT
  6
Continuous
 62
     0
100
AcDbText
 10
100.595011
 20
355.57338
 30
0.0
 40
3.5
  1
22
 50
90.0
100
AcDbText
  0
ENDBLK
  5
806
100
AcDbEntity
  8
0
100
AcDbBlockEnd
  0
BLOCK
  5
809
100
AcDbEntity
  8
0
100
AcDbBlockBegin
  2
*B207
 70
     0
 10
0.0
 20
0.0
 30
0.0
  3
*B207
  1

  0
TEXT
  5
80A
100
AcDbEntity
  8
TEXT
  6
Continuous
 62
     0
100
AcDbText
 10
120.25
 20
303.57338
 30
0.0
 40
3.5
  1
14
 50
90.0
100
AcDbText
  0
ENDBLK
  5
80B
100
AcDbEntity
  8
0
100
AcDbBlockEnd
  0
BLOCK
  5
80E
100
AcDbEntity
  8
0
100
AcDbBlockBegin
  2
*B208
 70
     0
 10
0.0
 20
0.0
 30
0.0
  3
*B208
  1

  0
TEXT
  5
80F
100
AcDbEntity
  8
TEXT
  6
Continuous
 62
     0
100
AcDbText
 10
120.25
 20
283.240047
 30
0.0
 40
3.5
  1
8
 50
90.0
100
AcDbText
  0
ENDBLK
  5
810
100
AcDbEntity
  8
0
100
AcDbBlockEnd
  0
BLOCK
  5
813
100
AcDbEntity
  8
0
100
AcDbBlockBegin
  2
*B209
 70
     0
 10
0.0
 20
0.0
 30
0.0
  3
*B209
  1

  0
TEXT
  5
814
100
AcDbEntity
  8
TEXT
  6
Continuous
 62
     0
100
AcDbText
 10
181.64699
 20
261.222655
 30
0.0
 40
3.5
  1
10
100
AcDbText
  0
ENDBLK
  5
815
100
AcDbEntity
  8
0
100
AcDbBlockEnd
  0
BLOCK
  5
818
100
AcDbEntity
  8
0
100
AcDbBlockBegin
  2
*B210
 70
     0
 10
0.0
 20
0.0
 30
0.0
  3
*B210
  1

  0
TEXT
  5
819
100
AcDbEntity
  8
TEXT
  6
Continuous
 62
     0
100
AcDbText
 10
326.761678
 20
261.222655
 30
0.0
 40
3.5
  1
G 1/8"
100
AcDbText
  0
ENDBLK
  5
81A
100
AcDbEntity
  8
0
100
AcDbBlockEnd
  0
BLOCK
  5
81D
100
AcDbEntity
  8
0
100
AcDbBlockBegin
  2
*B211
 70
     0
 10
0.0
 20
0.0
 30
0.0
  3
*B211
  1

  0
TEXT
  5
81E
100
AcDbEntity
  8
TEXT
  6
Continuous
 62
     0
100
AcDbText
 10
149.994611
 20
237.222655
 30
0.0
 40
3.5
  1
17,25
100
AcDbText
  0
ENDBLK
  5
81F
100
AcDbEntity
  8
0
100
AcDbBlockEnd
  0
BLOCK
  5
822
100
AcDbEntity
  8
0
100
AcDbBlockBegin
  2
*B212
 70
     0
 10
0.0
 20
0.0
 30
0.0
  3
*B212
  1

  0
TEXT
  5
823
100
AcDbEntity
  8
TEXT
  6
Continuous
 62
     0
100
AcDbText
 10
189.730323
 20
237.222655
 30
0.0
 40
3.5
  1
22,25
100
AcDbText
  0
ENDBLK
  5
824
100
AcDbEntity
  8
0
100
AcDbBlockEnd
  0
BLOCK
  5
827
100
AcDbEntity
  8
0
100
AcDbBlockBegin
  2
*B213
 70
     0
 10
0.0
 20
0.0
 30
0.0
  3
*B213
  1

  0
TEXT
  5
828
100
AcDbEntity
  8
TEXT
  6
Continuous
 62
     0
100
AcDbText
 10
234.230323
 20
237.222655
 30
0.0
 40
3.5
  1
22,25
100
AcDbText
  0
ENDBLK
  5
829
100
AcDbEntity
  8
0
100
AcDbBlockEnd
  0
BLOCK
  5
82C
100
AcDbEntity
  8
0
100
AcDbBlockBegin
  2
*B214
 70
     0
 10
0.0
 20
0.0
 30
0.0
  3
*B214
  1

  0
TEXT
  5
82D
100
AcDbEntity
  8
TEXT
  6
Continuous
 62
     0
100
AcDbText
 10
278.730323
 20
237.222655
 30
0.0
 40
3.5
  1
22,25
100
AcDbText
  0
ENDBLK
  5
82E
100
AcDbEntity
  8
0
100
AcDbBlockEnd
  0
BLOCK
  5
831
100
AcDbEntity
  8
0
100
AcDbBlockBegin
  2
*B215
 70
     0
 10
0.0
 20
0.0
 30
0.0
  3
*B215
  1

  0
TEXT
  5
832
100
AcDbEntity
  8
TEXT
  6
Continuous
 62
     0
100
AcDbText
 10
323.230323
 20
237.222655
 30
0.0
 40
3.5
  1
22,25
100
AcDbText
  0
ENDBLK
  5
833
100
AcDbEntity
  8
0
100
AcDbBlockEnd
  0
BLOCK
  5
836
100
AcDbEntity
  8
0
100
AcDbBlockBegin
  2
*B216
 70
     0
 10
0.0
 20
0.0
 30
0.0
  3
*B216
  1

  0
TEXT
  5
837
100
AcDbEntity
  8
TEXT
  6
Continuous
 62
     0
100
AcDbText
 10
367.730323
 20
237.222655
 30
0.0
 40
3.5
  1
22,25
100
AcDbText
  0
ENDBLK
  5
838
100
AcDbEntity
  8
0
100
AcDbBlockEnd
  0
BLOCK
  5
83B
100
AcDbEntity
  8
0
100
AcDbBlockBegin
  2
*B217
 70
     0
 10
0.0
 20
0.0
 30
0.0
  3
*B217
  1

  0
TEXT
  5
83C
100
AcDbEntity
  8
TEXT
  6
Continuous
 62
     0
100
AcDbText
 10
417.230323
 20
237.222655
 30
0.0
 40
3.5
  1
27,25
100
AcDbText
  0
ENDBLK
  5
83D
100
AcDbEntity
  8
0
100
AcDbBlockEnd
  0
BLOCK
  5
840
100
AcDbEntity
  8
0
100
AcDbBlockBegin
  2
*B218
 70
     0
 10
0.0
 20
0.0
 30
0.0
  3
*B218
  1

  0
TEXT
  5
841
100
AcDbEntity
  8
TEXT
  6
Continuous
 62
     0
100
AcDbText
 10
144.813656
 20
60.88229
 30
0.0
 40
3.5
  1
6
100
AcDbText
  0
ENDBLK
  5
842
100
AcDbEntity
  8
0
100
AcDbBlockEnd
  0
BLOCK
  5
845
100
AcDbEntity
  8
0
100
AcDbBlockBegin
  2
*B219
 70
     0
 10
0.0
 20
0.0
 30
0.0
  3
*B219
  1

  0
TEXT
  5
846
100
AcDbEntity
  8
TEXT
  6
Continuous
 62
     0
100
AcDbText
 10
465.807184
 20
122.70777
 30
0.0
 40
3.5
  1
24
 50
90.0
100
AcDbText
  0
ENDBLK
  5
847
100
AcDbEntity
  8
0
100
AcDbBlockEnd
  0
BLOCK
  5
84A
100
AcDbEntity
  8
0
100
AcDbBlockBegin
  2
*B220
 70
     0
 10
0.0
 20
0.0
 30
0.0
  3
*B220
  1

  0
TEXT
  5
84B
100
AcDbEntity
  8
TEXT
  6
Continuous
 62
     0
100
AcDbText
 10
422.230323
 20
203.051405
 30
0.0
 40
3.5
  1
22,25
100
AcDbText
  0
ENDBLK
  5
84C
100
AcDbEntity
  8
0
100
AcDbBlockEnd
  0
BLOCK
  5
84F
100
AcDbEntity
  8
0
100
AcDbBlockBegin
  2
*B221
 70
     0
 10
0.0
 20
0.0
 30
0.0
  3
*B221
  1

  0
TEXT
  5
850
100
AcDbEntity
  8
TEXT
  6
Continuous
 62
     0
100
AcDbText
 10
288.730323
 20
203.051405
 30
0.0
 40
3.5
  1
22,25
100
AcDbText
  0
ENDBLK
  5
851
100
AcDbEntity
  8
0
100
AcDbBlockEnd
  0
BLOCK
  5
854
100
AcDbEntity
  8
0
100
AcDbBlockBegin
  2
*B222
 70
     0
 10
0.0
 20
0.0
 30
0.0
  3
*B222
  1

  0
TEXT
  5
855
100
AcDbEntity
  8
TEXT
  6
Continuous
 62
     0
100
AcDbText
 10
199.730323
 20
203.051405
 30
0.0
 40
3.5
  1
22,25
100
AcDbText
  0
ENDBLK
  5
856
100
AcDbEntity
  8
0
100
AcDbBlockEnd
  0
BLOCK
  5
859
100
AcDbEntity
  8
0
100
AcDbBlockBegin
  2
*B223
 70
     0
 10
0.0
 20
0.0
 30
0.0
  3
*B223
  1

  0
TEXT
  5
85A
100
AcDbEntity
  8
TEXT
  6
Continuous
 62
     0
100
AcDbText
 10
481.807184
 20
122.70777
 30
0.0
 40
3.5
  1
36
 50
90.0
100
AcDbText
  0
ENDBLK
  5
85B
100
AcDbEntity
  8
0
100
AcDbBlockEnd
  0
BLOCK
  5
85E
100
AcDbEntity
  8
0
100
AcDbBlockBegin
  2
*B224
 70
     0
 10
0.0
 20
0.0
 30
0.0
  3
*B224
  1

  0
TEXT
  5
85F
100
AcDbEntity
  8
TEXT
  6
Continuous
 62
     0
100
AcDbText
 10
223.64699
 20
60.88229
 30
0.0
 40
3.5
  1
16,5
100
AcDbText
  0
ENDBLK
  5
860
100
AcDbEntity
  8
0
100
AcDbBlockEnd
  0
BLOCK
  5
863
100
AcDbEntity
  8
0
100
AcDbBlockBegin
  2
*B225
 70
     0
 10
0.0
 20
0.0
 30
0.0
  3
*B225
  1

  0
TEXT
  5
864
100
AcDbEntity
  8
TEXT
  6
Continuous
 62
     0
100
AcDbText
 10
333.230323
 20
203.051405
 30
0.0
 40
3.5
  1
22,25
100
AcDbText
  0
ENDBLK
  5
865
100
AcDbEntity
  8
0
100
AcDbBlockEnd
  0
BLOCK
  5
868
100
AcDbEntity
  8
0
100
AcDbBlockBegin
  2
*B226
 70
     0
 10
0.0
 20
0.0
 30
0.0
  3
*B226
  1

  0
TEXT
  5
869
100
AcDbEntity
  8
TEXT
  6
Continuous
 62
     0
100
AcDbText
 10
295.390517
 20
60.88229
 30
0.0
 40
3.5
  1
5,5
100
AcDbText
  0
ENDBLK
  5
86A
100
AcDbEntity
  8
0
100
AcDbBlockEnd
  0
BLOCK
  5
86D
100
AcDbEntity
  8
0
100
AcDbBlockBegin
  2
*B227
 70
     0
 10
0.0
 20
0.0
 30
0.0
  3
*B227
  1

  0
TEXT
  5
86E
100
AcDbEntity
  8
TEXT
  6
Continuous
 62
     0
100
AcDbText
 10
155.230323
 20
203.051405
 30
0.0
 40
3.5
  1
22,25
100
AcDbText
  0
ENDBLK
  5
86F
100
AcDbEntity
  8
0
100
AcDbBlockEnd
  0
BLOCK
  5
872
100
AcDbEntity
  8
0
100
AcDbBlockBegin
  2
*B228
 70
     0
 10
0.0
 20
0.0
 30
0.0
  3
*B228
  1

  0
TEXT
  5
873
100
AcDbEntity
  8
TEXT
  6
Continuous
 62
     0
100
AcDbText
 10
444.313656
 20
60.96369
 30
0.0
 40
3.5
  1
6
100
AcDbText
  0
ENDBLK
  5
874
100
AcDbEntity
  8
0
100
AcDbBlockEnd
  0
BLOCK
  5
877
100
AcDbEntity
  8
0
100
AcDbBlockBegin
  2
*B229
 70
     0
 10
0.0
 20
0.0
 30
0.0
  3
*B229
  1

  0
TEXT
  5
878
100
AcDbEntity
  8
TEXT
  6
Continuous
 62
     0
100
AcDbText
 10
126.25
 20
147.630357
 30
0.0
 40
3.5
  1
G 1/4"
 50
90.0
100
AcDbText
  0
ENDBLK
  5
879
100
AcDbEntity
  8
0
100
AcDbBlockEnd
  0
BLOCK
  5
87C
100
AcDbEntity
  8
0
100
AcDbBlockBegin
  2
*B230
 70
     0
 10
0.0
 20
0.0
 30
0.0
  3
*B230
  1

  0
TEXT
  5
87D
100
AcDbEntity
  8
TEXT
  6
Continuous
 62
     0
100
AcDbText
 10
102.25
 20
122.70777
 30
0.0
 40
3.5
  1
50
 50
90.0
100
AcDbText
  0
ENDBLK
  5
87E
100
AcDbEntity
  8
0
100
AcDbBlockEnd
  0
BLOCK
  5
881
100
AcDbEntity
  8
0
100
AcDbBlockBegin
  2
*B231
 70
     0
 10
0.0
 20
0.0
 30
0.0
  3
*B231
  1

  0
TEXT
  5
882
100
AcDbEntity
  8
TEXT
  6
Continuous
 62
     0
100
AcDbText
 10
377.730323
 20
203.051405
 30
0.0
 40
3.5
  1
22,25
100
AcDbText
  0
ENDBLK
  5
883
100
AcDbEntity
  8
0
100
AcDbBlockEnd
  0
BLOCK
  5
886
100
AcDbEntity
  8
0
100
AcDbBlockBegin
  2
*B232
 70
     0
 10
0.0
 20
0.0
 30
0.0
  3
*B232
  1

  0
TEXT
  5
887
100
AcDbEntity
  8
TEXT
  6
Continuous
 62
     0
100
AcDbText
 10
402.557184
 20
60.88229
 30
0.0
 40
3.5
  1
M 3
100
AcDbText
  0
ENDBLK
  5
888
100
AcDbEntity
  8
0
100
AcDbBlockEnd
  0
BLOCK
  5
88B
100
AcDbEntity
  8
0
100
AcDbBlockBegin
  2
*B233
 70
     0
 10
0.0
 20
0.0
 30
0.0
  3
*B233
  1

  0
TEXT
  5
88C
100
AcDbEntity
  8
TEXT
  6
Continuous
 62
     0
100
AcDbText
 10
352.174127
 20
60.88229
 30
0.0
 40
3.5
  1
%%c4
100
AcDbText
  0
ENDBLK
  5
88D
100
AcDbEntity
  8
0
100
AcDbBlockEnd
  0
BLOCK
  5
890
100
AcDbEntity
  8
0
100
AcDbBlockBegin
  2
*B234
 70
     0
 10
0.0
 20
0.0
 30
0.0
  3
*B234
  1

  0
TEXT
  5
891
100
AcDbEntity
  8
TEXT
  6
Continuous
 62
     0
100
AcDbText
 10
413.383333
 20
261.75
 30
0.0
 40
3.5
  1
%%c4,5
100
AcDbText
  0
ENDBLK
  5
892
100
AcDbEntity
  8
0
100
AcDbBlockEnd
  0
BLOCK
  5
895
100
AcDbEntity
  8
0
100
AcDbBlockBegin
  2
*B235
 70
     0
 10
0.0
 20
0.0
 30
0.0
  3
*B235
  1

  0
TEXT
  5
896
100
AcDbEntity
  8
TEXT
  6
Continuous
 62
     0
100
AcDbText
 10
244.230323
 20
203.051405
 30
0.0
 40
3.5
  1
22,25
100
AcDbText
  0
ENDBLK
  5
897
100
AcDbEntity
  8
0
100
AcDbBlockEnd
  0
BLOCK
  5
89A
100
AcDbEntity
  8
0
100
AcDbBlockBegin
  2
*B236
 70
     0
 10
0.0
 20
0.0
 30
0.0
  3
*B236
  1

  0
TEXT
  5
89B
100
AcDbEntity
  8
TEXT
  6
Continuous
 62
     0
100
AcDbText
 10
342.540793
 20
122.70777
 30
0.0
 40
3.5
  1
12
 50
90.0
100
AcDbText
  0
ENDBLK
  5
89C
100
AcDbEntity
  8
0
100
AcDbBlockEnd
  0
ENDSEC
  0
SECTION
  2
ENTITIES
  0
INSERT
  5
D9
100
AcDbEntity
  8
0
  6
Continuous
 62
   174
100
AcDbBlockReference
  2
*B1
 10
0.0
 20
0.0
 30
0.0
  0
INSERT
  5
179
100
AcDbEntity
  8
0
  6
HIDDEN
 62
   174
100
AcDbBlockReference
  2
*B2
 10
0.0
 20
0.0
 30
0.0
  0
INSERT
  5
190
100
AcDbEntity
  8
0
  6
DOTTED
 62
   152
100
AcDbBlockReference
  2
*B3
 10
0.0
 20
0.0
 30
0.0
  0
INSERT
  5
197
100
AcDbEntity
  8
0
  6
Continuous
 62
     0
100
AcDbBlockReference
  2
*B4
 10
0.0
 20
0.0
 30
0.0
  0
INSERT
  5
19E
100
AcDbEntity
  8
0
  6
Continuous
 62
     0
100
AcDbBlockReference
  2
*B5
 10
0.0
 20
0.0
 30
0.0
  0
INSERT
  5
1A5
100
AcDbEntity
  8
0
  6
Continuous
 62
     0
100
AcDbBlockReference
  2
*B6
 10
0.0
 20
0.0
 30
0.0
  0
INSERT
  5
1AC
100
AcDbEntity
  8
0
  6
Continuous
 62
     0
100
AcDbBlockReference
  2
*B7
 10
0.0
 20
0.0
 30
0.0
  0
INSERT
  5
1B3
100
AcDbEntity
  8
0
  6
Continuous
 62
     0
100
AcDbBlockReference
  2
*B8
 10
0.0
 20
0.0
 30
0.0
  0
INSERT
  5
1BA
100
AcDbEntity
  8
0
  6
Continuous
 62
     0
100
AcDbBlockReference
  2
*B9
 10
0.0
 20
0.0
 30
0.0
  0
INSERT
  5
1C1
100
AcDbEntity
  8
0
  6
Continuous
 62
     0
100
AcDbBlockReference
  2
*B10
 10
0.0
 20
0.0
 30
0.0
  0
INSERT
  5
1C8
100
AcDbEntity
  8
0
  6
Continuous
 62
     0
100
AcDbBlockReference
  2
*B11
 10
0.0
 20
0.0
 30
0.0
  0
INSERT
  5
1CF
100
AcDbEntity
  8
0
  6
Continuous
 62
     0
100
AcDbBlockReference
  2
*B12
 10
0.0
 20
0.0
 30
0.0
  0
INSERT
  5
1D6
100
AcDbEntity
  8
0
  6
Continuous
 62
     0
100
AcDbBlockReference
  2
*B13
 10
0.0
 20
0.0
 30
0.0
  0
INSERT
  5
1DD
100
AcDbEntity
  8
0
  6
Continuous
 62
     0
100
AcDbBlockReference
  2
*B14
 10
0.0
 20
0.0
 30
0.0
  0
INSERT
  5
1E4
100
AcDbEntity
  8
0
  6
Continuous
 62
     0
100
AcDbBlockReference
  2
*B15
 10
0.0
 20
0.0
 30
0.0
  0
INSERT
  5
1EB
100
AcDbEntity
  8
0
  6
Continuous
 62
     0
100
AcDbBlockReference
  2
*B16
 10
0.0
 20
0.0
 30
0.0
  0
INSERT
  5
1F2
100
AcDbEntity
  8
0
  6
Continuous
 62
     0
100
AcDbBlockReference
  2
*B17
 10
0.0
 20
0.0
 30
0.0
  0
INSERT
  5
1F9
100
AcDbEntity
  8
0
  6
Continuous
 62
     0
100
AcDbBlockReference
  2
*B18
 10
0.0
 20
0.0
 30
0.0
  0
INSERT
  5
200
100
AcDbEntity
  8
0
  6
Continuous
 62
     0
100
AcDbBlockReference
  2
*B19
 10
0.0
 20
0.0
 30
0.0
  0
INSERT
  5
207
100
AcDbEntity
  8
0
  6
Continuous
 62
     0
100
AcDbBlockReference
  2
*B20
 10
0.0
 20
0.0
 30
0.0
  0
INSERT
  5
20E
100
AcDbEntity
  8
0
  6
Continuous
 62
     0
100
AcDbBlockReference
  2
*B21
 10
0.0
 20
0.0
 30
0.0
  0
INSERT
  5
215
100
AcDbEntity
  8
0
  6
Continuous
 62
     0
100
AcDbBlockReference
  2
*B22
 10
0.0
 20
0.0
 30
0.0
  0
INSERT
  5
21C
100
AcDbEntity
  8
0
  6
Continuous
 62
     0
100
AcDbBlockReference
  2
*B23
 10
0.0
 20
0.0
 30
0.0
  0
INSERT
  5
223
100
AcDbEntity
  8
0
  6
Continuous
 62
     0
100
AcDbBlockReference
  2
*B24
 10
0.0
 20
0.0
 30
0.0
  0
INSERT
  5
22A
100
AcDbEntity
  8
0
  6
Continuous
 62
     0
100
AcDbBlockReference
  2
*B25
 10
0.0
 20
0.0
 30
0.0
  0
INSERT
  5
231
100
AcDbEntity
  8
0
  6
Continuous
 62
     0
100
AcDbBlockReference
  2
*B26
 10
0.0
 20
0.0
 30
0.0
  0
INSERT
  5
238
100
AcDbEntity
  8
0
  6
Continuous
 62
     0
100
AcDbBlockReference
  2
*B27
 10
0.0
 20
0.0
 30
0.0
  0
INSERT
  5
23F
100
AcDbEntity
  8
0
  6
Continuous
 62
     0
100
AcDbBlockReference
  2
*B28
 10
0.0
 20
0.0
 30
0.0
  0
INSERT
  5
246
100
AcDbEntity
  8
0
  6
Continuous
 62
     0
100
AcDbBlockReference
  2
*B29
 10
0.0
 20
0.0
 30
0.0
  0
INSERT
  5
24D
100
AcDbEntity
  8
0
  6
Continuous
 62
     0
100
AcDbBlockReference
  2
*B30
 10
0.0
 20
0.0
 30
0.0
  0
INSERT
  5
254
100
AcDbEntity
  8
0
  6
Continuous
 62
     0
100
AcDbBlockReference
  2
*B31
 10
0.0
 20
0.0
 30
0.0
  0
INSERT
  5
25B
100
AcDbEntity
  8
0
  6
Continuous
 62
     0
100
AcDbBlockReference
  2
*B32
 10
0.0
 20
0.0
 30
0.0
  0
INSERT
  5
262
100
AcDbEntity
  8
0
  6
Continuous
 62
     0
100
AcDbBlockReference
  2
*B33
 10
0.0
 20
0.0
 30
0.0
  0
INSERT
  5
269
100
AcDbEntity
  8
0
  6
Continuous
 62
     0
100
AcDbBlockReference
  2
*B34
 10
0.0
 20
0.0
 30
0.0
  0
INSERT
  5
270
100
AcDbEntity
  8
0
  6
Continuous
 62
     0
100
AcDbBlockReference
  2
*B35
 10
0.0
 20
0.0
 30
0.0
  0
INSERT
  5
276
100
AcDbEntity
  8
0
  6
Continuous
 62
     8
100
AcDbBlockReference
  2
*B36
 10
0.0
 20
0.0
 30
0.0
  0
INSERT
  5
27C
100
AcDbEntity
  8
0
  6
Continuous
 62
     8
100
AcDbBlockReference
  2
*B37
 10
0.0
 20
0.0
 30
0.0
  0
INSERT
  5
282
100
AcDbEntity
  8
0
  6
Continuous
 62
     8
100
AcDbBlockReference
  2
*B38
 10
0.0
 20
0.0
 30
0.0
  0
INSERT
  5
287
100
AcDbEntity
  8
0
  6
Continuous
 62
     8
100
AcDbBlockReference
  2
*B39
 10
0.0
 20
0.0
 30
0.0
  0
INSERT
  5
294
100
AcDbEntity
  8
0
  6
Continuous
 62
     8
100
AcDbBlockReference
  2
*B40
 10
0.0
 20
0.0
 30
0.0
  0
INSERT
  5
2BA
100
AcDbEntity
  8
0
  6
Continuous
 62
     8
100
AcDbBlockReference
  2
*B41
 10
0.0
 20
0.0
 30
0.0
  0
INSERT
  5
2C0
100
AcDbEntity
  8
0
  6
Continuous
 62
     8
100
AcDbBlockReference
  2
*B42
 10
0.0
 20
0.0
 30
0.0
  0
INSERT
  5
2C6
100
AcDbEntity
  8
0
  6
Continuous
 62
     8
100
AcDbBlockReference
  2
*B43
 10
0.0
 20
0.0
 30
0.0
  0
INSERT
  5
2D3
100
AcDbEntity
  8
0
  6
Continuous
 62
     8
100
AcDbBlockReference
  2
*B44
 10
0.0
 20
0.0
 30
0.0
  0
INSERT
  5
2D9
100
AcDbEntity
  8
0
  6
Continuous
 62
     8
100
AcDbBlockReference
  2
*B45
 10
0.0
 20
0.0
 30
0.0
  0
INSERT
  5
2DF
100
AcDbEntity
  8
0
  6
Continuous
 62
     8
100
AcDbBlockReference
  2
*B46
 10
0.0
 20
0.0
 30
0.0
  0
INSERT
  5
2E5
100
AcDbEntity
  8
0
  6
Continuous
 62
     8
100
AcDbBlockReference
  2
*B47
 10
0.0
 20
0.0
 30
0.0
  0
INSERT
  5
304
100
AcDbEntity
  8
0
  6
Continuous
 62
     8
100
AcDbBlockReference
  2
*B48
 10
0.0
 20
0.0
 30
0.0
  0
INSERT
  5
313
100
AcDbEntity
  8
0
  6
Continuous
 62
     8
100
AcDbBlockReference
  2
*B49
 10
0.0
 20
0.0
 30
0.0
  0
INSERT
  5
319
100
AcDbEntity
  8
0
  6
Continuous
 62
     8
100
AcDbBlockReference
  2
*B50
 10
0.0
 20
0.0
 30
0.0
  0
INSERT
  5
326
100
AcDbEntity
  8
0
  6
Continuous
 62
     8
100
AcDbBlockReference
  2
*B51
 10
0.0
 20
0.0
 30
0.0
  0
INSERT
  5
32B
100
AcDbEntity
  8
0
  6
Continuous
 62
     8
100
AcDbBlockReference
  2
*B52
 10
0.0
 20
0.0
 30
0.0
  0
INSERT
  5
336
100
AcDbEntity
  8
0
  6
Continuous
 62
     8
100
AcDbBlockReference
  2
*B53
 10
0.0
 20
0.0
 30
0.0
  0
INSERT
  5
33B
100
AcDbEntity
  8
0
  6
Continuous
 62
     8
100
AcDbBlockReference
  2
*B54
 10
0.0
 20
0.0
 30
0.0
  0
INSERT
  5
341
100
AcDbEntity
  8
0
  6
Continuous
 62
     8
100
AcDbBlockReference
  2
*B55
 10
0.0
 20
0.0
 30
0.0
  0
INSERT
  5
346
100
AcDbEntity
  8
0
  6
Continuous
 62
     8
100
AcDbBlockReference
  2
*B56
 10
0.0
 20
0.0
 30
0.0
  0
INSERT
  5
34B
100
AcDbEntity
  8
0
  6
Continuous
 62
     8
100
AcDbBlockReference
  2
*B57
 10
0.0
 20
0.0
 30
0.0
  0
INSERT
  5
351
100
AcDbEntity
  8
0
  6
Continuous
 62
     8
100
AcDbBlockReference
  2
*B58
 10
0.0
 20
0.0
 30
0.0
  0
INSERT
  5
357
100
AcDbEntity
  8
0
  6
Continuous
 62
     8
100
AcDbBlockReference
  2
*B59
 10
0.0
 20
0.0
 30
0.0
  0
INSERT
  5
362
100
AcDbEntity
  8
0
  6
Continuous
 62
     8
100
AcDbBlockReference
  2
*B60
 10
0.0
 20
0.0
 30
0.0
  0
INSERT
  5
368
100
AcDbEntity
  8
0
  6
Continuous
 62
     8
100
AcDbBlockReference
  2
*B61
 10
0.0
 20
0.0
 30
0.0
  0
INSERT
  5
375
100
AcDbEntity
  8
0
  6
Continuous
 62
     8
100
AcDbBlockReference
  2
*B62
 10
0.0
 20
0.0
 30
0.0
  0
INSERT
  5
380
100
AcDbEntity
  8
0
  6
Continuous
 62
     8
100
AcDbBlockReference
  2
*B63
 10
0.0
 20
0.0
 30
0.0
  0
INSERT
  5
386
100
AcDbEntity
  8
0
  6
Continuous
 62
     8
100
AcDbBlockReference
  2
*B64
 10
0.0
 20
0.0
 30
0.0
  0
INSERT
  5
3AC
100
AcDbEntity
  8
0
  6
Continuous
 62
     8
100
AcDbBlockReference
  2
*B65
 10
0.0
 20
0.0
 30
0.0
  0
INSERT
  5
3B1
100
AcDbEntity
  8
0
  6
Continuous
 62
     8
100
AcDbBlockReference
  2
*B66
 10
0.0
 20
0.0
 30
0.0
  0
INSERT
  5
3B6
100
AcDbEntity
  8
0
  6
Continuous
 62
     8
100
AcDbBlockReference
  2
*B67
 10
0.0
 20
0.0
 30
0.0
  0
INSERT
  5
3BC
100
AcDbEntity
  8
0
  6
Continuous
 62
     8
100
AcDbBlockReference
  2
*B68
 10
0.0
 20
0.0
 30
0.0
  0
INSERT
  5
3D0
100
AcDbEntity
  8
0
  6
Continuous
 62
     8
100
AcDbBlockReference
  2
*B69
 10
0.0
 20
0.0
 30
0.0
  0
INSERT
  5
3D6
100
AcDbEntity
  8
0
  6
Continuous
 62
     8
100
AcDbBlockReference
  2
*B70
 10
0.0
 20
0.0
 30
0.0
  0
INSERT
  5
3DB
100
AcDbEntity
  8
0
  6
Continuous
 62
     8
100
AcDbBlockReference
  2
*B71
 10
0.0
 20
0.0
 30
0.0
  0
INSERT
  5
3E1
100
AcDbEntity
  8
0
  6
Continuous
 62
     8
100
AcDbBlockReference
  2
*B72
 10
0.0
 20
0.0
 30
0.0
  0
INSERT
  5
3E7
100
AcDbEntity
  8
0
  6
Continuous
 62
     8
100
AcDbBlockReference
  2
*B73
 10
0.0
 20
0.0
 30
0.0
  0
INSERT
  5
3ED
100
AcDbEntity
  8
0
  6
Continuous
 62
     8
100
AcDbBlockReference
  2
*B74
 10
0.0
 20
0.0
 30
0.0
  0
INSERT
  5
3F3
100
AcDbEntity
  8
0
  6
Continuous
 62
     8
100
AcDbBlockReference
  2
*B75
 10
0.0
 20
0.0
 30
0.0
  0
INSERT
  5
400
100
AcDbEntity
  8
0
  6
Continuous
 62
     8
100
AcDbBlockReference
  2
*B76
 10
0.0
 20
0.0
 30
0.0
  0
INSERT
  5
409
100
AcDbEntity
  8
0
  6
Continuous
 62
     8
100
AcDbBlockReference
  2
*B77
 10
0.0
 20
0.0
 30
0.0
  0
INSERT
  5
40F
100
AcDbEntity
  8
0
  6
Continuous
 62
     8
100
AcDbBlockReference
  2
*B78
 10
0.0
 20
0.0
 30
0.0
  0
INSERT
  5
414
100
AcDbEntity
  8
0
  6
Continuous
 62
     8
100
AcDbBlockReference
  2
*B79
 10
0.0
 20
0.0
 30
0.0
  0
INSERT
  5
41A
100
AcDbEntity
  8
0
  6
Continuous
 62
     8
100
AcDbBlockReference
  2
*B80
 10
0.0
 20
0.0
 30
0.0
  0
INSERT
  5
420
100
AcDbEntity
  8
0
  6
Continuous
 62
     8
100
AcDbBlockReference
  2
*B81
 10
0.0
 20
0.0
 30
0.0
  0
INSERT
  5
426
100
AcDbEntity
  8
0
  6
Continuous
 62
     8
100
AcDbBlockReference
  2
*B82
 10
0.0
 20
0.0
 30
0.0
  0
INSERT
  5
42C
100
AcDbEntity
  8
0
  6
Continuous
 62
     8
100
AcDbBlockReference
  2
*B83
 10
0.0
 20
0.0
 30
0.0
  0
INSERT
  5
452
100
AcDbEntity
  8
0
  6
Continuous
 62
     8
100
AcDbBlockReference
  2
*B84
 10
0.0
 20
0.0
 30
0.0
  0
INSERT
  5
471
100
AcDbEntity
  8
0
  6
Continuous
 62
     8
100
AcDbBlockReference
  2
*B85
 10
0.0
 20
0.0
 30
0.0
  0
INSERT
  5
47E
100
AcDbEntity
  8
0
  6
Continuous
 62
     8
100
AcDbBlockReference
  2
*B86
 10
0.0
 20
0.0
 30
0.0
  0
INSERT
  5
484
100
AcDbEntity
  8
0
  6
Continuous
 62
     8
100
AcDbBlockReference
  2
*B87
 10
0.0
 20
0.0
 30
0.0
  0
INSERT
  5
48F
100
AcDbEntity
  8
0
  6
Continuous
 62
     8
100
AcDbBlockReference
  2
*B88
 10
0.0
 20
0.0
 30
0.0
  0
INSERT
  5
49C
100
AcDbEntity
  8
0
  6
Continuous
 62
     8
100
AcDbBlockReference
  2
*B89
 10
0.0
 20
0.0
 30
0.0
  0
INSERT
  5
4A2
100
AcDbEntity
  8
0
  6
Continuous
 62
     8
100
AcDbBlockReference
  2
*B90
 10
0.0
 20
0.0
 30
0.0
  0
INSERT
  5
4A8
100
AcDbEntity
  8
0
  6
Continuous
 62
     8
100
AcDbBlockReference
  2
*B91
 10
0.0
 20
0.0
 30
0.0
  0
INSERT
  5
4B1
100
AcDbEntity
  8
0
  6
Continuous
 62
     8
100
AcDbBlockReference
  2
*B92
 10
0.0
 20
0.0
 30
0.0
  0
INSERT
  5
4B7
100
AcDbEntity
  8
0
  6
Continuous
 62
     8
100
AcDbBlockReference
  2
*B93
 10
0.0
 20
0.0
 30
0.0
  0
INSERT
  5
4BD
100
AcDbEntity
  8
0
  6
Continuous
 62
     8
100
AcDbBlockReference
  2
*B94
 10
0.0
 20
0.0
 30
0.0
  0
INSERT
  5
4C3
100
AcDbEntity
  8
0
  6
Continuous
 62
     8
100
AcDbBlockReference
  2
*B95
 10
0.0
 20
0.0
 30
0.0
  0
INSERT
  5
4C8
100
AcDbEntity
  8
0
  6
Continuous
 62
     8
100
AcDbBlockReference
  2
*B96
 10
0.0
 20
0.0
 30
0.0
  0
INSERT
  5
4D5
100
AcDbEntity
  8
0
  6
Continuous
 62
     8
100
AcDbBlockReference
  2
*B97
 10
0.0
 20
0.0
 30
0.0
  0
INSERT
  5
4DE
100
AcDbEntity
  8
0
  6
Continuous
 62
     8
100
AcDbBlockReference
  2
*B98
 10
0.0
 20
0.0
 30
0.0
  0
INSERT
  5
4E3
100
AcDbEntity
  8
0
  6
Continuous
 62
     8
100
AcDbBlockReference
  2
*B99
 10
0.0
 20
0.0
 30
0.0
  0
INSERT
  5
4E8
100
AcDbEntity
  8
0
  6
Continuous
 62
     8
100
AcDbBlockReference
  2
*B100
 10
0.0
 20
0.0
 30
0.0
  0
INSERT
  5
4EE
100
AcDbEntity
  8
0
  6
Continuous
 62
     8
100
AcDbBlockReference
  2
*B101
 10
0.0
 20
0.0
 30
0.0
  0
INSERT
  5
4F4
100
AcDbEntity
  8
0
  6
Continuous
 62
     8
100
AcDbBlockReference
  2
*B102
 10
0.0
 20
0.0
 30
0.0
  0
INSERT
  5
4FA
100
AcDbEntity
  8
0
  6
Continuous
 62
     8
100
AcDbBlockReference
  2
*B103
 10
0.0
 20
0.0
 30
0.0
  0
INSERT
  5
505
100
AcDbEntity
  8
0
  6
Continuous
 62
     8
100
AcDbBlockReference
  2
*B104
 10
0.0
 20
0.0
 30
0.0
  0
INSERT
  5
512
100
AcDbEntity
  8
0
  6
Continuous
 62
     8
100
AcDbBlockReference
  2
*B105
 10
0.0
 20
0.0
 30
0.0
  0
INSERT
  5
51F
100
AcDbEntity
  8
0
  6
Continuous
 62
     8
100
AcDbBlockReference
  2
*B106
 10
0.0
 20
0.0
 30
0.0
  0
INSERT
  5
52A
100
AcDbEntity
  8
0
  6
Continuous
 62
     8
100
AcDbBlockReference
  2
*B107
 10
0.0
 20
0.0
 30
0.0
  0
INSERT
  5
52F
100
AcDbEntity
  8
0
  6
Continuous
 62
     8
100
AcDbBlockReference
  2
*B108
 10
0.0
 20
0.0
 30
0.0
  0
INSERT
  5
535
100
AcDbEntity
  8
0
  6
Continuous
 62
     8
100
AcDbBlockReference
  2
*B109
 10
0.0
 20
0.0
 30
0.0
  0
INSERT
  5
53B
100
AcDbEntity
  8
0
  6
Continuous
 62
     8
100
AcDbBlockReference
  2
*B110
 10
0.0
 20
0.0
 30
0.0
  0
INSERT
  5
541
100
AcDbEntity
  8
0
  6
Continuous
 62
     8
100
AcDbBlockReference
  2
*B111
 10
0.0
 20
0.0
 30
0.0
  0
INSERT
  5
54E
100
AcDbEntity
  8
0
  6
Continuous
 62
     8
100
AcDbBlockReference
  2
*B112
 10
0.0
 20
0.0
 30
0.0
  0
INSERT
  5
554
100
AcDbEntity
  8
0
  6
Continuous
 62
     8
100
AcDbBlockReference
  2
*B113
 10
0.0
 20
0.0
 30
0.0
  0
INSERT
  5
57F
100
AcDbEntity
  8
0
  6
Continuous
 62
     8
100
AcDbBlockReference
  2
*B114
 10
0.0
 20
0.0
 30
0.0
  0
INSERT
  5
594
100
AcDbEntity
  8
0
  6
Continuous
 62
     8
100
AcDbBlockReference
  2
*B115
 10
0.0
 20
0.0
 30
0.0
  0
INSERT
  5
59A
100
AcDbEntity
  8
0
  6
Continuous
 62
     8
100
AcDbBlockReference
  2
*B116
 10
0.0
 20
0.0
 30
0.0
  0
INSERT
  5
5A7
100
AcDbEntity
  8
0
  6
Continuous
 62
     8
100
AcDbBlockReference
  2
*B117
 10
0.0
 20
0.0
 30
0.0
  0
INSERT
  5
5AD
100
AcDbEntity
  8
0
  6
Continuous
 62
     8
100
AcDbBlockReference
  2
*B118
 10
0.0
 20
0.0
 30
0.0
  0
INSERT
  5
5B3
100
AcDbEntity
  8
0
  6
Continuous
 62
     8
100
AcDbBlockReference
  2
*B119
 10
0.0
 20
0.0
 30
0.0
  0
INSERT
  5
5C2
100
AcDbEntity
  8
0
  6
Continuous
 62
     8
100
AcDbBlockReference
  2
*B120
 10
0.0
 20
0.0
 30
0.0
  0
INSERT
  5
5C8
100
AcDbEntity
  8
0
  6
Continuous
 62
     8
100
AcDbBlockReference
  2
*B121
 10
0.0
 20
0.0
 30
0.0
  0
INSERT
  5
5D5
100
AcDbEntity
  8
0
  6
Continuous
 62
     8
100
AcDbBlockReference
  2
*B122
 10
0.0
 20
0.0
 30
0.0
  0
INSERT
  5
5DB
100
AcDbEntity
  8
0
  6
Continuous
 62
     8
100
AcDbBlockReference
  2
*B123
 10
0.0
 20
0.0
 30
0.0
  0
INSERT
  5
607
100
AcDbEntity
  8
0
  6
Continuous
 62
     8
100
AcDbBlockReference
  2
*B124
 10
0.0
 20
0.0
 30
0.0
  0
INSERT
  5
60D
100
AcDbEntity
  8
0
  6
Continuous
 62
     8
100
AcDbBlockReference
  2
*B125
 10
0.0
 20
0.0
 30
0.0
  0
INSERT
  5
612
100
AcDbEntity
  8
0
  6
Continuous
 62
     8
100
AcDbBlockReference
  2
*B126
 10
0.0
 20
0.0
 30
0.0
  0
INSERT
  5
617
100
AcDbEntity
  8
0
  6
Continuous
 62
     8
100
AcDbBlockReference
  2
*B127
 10
0.0
 20
0.0
 30
0.0
  0
INSERT
  5
61D
100
AcDbEntity
  8
0
  6
Continuous
 62
     8
100
AcDbBlockReference
  2
*B128
 10
0.0
 20
0.0
 30
0.0
  0
INSERT
  5
622
100
AcDbEntity
  8
0
  6
Continuous
 62
     8
100
AcDbBlockReference
  2
*B129
 10
0.0
 20
0.0
 30
0.0
  0
INSERT
  5
62F
100
AcDbEntity
  8
0
  6
Continuous
 62
     8
100
AcDbBlockReference
  2
*B130
 10
0.0
 20
0.0
 30
0.0
  0
INSERT
  5
634
100
AcDbEntity
  8
0
  6
Continuous
 62
     8
100
AcDbBlockReference
  2
*B131
 10
0.0
 20
0.0
 30
0.0
  0
INSERT
  5
65C
100
AcDbEntity
  8
0
  6
Continuous
 62
     8
100
AcDbBlockReference
  2
*B132
 10
0.0
 20
0.0
 30
0.0
  0
INSERT
  5
662
100
AcDbEntity
  8
0
  6
Continuous
 62
     6
100
AcDbBlockReference
  2
*B133
 10
0.0
 20
0.0
 30
0.0
  0
INSERT
  5
668
100
AcDbEntity
  8
0
  6
Continuous
 62
     6
100
AcDbBlockReference
  2
*B134
 10
0.0
 20
0.0
 30
0.0
  0
INSERT
  5
66E
100
AcDbEntity
  8
0
  6
Continuous
 62
     6
100
AcDbBlockReference
  2
*B135
 10
0.0
 20
0.0
 30
0.0
  0
INSERT
  5
674
100
AcDbEntity
  8
0
  6
Continuous
 62
     6
100
AcDbBlockReference
  2
*B136
 10
0.0
 20
0.0
 30
0.0
  0
INSERT
  5
67A
100
AcDbEntity
  8
0
  6
Continuous
 62
     6
100
AcDbBlockReference
  2
*B137
 10
0.0
 20
0.0
 30
0.0
  0
INSERT
  5
680
100
AcDbEntity
  8
0
  6
Continuous
 62
     6
100
AcDbBlockReference
  2
*B138
 10
0.0
 20
0.0
 30
0.0
  0
INSERT
  5
686
100
AcDbEntity
  8
0
  6
Continuous
 62
     6
100
AcDbBlockReference
  2
*B139
 10
0.0
 20
0.0
 30
0.0
  0
INSERT
  5
68C
100
AcDbEntity
  8
0
  6
Continuous
 62
     6
100
AcDbBlockReference
  2
*B140
 10
0.0
 20
0.0
 30
0.0
  0
INSERT
  5
692
100
AcDbEntity
  8
0
  6
Continuous
 62
     6
100
AcDbBlockReference
  2
*B141
 10
0.0
 20
0.0
 30
0.0
  0
INSERT
  5
698
100
AcDbEntity
  8
0
  6
Continuous
 62
     6
100
AcDbBlockReference
  2
*B142
 10
0.0
 20
0.0
 30
0.0
  0
INSERT
  5
69E
100
AcDbEntity
  8
0
  6
Continuous
 62
     6
100
AcDbBlockReference
  2
*B143
 10
0.0
 20
0.0
 30
0.0
  0
INSERT
  5
6A4
100
AcDbEntity
  8
0
  6
Continuous
 62
     6
100
AcDbBlockReference
  2
*B144
 10
0.0
 20
0.0
 30
0.0
  0
INSERT
  5
6AA
100
AcDbEntity
  8
0
  6
Continuous
 62
     6
100
AcDbBlockReference
  2
*B145
 10
0.0
 20
0.0
 30
0.0
  0
INSERT
  5
6B0
100
AcDbEntity
  8
0
  6
Continuous
 62
     6
100
AcDbBlockReference
  2
*B146
 10
0.0
 20
0.0
 30
0.0
  0
INSERT
  5
6B6
100
AcDbEntity
  8
0
  6
Continuous
 62
     6
100
AcDbBlockReference
  2
*B147
 10
0.0
 20
0.0
 30
0.0
  0
INSERT
  5
6BC
100
AcDbEntity
  8
0
  6
Continuous
 62
     6
100
AcDbBlockReference
  2
*B148
 10
0.0
 20
0.0
 30
0.0
  0
INSERT
  5
6C2
100
AcDbEntity
  8
0
  6
Continuous
 62
     6
100
AcDbBlockReference
  2
*B149
 10
0.0
 20
0.0
 30
0.0
  0
INSERT
  5
6C8
100
AcDbEntity
  8
0
  6
Continuous
 62
     6
100
AcDbBlockReference
  2
*B150
 10
0.0
 20
0.0
 30
0.0
  0
INSERT
  5
6CE
100
AcDbEntity
  8
0
  6
Continuous
 62
     6
100
AcDbBlockReference
  2
*B151
 10
0.0
 20
0.0
 30
0.0
  0
INSERT
  5
6D4
100
AcDbEntity
  8
0
  6
Continuous
 62
     6
100
AcDbBlockReference
  2
*B152
 10
0.0
 20
0.0
 30
0.0
  0
INSERT
  5
6DA
100
AcDbEntity
  8
0
  6
Continuous
 62
     6
100
AcDbBlockReference
  2
*B153
 10
0.0
 20
0.0
 30
0.0
  0
INSERT
  5
6E0
100
AcDbEntity
  8
0
  6
Continuous
 62
     6
100
AcDbBlockReference
  2
*B154
 10
0.0
 20
0.0
 30
0.0
  0
INSERT
  5
6E6
100
AcDbEntity
  8
0
  6
Continuous
 62
     6
100
AcDbBlockReference
  2
*B155
 10
0.0
 20
0.0
 30
0.0
  0
INSERT
  5
6EC
100
AcDbEntity
  8
0
  6
Continuous
 62
     6
100
AcDbBlockReference
  2
*B156
 10
0.0
 20
0.0
 30
0.0
  0
INSERT
  5
6F2
100
AcDbEntity
  8
0
  6
Continuous
 62
     6
100
AcDbBlockReference
  2
*B157
 10
0.0
 20
0.0
 30
0.0
  0
INSERT
  5
6F8
100
AcDbEntity
  8
0
  6
Continuous
 62
     6
100
AcDbBlockReference
  2
*B158
 10
0.0
 20
0.0
 30
0.0
  0
INSERT
  5
6FE
100
AcDbEntity
  8
0
  6
Continuous
 62
     6
100
AcDbBlockReference
  2
*B159
 10
0.0
 20
0.0
 30
0.0
  0
INSERT
  5
704
100
AcDbEntity
  8
0
  6
Continuous
 62
     6
100
AcDbBlockReference
  2
*B160
 10
0.0
 20
0.0
 30
0.0
  0
INSERT
  5
70A
100
AcDbEntity
  8
0
  6
Continuous
 62
     6
100
AcDbBlockReference
  2
*B161
 10
0.0
 20
0.0
 30
0.0
  0
INSERT
  5
710
100
AcDbEntity
  8
0
  6
Continuous
 62
     6
100
AcDbBlockReference
  2
*B162
 10
0.0
 20
0.0
 30
0.0
  0
INSERT
  5
716
100
AcDbEntity
  8
0
  6
Continuous
 62
     6
100
AcDbBlockReference
  2
*B163
 10
0.0
 20
0.0
 30
0.0
  0
INSERT
  5
71C
100
AcDbEntity
  8
0
  6
Continuous
 62
     6
100
AcDbBlockReference
  2
*B164
 10
0.0
 20
0.0
 30
0.0
  0
INSERT
  5
722
100
AcDbEntity
  8
0
  6
Continuous
 62
     6
100
AcDbBlockReference
  2
*B165
 10
0.0
 20
0.0
 30
0.0
  0
INSERT
  5
728
100
AcDbEntity
  8
0
  6
Continuous
 62
     6
100
AcDbBlockReference
  2
*B166
 10
0.0
 20
0.0
 30
0.0
  0
INSERT
  5
72E
100
AcDbEntity
  8
0
  6
Continuous
 62
     6
100
AcDbBlockReference
  2
*B167
 10
0.0
 20
0.0
 30
0.0
  0
INSERT
  5
734
100
AcDbEntity
  8
0
  6
Continuous
 62
     6
100
AcDbBlockReference
  2
*B168
 10
0.0
 20
0.0
 30
0.0
  0
INSERT
  5
73A
100
AcDbEntity
  8
0
  6
Continuous
 62
     6
100
AcDbBlockReference
  2
*B169
 10
0.0
 20
0.0
 30
0.0
  0
INSERT
  5
740
100
AcDbEntity
  8
0
  6
Continuous
 62
     6
100
AcDbBlockReference
  2
*B170
 10
0.0
 20
0.0
 30
0.0
  0
INSERT
  5
746
100
AcDbEntity
  8
0
  6
Continuous
 62
     6
100
AcDbBlockReference
  2
*B171
 10
0.0
 20
0.0
 30
0.0
  0
INSERT
  5
74C
100
AcDbEntity
  8
0
  6
Continuous
 62
     6
100
AcDbBlockReference
  2
*B172
 10
0.0
 20
0.0
 30
0.0
  0
INSERT
  5
752
100
AcDbEntity
  8
0
  6
Continuous
 62
     6
100
AcDbBlockReference
  2
*B173
 10
0.0
 20
0.0
 30
0.0
  0
INSERT
  5
758
100
AcDbEntity
  8
0
  6
Continuous
 62
     6
100
AcDbBlockReference
  2
*B174
 10
0.0
 20
0.0
 30
0.0
  0
INSERT
  5
75E
100
AcDbEntity
  8
0
  6
Continuous
 62
     6
100
AcDbBlockReference
  2
*B175
 10
0.0
 20
0.0
 30
0.0
  0
INSERT
  5
764
100
AcDbEntity
  8
0
  6
Continuous
 62
     6
100
AcDbBlockReference
  2
*B176
 10
0.0
 20
0.0
 30
0.0
  0
INSERT
  5
76A
100
AcDbEntity
  8
0
  6
Continuous
 62
     6
100
AcDbBlockReference
  2
*B177
 10
0.0
 20
0.0
 30
0.0
  0
INSERT
  5
770
100
AcDbEntity
  8
0
  6
Continuous
 62
     6
100
AcDbBlockReference
  2
*B178
 10
0.0
 20
0.0
 30
0.0
  0
INSERT
  5
776
100
AcDbEntity
  8
0
  6
Continuous
 62
     6
100
AcDbBlockReference
  2
*B179
 10
0.0
 20
0.0
 30
0.0
  0
INSERT
  5
77C
100
AcDbEntity
  8
0
  6
Continuous
 62
     6
100
AcDbBlockReference
  2
*B180
 10
0.0
 20
0.0
 30
0.0
  0
INSERT
  5
782
100
AcDbEntity
  8
0
  6
Continuous
 62
     6
100
AcDbBlockReference
  2
*B181
 10
0.0
 20
0.0
 30
0.0
  0
INSERT
  5
788
100
AcDbEntity
  8
0
  6
Continuous
 62
     6
100
AcDbBlockReference
  2
*B182
 10
0.0
 20
0.0
 30
0.0
  0
INSERT
  5
78E
100
AcDbEntity
  8
0
  6
Continuous
 62
     6
100
AcDbBlockReference
  2
*B183
 10
0.0
 20
0.0
 30
0.0
  0
INSERT
  5
794
100
AcDbEntity
  8
0
  6
Continuous
 62
     6
100
AcDbBlockReference
  2
*B184
 10
0.0
 20
0.0
 30
0.0
  0
INSERT
  5
79A
100
AcDbEntity
  8
0
  6
Continuous
 62
     6
100
AcDbBlockReference
  2
*B185
 10
0.0
 20
0.0
 30
0.0
  0
INSERT
  5
7A0
100
AcDbEntity
  8
0
  6
Continuous
 62
     6
100
AcDbBlockReference
  2
*B186
 10
0.0
 20
0.0
 30
0.0
  0
INSERT
  5
7A6
100
AcDbEntity
  8
0
  6
Continuous
 62
     6
100
AcDbBlockReference
  2
*B187
 10
0.0
 20
0.0
 30
0.0
  0
INSERT
  5
7AC
100
AcDbEntity
  8
0
  6
Continuous
 62
     6
100
AcDbBlockReference
  2
*B188
 10
0.0
 20
0.0
 30
0.0
  0
INSERT
  5
7B2
100
AcDbEntity
  8
0
  6
Continuous
 62
     6
100
AcDbBlockReference
  2
*B189
 10
0.0
 20
0.0
 30
0.0
  0
INSERT
  5
7B7
100
AcDbEntity
  8
TEXT
  6
Continuous
 62
     0
100
AcDbBlockReference
  2
*B190
 10
0.0
 20
0.0
 30
0.0
  0
INSERT
  5
7BC
100
AcDbEntity
  8
TEXT
  6
Continuous
 62
     0
100
AcDbBlockReference
  2
*B191
 10
0.0
 20
0.0
 30
0.0
  0
INSERT
  5
7C1
100
AcDbEntity
  8
TEXT
  6
Continuous
 62
     0
100
AcDbBlockReference
  2
*B192
 10
0.0
 20
0.0
 30
0.0
  0
INSERT
  5
7C6
100
AcDbEntity
  8
TEXT
  6
Continuous
 62
     0
100
AcDbBlockReference
  2
*B193
 10
0.0
 20
0.0
 30
0.0
  0
INSERT
  5
7CB
100
AcDbEntity
  8
TEXT
  6
Continuous
 62
     0
100
AcDbBlockReference
  2
*B194
 10
0.0
 20
0.0
 30
0.0
  0
INSERT
  5
7D0
100
AcDbEntity
  8
TEXT
  6
Continuous
 62
     0
100
AcDbBlockReference
  2
*B195
 10
0.0
 20
0.0
 30
0.0
  0
INSERT
  5
7D5
100
AcDbEntity
  8
TEXT
  6
Continuous
 62
     0
100
AcDbBlockReference
  2
*B196
 10
0.0
 20
0.0
 30
0.0
  0
INSERT
  5
7DA
100
AcDbEntity
  8
TEXT
  6
Continuous
 62
     0
100
AcDbBlockReference
  2
*B197
 10
0.0
 20
0.0
 30
0.0
  0
INSERT
  5
7DF
100
AcDbEntity
  8
TEXT
  6
Continuous
 62
     0
100
AcDbBlockReference
  2
*B198
 10
0.0
 20
0.0
 30
0.0
  0
INSERT
  5
7E4
100
AcDbEntity
  8
TEXT
  6
Continuous
 62
     0
100
AcDbBlockReference
  2
*B199
 10
0.0
 20
0.0
 30
0.0
  0
INSERT
  5
7E9
100
AcDbEntity
  8
TEXT
  6
Continuous
 62
     0
100
AcDbBlockReference
  2
*B200
 10
0.0
 20
0.0
 30
0.0
  0
INSERT
  5
7EE
100
AcDbEntity
  8
TEXT
  6
Continuous
 62
     0
100
AcDbBlockReference
  2
*B201
 10
0.0
 20
0.0
 30
0.0
  0
INSERT
  5
7F3
100
AcDbEntity
  8
TEXT
  6
Continuous
 62
     0
100
AcDbBlockReference
  2
*B202
 10
0.0
 20
0.0
 30
0.0
  0
INSERT
  5
7F8
100
AcDbEntity
  8
TEXT
  6
Continuous
 62
     0
100
AcDbBlockReference
  2
*B203
 10
0.0
 20
0.0
 30
0.0
  0
INSERT
  5
7FD
100
AcDbEntity
  8
TEXT
  6
Continuous
 62
     0
100
AcDbBlockReference
  2
*B204
 10
0.0
 20
0.0
 30
0.0
  0
INSERT
  5
802
100
AcDbEntity
  8
TEXT
  6
Continuous
 62
     0
100
AcDbBlockReference
  2
*B205
 10
0.0
 20
0.0
 30
0.0
  0
INSERT
  5
807
100
AcDbEntity
  8
TEXT
  6
Continuous
 62
     0
100
AcDbBlockReference
  2
*B206
 10
0.0
 20
0.0
 30
0.0
  0
INSERT
  5
80C
100
AcDbEntity
  8
TEXT
  6
Continuous
 62
     0
100
AcDbBlockReference
  2
*B207
 10
0.0
 20
0.0
 30
0.0
  0
INSERT
  5
811
100
AcDbEntity
  8
TEXT
  6
Continuous
 62
     0
100
AcDbBlockReference
  2
*B208
 10
0.0
 20
0.0
 30
0.0
  0
INSERT
  5
816
100
AcDbEntity
  8
TEXT
  6
Continuous
 62
     0
100
AcDbBlockReference
  2
*B209
 10
0.0
 20
0.0
 30
0.0
  0
INSERT
  5
81B
100
AcDbEntity
  8
TEXT
  6
Continuous
 62
     0
100
AcDbBlockReference
  2
*B210
 10
0.0
 20
0.0
 30
0.0
  0
INSERT
  5
820
100
AcDbEntity
  8
TEXT
  6
Continuous
 62
     0
100
AcDbBlockReference
  2
*B211
 10
0.0
 20
0.0
 30
0.0
  0
INSERT
  5
825
100
AcDbEntity
  8
TEXT
  6
Continuous
 62
     0
100
AcDbBlockReference
  2
*B212
 10
0.0
 20
0.0
 30
0.0
  0
INSERT
  5
82A
100
AcDbEntity
  8
TEXT
  6
Continuous
 62
     0
100
AcDbBlockReference
  2
*B213
 10
0.0
 20
0.0
 30
0.0
  0
INSERT
  5
82F
100
AcDbEntity
  8
TEXT
  6
Continuous
 62
     0
100
AcDbBlockReference
  2
*B214
 10
0.0
 20
0.0
 30
0.0
  0
INSERT
  5
834
100
AcDbEntity
  8
TEXT
  6
Continuous
 62
     0
100
AcDbBlockReference
  2
*B215
 10
0.0
 20
0.0
 30
0.0
  0
INSERT
  5
839
100
AcDbEntity
  8
TEXT
  6
Continuous
 62
     0
100
AcDbBlockReference
  2
*B216
 10
0.0
 20
0.0
 30
0.0
  0
INSERT
  5
83E
100
AcDbEntity
  8
TEXT
  6
Continuous
 62
     0
100
AcDbBlockReference
  2
*B217
 10
0.0
 20
0.0
 30
0.0
  0
INSERT
  5
843
100
AcDbEntity
  8
TEXT
  6
Continuous
 62
     0
100
AcDbBlockReference
  2
*B218
 10
0.0
 20
0.0
 30
0.0
  0
INSERT
  5
848
100
AcDbEntity
  8
TEXT
  6
Continuous
 62
     0
100
AcDbBlockReference
  2
*B219
 10
0.0
 20
0.0
 30
0.0
  0
INSERT
  5
84D
100
AcDbEntity
  8
TEXT
  6
Continuous
 62
     0
100
AcDbBlockReference
  2
*B220
 10
0.0
 20
0.0
 30
0.0
  0
INSERT
  5
852
100
AcDbEntity
  8
TEXT
  6
Continuous
 62
     0
100
AcDbBlockReference
  2
*B221
 10
0.0
 20
0.0
 30
0.0
  0
INSERT
  5
857
100
AcDbEntity
  8
TEXT
  6
Continuous
 62
     0
100
AcDbBlockReference
  2
*B222
 10
0.0
 20
0.0
 30
0.0
  0
INSERT
  5
85C
100
AcDbEntity
  8
TEXT
  6
Continuous
 62
     0
100
AcDbBlockReference
  2
*B223
 10
0.0
 20
0.0
 30
0.0
  0
INSERT
  5
861
100
AcDbEntity
  8
TEXT
  6
Continuous
 62
     0
100
AcDbBlockReference
  2
*B224
 10
0.0
 20
0.0
 30
0.0
  0
INSERT
  5
866
100
AcDbEntity
  8
TEXT
  6
Continuous
 62
     0
100
AcDbBlockReference
  2
*B225
 10
0.0
 20
0.0
 30
0.0
  0
INSERT
  5
86B
100
AcDbEntity
  8
TEXT
  6
Continuous
 62
     0
100
AcDbBlockReference
  2
*B226
 10
0.0
 20
0.0
 30
0.0
  0
INSERT
  5
870
100
AcDbEntity
  8
TEXT
  6
Continuous
 62
     0
100
AcDbBlockReference
  2
*B227
 10
0.0
 20
0.0
 30
0.0
  0
INSERT
  5
875
100
AcDbEntity
  8
TEXT
  6
Continuous
 62
     0
100
AcDbBlockReference
  2
*B228
 10
0.0
 20
0.0
 30
0.0
  0
INSERT
  5
87A
100
AcDbEntity
  8
TEXT
  6
Continuous
 62
     0
100
AcDbBlockReference
  2
*B229
 10
0.0
 20
0.0
 30
0.0
  0
INSERT
  5
87F
100
AcDbEntity
  8
TEXT
  6
Continuous
 62
     0
100
AcDbBlockReference
  2
*B230
 10
0.0
 20
0.0
 30
0.0
  0
INSERT
  5
884
100
AcDbEntity
  8
TEXT
  6
Continuous
 62
     0
100
AcDbBlockReference
  2
*B231
 10
0.0
 20
0.0
 30
0.0
  0
INSERT
  5
889
100
AcDbEntity
  8
TEXT
  6
Continuous
 62
     0
100
AcDbBlockReference
  2
*B232
 10
0.0
 20
0.0
 30
0.0
  0
INSERT
  5
88E
100
AcDbEntity
  8
TEXT
  6
Continuous
 62
     0
100
AcDbBlockReference
  2
*B233
 10
0.0
 20
0.0
 30
0.0
  0
INSERT
  5
893
100
AcDbEntity
  8
TEXT
  6
Continuous
 62
     0
100
AcDbBlockReference
  2
*B234
 10
0.0
 20
0.0
 30
0.0
  0
INSERT
  5
898
100
AcDbEntity
  8
TEXT
  6
Continuous
 62
     0
100
AcDbBlockReference
  2
*B235
 10
0.0
 20
0.0
 30
0.0
  0
INSERT
  5
89D
100
AcDbEntity
  8
TEXT
  6
Continuous
 62
     0
100
AcDbBlockReference
  2
*B236
 10
0.0
 20
0.0
 30
0.0
  0
ENDSEC
  0
SECTION
  2
OBJECTS
  0
DICTIONARY
  5
19
100
AcDbDictionary
280
     0
281
     1
  3
ACAD_GROUP
350
1A
  3
ACAD_MLINESTYLE
350
1B
  3
ACAD_LAYOUT
350
1E
  3
ACAD_PLOTSETTINGS
350
22
  3
ACAD_PLOTSTYLENAME
350
1F
  3
ACAD_WIPEOUT_VARS
350
23
  0
DICTIONARY
  5
1A
102
{ACAD_REACTORS
330
19
102
}
100
AcDbDictionary
280
     0
281
     1
  0
DICTIONARY
  5
1B
102
{ACAD_REACTORS
330
19
102
}
100
AcDbDictionary
280
     0
281
     1
  3
Standard
350
1C
  0
MLINESTYLE
  5
1C
102
{ACAD_REACTORS
330
1B
102
}
100
AcDbMlineStyle
  2
Standard
 70
     0
  3

 62
     0
 51
90.0
 52
90.0
 71
     2
 49
0.5
 62
   256
  6
BYLAYER
 49
-0.5
 62
   256
  6
BYLAYER
  0
ACDBDICTIONARYWDFLT
  5
1F
102
{ACAD_REACTORS
330
19
102
}
100
AcDbDictionary
281
     1
  3
Normal
350
1D
100
AcDbDictionaryWithDefault
340
1D
  0
ACDBPLACEHOLDER
  5
1D
102
{ACAD_REACTORS
330
1F
102
}
  0
LAYOUT
  5
20
102
{ACAD_REACTORS
330
1E
102
}
100
AcDbPlotSettings
  1

  2

  4

  6

 40
0.0
 41
0.0
 42
0.0
 43
0.0
 44
0.0
 45
0.0
 46
0.0
 47
0.0
 48
0.0
 49
0.0
140
0.0
141
0.0
142
1.0
143
1.0
 70
     0
 72
     0
 73
     0
 74
     0
  7

 75
     0
147
1.0
148
0.0
149
0.0
100
AcDbLayout
  1
Model
 70
     0
 71
     0
 10
0.0
 20
0.0
 11
0.0
 21
0.0
 12
0.0
 22
0.0
 32
0.0
 14
0.0
 24
0.0
 34
0.0
 15
0.0
 25
0.0
 35
0.0
146
0.0
 13
0.0
 23
0.0
 33
0.0
 16
0.0
 26
0.0
 36
0.0
 17
0.0
 27
0.0
 37
0.0
 76
     0
330
A
331
0
345
0
346
0
  0
LAYOUT
  5
21
102
{ACAD_REACTORS
330
1E
102
}
100
AcDbPlotSettings
  1

  2

  4

  6

 40
0.0
 41
0.0
 42
0.0
 43
0.0
 44
0.0
 45
0.0
 46
0.0
 47
0.0
 48
0.0
 49
0.0
140
0.0
141
0.0
142
1.0
143
1.0
 70
     0
 72
     0
 73
     0
 74
     0
  7

 75
     0
147
1.0
148
0.0
149
0.0
100
AcDbLayout
  1
Layout1
 70
     0
 71
     0
 10
0.0
 20
0.0
 11
0.0
 21
0.0
 12
0.0
 22
0.0
 32
0.0
 14
0.0
 24
0.0
 34
0.0
 15
0.0
 25
0.0
 35
0.0
146
0.0
 13
0.0
 23
0.0
 33
0.0
 16
0.0
 26
0.0
 36
0.0
 17
0.0
 27
0.0
 37
0.0
 76
     0
330
B
331
0
345
0
346
0
  0
DICTIONARY
  5
1E
102
{ACAD_REACTORS
330
19
102
}
100
AcDbDictionary
280
     0
281
     1
  3
Layout1
350
21
  3
Model
350
20
  0
DICTIONARY
  5
22
102
{ACAD_REACTORS
330
19
102
}
100
AcDbDictionary
280
     0
281
     1
  0
WIPEOUTVARIABLES
  5
23
100
AcDbWipeoutVariables
 70
     1
  0
ENDSEC
  0
EOF
