  0
SECTION
  2
HEADER
  9
$ACADVER
  1
AC1015
  9
$ACADMAINTVER
 70
     6
  9
$DWGCODEPAGE
  3
DOS850
  9
$INSBASE
 10
0.0
 20
0.0
 30
0.0
  9
$EXTMIN
 10
0.0
 20
0.0
 30
0.0
  9
$EXTMAX
 10
841.0
 20
595.0
 30
0.0
  9
$LIMMIN
 10
0.0
 20
0.0
  9
$LIMMAX
 10
841.0
 20
595.0
  9
$ORTHOMODE
 70
     0
  9
$REGENMODE
 70
     1
  9
$FILLMODE
 70
     1
  9
$QTEXTMODE
 70
     0
  9
$MIRRTEXT
 70
     1
  9
$LTSCALE
 40
25.4
  9
$ATTMODE
 70
     1
  9
$TEXTSIZE
 40
3.5
  9
$TRACEWID
 40
0.05
  9
$TEXTSTYLE
  7
Standard
  9
$CLAYER
  8
0
  9
$CELTYPE
  6
Continuous
  9
$CECOLOR
 62
   256
  9
$CELTSCALE
 40
1.0
  9
$DISPSILH
 70
     0
  9
$DIMSCALE
 40
1.0
  9
$DIMASZ
 40
5.0
  9
$DIMEXO
 40
3.0
  9
$DIMDLI
 40
0.38
  9
$DIMRND
 40
0.0
  9
$DIMDLE
 40
0.0
  9
$DIMEXE
 40
2.0
  9
$DIMTP
 40
0.0
  9
$DIMTM
 40
0.0
  9
$DIMTXT
 40
3.5
  9
$DIMCEN
 40
4.0
  9
$DIMTSZ
 40
0.0
  9
$DIMTOL
 70
     0
  9
$DIMLIM
 70
     0
  9
$DIMTIH
 70
     1
  9
$DIMTOH
 70
     1
  9
$DIMSE1
 70
     0
  9
$DIMSE2
 70
     0
  9
$DIMTAD
 70
     0
  9
$DIMZIN
 70
     0
  9
$DIMBLK
  1

  9
$DIMASO
 70
     1
  9
$DIMSHO
 70
     1
  9
$DIMPOST
  1

  9
$DIMAPOST
  1

  9
$DIMALT
 70
     0
  9
$DIMALTD
 70
     2
  9
$DIMALTF
 40
25.4
  9
$DIMLFAC
 40
1.0
  9
$DIMTOFL
 70
     0
  9
$DIMTVP
 40
0.0
  9
$DIMTIX
 70
     0
  9
$DIMSOXD
 70
     0
  9
$DIMSAH
 70
     0
  9
$DIMBLK1
  1

  9
$DIMBLK2
  1

  9
$DIMSTYLE
  2
Standard
  9
$DIMCLRD
 70
     0
  9
$DIMCLRE
 70
     0
  9
$DIMCLRT
 70
     0
  9
$DIMTFAC
 40
1.0
  9
$DIMGAP
 40
1.0
  9
$DIMJUST
 70
     0
  9
$DIMSD1
 70
     0
  9
$DIMSD2
 70
     0
  9
$DIMTOLJ
 70
     1
  9
$DIMTZIN
 70
     0
  9
$DIMALTZ
 70
     0
  9
$DIMALTTZ
 70
     0
  9
$DIMUPT
 70
     0
  9
$DIMDEC
 70
     4
  9
$DIMTDEC
 70
     4
  9
$DIMALTU
 70
     2
  9
$DIMALTTD
 70
     2
  9
$DIMTXSTY
  7
Standard
  9
$DIMAUNIT
 70
     0
  9
$DIMADEC
 70
     0
  9
$DIMALTRND
 40
0.0
  9
$DIMAZIN
 70
     0
  9
$DIMDSEP
 70
     0
  9
$DIMATFIT
 70
     3
  9
$DIMFRAC
 70
     0
  9
$DIMLDRBLK
  1

  9
$DIMLUNIT
 70
     2
  9
$DIMLWD
 70
     0
  9
$DIMLWE
 70
     0
  9
$DIMTMOVE
 70
     0
  9
$LUNITS
 70
     2
  9
$LUPREC
 70
     4
  9
$SKETCHINC
 40
0.1
  9
$FILLETRAD
 40
0.0
  9
$AUNITS
 70
     0
  9
$AUPREC
 70
     0
  9
$MENU
  1
acad
  9
$ELEVATION
 40
0.0
  9
$PELEVATION
 40
0.0
  9
$THICKNESS
 40
0.0
  9
$LIMCHECK
 70
     0
  9
$CHAMFERA
 40
0.0
  9
$CHAMFERB
 40
0.0
  9
$CHAMFERC
 40
0.0
  9
$CHAMFERD
 40
0.0
  9
$SKPOLY
 70
     0
  9
$TDCREATE
 40
0.000000000
  9
$TDUCREATE
 40
0.000000000
  9
$TDUPDATE
 40
0.000000000
  9
$TDUUPDATE
 40
0.000000000
  9
$TDINDWG
 40
0.0000000000
  9
$TDUSRTIMER
 40
0.0000000000
  9
$USRTIMER
 70
     1
  9
$ANGBASE
 50
0.0
  9
$ANGDIR
 70
     0
  9
$PDMODE
 70
     0
  9
$PDSIZE
 40
0.0
  9
$PLINEWID
 40
0.0
  9
$SPLFRAME
 70
     0
  9
$SPLINETYPE
 70
     6
  9
$SPLINESEGS
 70
     8
  9
$HANDSEED
  5
5B3
  9
$SURFTAB1
 70
     6
  9
$SURFTAB2
 70
     6
  9
$SURFTYPE
 70
     6
  9
$SURFU
 70
     6
  9
$SURFV
 70
     6
  9
$UCSBASE
  2

  9
$UCSNAME
  2

  9
$UCSORG
 10
0.0
 20
0.0
 30
0.0
  9
$UCSXDIR
 10
1.0
 20
0.0
 30
0.0
  9
$UCSYDIR
 10
0.0
 20
1.0
 30
0.0
  9
$UCSORTHOREF
  2

  9
$UCSORTHOVIEW
 70
     0
  9
$UCSORGTOP
 10
0.0
 20
0.0
 30
0.0
  9
$UCSORGBOTTOM
 10
0.0
 20
0.0
 30
0.0
  9
$UCSORGLEFT
 10
0.0
 20
0.0
 30
0.0
  9
$UCSORGRIGHT
 10
0.0
 20
0.0
 30
0.0
  9
$UCSORGFRONT
 10
0.0
 20
0.0
 30
0.0
  9
$UCSORGBACK
 10
0.0
 20
0.0
 30
0.0
  9
$PUCSBASE
  2

  9
$PUCSNAME
  2

  9
$PUCSORG
 10
0.0
 20
0.0
 30
0.0
  9
$PUCSXDIR
 10
1.0
 20
0.0
 30
0.0
  9
$PUCSYDIR
 10
0.0
 20
1.0
 30
0.0
  9
$PUCSORTHOREF
  2

  9
$PUCSORTHOVIEW
 70
     0
  9
$PUCSORGTOP
 10
0.0
 20
0.0
 30
0.0
  9
$PUCSORGBOTTOM
 10
0.0
 20
0.0
 30
0.0
  9
$PUCSORGLEFT
 10
0.0
 20
0.0
 30
0.0
  9
$PUCSORGRIGHT
 10
0.0
 20
0.0
 30
0.0
  9
$PUCSORGFRONT
 10
0.0
 20
0.0
 30
0.0
  9
$PUCSORGBACK
 10
0.0
 20
0.0
 30
0.0
  9
$USERI1
 70
     0
  9
$USERI2
 70
     0
  9
$USERI3
 70
     0
  9
$USERI4
 70
     0
  9
$USERI5
 70
     0
  9
$USERR1
 40
0.0
  9
$USERR2
 40
0.0
  9
$USERR3
 40
0.0
  9
$USERR4
 40
0.0
  9
$USERR5
 40
0.0
  9
$WORLDVIEW
 70
     1
  9
$SHADEDGE
 70
     3
  9
$SHADEDIF
 70
    70
  9
$TILEMODE
 70
     1
  9
$MAXACTVP
 70
    16
  9
$PINSBASE
 10
0.0
 20
0.0
 30
0.0
  9
$PLIMCHECK
 70
     0
  9
$PEXTMIN
 10
1.000000E+20
 20
1.000000E+20
 30
1.000000E+20
  9
$PEXTMAX
 10
-1.000000E+20
 20
-1.000000E+20
 30
-1.000000E+20
  9
$PLIMMIN
 10
0.0
 20
0.0
  9
$PLIMMAX
 10
841.0
 20
595.0
  9
$UNITMODE
 70
     0
  9
$VISRETAIN
 70
     0
  9
$PLINEGEN
 70
     1
  9
$PSLTSCALE
 70
     0
  9
$TREEDEPTH
 70
  3020
  9
$CMLSTYLE
  2
Standard
  9
$CMLJUST
 70
     0
  9
$CMLSCALE
 40
1.0
  9
$PROXYGRAPHICS
 70
     0
  9
$MEASUREMENT
 70
     0
  9
$CELWEIGHT
370
     0
  9
$ENDCAPS
280
     0
  9
$JOINSTYLE
280
     0
  9
$LWDISPLAY
290
     0
  9
$INSUNITS
 70
     0
  9
$HYPERLINKBASE
  1

  9
$XEDIT
290
     1
  9
$CEPSNTYPE
380
     0
  9
$PSTYLEMODE
290
     0
  9
$FINGERPRINTGUID
  2

  9
$VERSIONGUID
  2

  9
$EXTNAMES
290
     1
  9
$PSVPSCALE
 40
0.0
  0
ENDSEC
  0
SECTION
  2
CLASSES
  0
CLASS
  1
LWPOLYLINE
  2
AcDbPolyline
  3
"AutoCAD"
 90
        0
280
     0
281
     1
  0
CLASS
  1
IMAGE
  2
AcDbRasterImage
  3
ISM
 90
      127
280
     0
281
     1
  0
CLASS
  1
OLE2FRAME
  2
AcDbOle2Frame
  3
""
 90
        0
280
     0
281
     1
  0
CLASS
  1
HATCH
  2
AcDbHatch
  3
"ACAD_SEDONA"
 90
        0
280
     0
281
     1
  0
CLASS
  1
DICTIONARYVAR
  2
AcDbDictionaryVar
  3
"AutoCAD"
 90
        0
280
     0
281
     0
  0
CLASS
  1
RASTERVARIABLES
  2
AcDbRasterVariables
  3
ISM
 90
        0
280
     0
281
     0
  0
CLASS
  1
IMAGEDEF
  2
AcDbRasterImageDef
  3
ISM
 90
        0
280
     0
281
     0
  0
CLASS
  1
IMAGEDEF_REACTOR
  2
AcDbRasterImageDefReactor
  3
ISM
 90
        1
280
     0
281
     0
  0
CLASS
  1
IDBUFFER
  2
AcDbIdBuffer
  3
"Acad"
 90
        0
280
     0
281
     0
  0
CLASS
  1
SPATIAL_FILTER
  2
AcDbSpatialFilter
  3
"Acad"
 90
        0
280
     0
281
     0
  0
CLASS
  1
XRECORD
  2
AcDbXrecord
  3
"<Built In>"
 90
        0
280
     0
281
     0
  0
CLASS
  1
SORTENTSTABLE
  2
AcDbSortentsTable
  3
"AutoCAD"
 90
        0
280
     0
281
     0
  0
CLASS
  1
LAYER_INDEX
  2
AcDbLayerIndex
  3
"Acad"
 90
        0
280
     0
281
     0
  0
CLASS
  1
SPATIAL_INDEX
  2
AcDbSpatialIndex
  3
"Acad"
 90
        0
280
     0
281
     0
  0
CLASS
  1
OBJECT_PTR
  2
CAseDLPNTableRecord
  3
"ASE-LPNTableRecord"
 90
        1
280
     0
281
     0
  0
CLASS
  1
LAYOUT
  2
AcDbLayout
  3
"AutoCAD 2000"
 90
        1
280
     0
281
     0
  0
CLASS
  1
PLOTSETTINGS
  2
AcDbPlotSettings
  3
"AutoCAD 2000"
 90
        1
280
     0
281
     0
  0
CLASS
  1
ACDBDICTIONARYWDFLT
  2
AcDbDictionaryWithDefault
  3
"AutoCAD 2000"
 90
        1
280
     0
281
     0
  0
CLASS
  1
ACDBPLACEHOLDER
  2
AcDbPlaceHolder
  3
"AutoCAD 2000"
 90
        1
280
     0
281
     0
  0
CLASS
  1
VBA_PROJECT
  2
AcDbVbaProject
  3
"acadvba"
 90
        1
280
     0
281
     0
  0
CLASS
  1
WIPEOUT
  2
AcDbWipeout
  3
WipeOut|AutoCAD Express Tool|expresstools@autodesk.com
 90
      127
280
     0
281
     1
  0
CLASS
  1
WIPEOUTVARIABLES
  2
AcDbWipeoutVariables
  3
WipeOut|AutoCAD Express Tool|expresstools@autodesk.com
 90
        0
280
     0
281
     0
  0
CLASS
  1
RTEXT
  2
RText
  3
RText|AutoCAD Express Tool|expresstools@autodesk.com
 90
        0
280
     0
281
     1
  0
CLASS
  1
ARCALIGNEDTEXT
  2
AcDbArcAlignedText
  3
ATEXT|AutoCAD Express Tool|expresstools@autodesk.com
 90
        0
280
     0
281
     1
  0
ENDSEC
  0
SECTION
  2
TABLES
  0
TABLE
  2
VPORT
  5
7
100
AcDbSymbolTable
 70
     1
  0
VPORT
  5
15
100
AcDbSymbolTableRecord
100
AcDbViewportTableRecord
  2
*ACTIVE
 70
     0
 10
0.0
 20
0.0
 11
1.0
 21
1.0
 12
6.591288
 22
4.579184
 13
0.0
 23
0.0
 14
1.0
 24
1.0
 15
0.0
 25
0.0
 16
0.0
 26
0.0
 36
1.0
 17
0.0
 27
0.0
 37
0.0
 40
9.158369
 41
0.688564
 42
50.0
 43
0.0
 44
0.0
 50
0.0
 51
0.0
 71
     0
 72
   100
 73
     1
 74
     1
 75
     0
 76
     0
 77
     0
 78
     0
281
     0
 65
     0
110
0.0
120
0.0
130
0.0
111
1.0
121
0.0
131
0.0
112
0.0
122
1.0
132
0.0
345
0
346
0
 79
     0
146
0.0
  0
ENDTAB
  0
TABLE
  2
LTYPE
  5
4
100
AcDbSymbolTable
 70
     7
  0
LTYPE
  5
11
100
AcDbSymbolTableRecord
100
AcDbLinetypeTableRecord
  2
ByBlock
 70
    64
  3

 72
    65
 73
     0
 40
0.0
  0
LTYPE
  5
12
100
AcDbSymbolTableRecord
100
AcDbLinetypeTableRecord
  2
ByLayer
 70
    64
  3

 72
    65
 73
     0
 40
0.0
  0
LTYPE
  5
13
100
AcDbSymbolTableRecord
100
AcDbLinetypeTableRecord
  2
Continuous
 70
    64
  3
Solid line
 72
    65
 73
     0
 40
0.0
  0
LTYPE
  5
24
100
AcDbSymbolTableRecord
100
AcDbLinetypeTableRecord
  2
HIDDEN
 70
    64
  3
_ _ _ _ _ _ _ _ _ _ _ _ _ _ _ _ _ _ _ _ _ _ _ _
 72
    65
 73
     2
 40
0.1875
 49
0.125
 74
     0
 49
-0.0625
 74
     0
  0
LTYPE
  5
25
100
AcDbSymbolTableRecord
100
AcDbLinetypeTableRecord
  2
DOTTED
 70
    64
  3
...............................................
 72
    65
 73
     2
 40
0.125
 49
0.0
 74
     0
 49
-0.125
 74
     0
  0
LTYPE
  5
26
100
AcDbSymbolTableRecord
100
AcDbLinetypeTableRecord
  2
CENTER
 70
    64
  3
____ _ ____ _ ____ _ ____ _ ____ _ ____ _ ____ 
 72
    65
 73
     4
 40
1.125
 49
0.75
 74
     0
 49
-0.125
 74
     0
 49
0.125
 74
     0
 49
-0.125
 74
     0
  0
LTYPE
  5
27
100
AcDbSymbolTableRecord
100
AcDbLinetypeTableRecord
  2
PHANTOM
 70
    64
  3
______  __  __  ______  __  __  ______  __  __ 
 72
    65
 73
     6
 40
1.25
 49
0.625
 74
     0
 49
-0.125
 74
     0
 49
0.125
 74
     0
 49
-0.125
 74
     0
 49
0.125
 74
     0
 49
-0.125
 74
     0
  0
ENDTAB
  0
TABLE
  2
LAYER
  5
2
100
AcDbSymbolTable
 70
     2
  0
LAYER
  5
14
100
AcDbSymbolTableRecord
100
AcDbLayerTableRecord
  2
0
 70
     0
 62
     7
  6
Continuous
290
     1
370
    -3
390
1D
  0
LAYER
  5
28
100
AcDbSymbolTableRecord
100
AcDbLayerTableRecord
  2
TEXT
 70
     0
 62
     8
  6
Continuous
290
     1
370
    -3
390
1F
  0
ENDTAB
  0
TABLE
  2
STYLE
  5
3
100
AcDbSymbolTable
 70
     1
  0
STYLE
  5
17
100
AcDbSymbolTableRecord
100
AcDbTextStyleTableRecord
  2
Standard
 70
     0
 40
0.0
 41
1.0
 50
0.0
 71
     0
 42
0.0
  3
txt
  4

  0
ENDTAB
  0
TABLE
  2
VIEW
  5
5
100
AcDbSymbolTable
 70
     0
  0
ENDTAB
  0
TABLE
  2
UCS
  5
6
100
AcDbSymbolTable
 70
     0
  0
ENDTAB
  0
TABLE
  2
APPID
  5
8
100
AcDbSymbolTable
 70
     1
  0
APPID
  5
16
100
AcDbSymbolTableRecord
100
AcDbRegAppTableRecord
  2
ACAD
 70
     0
  0
ENDTAB
  0
TABLE
  2
DIMSTYLE
  5
9
100
AcDbSymbolTable
 70
     1
100
AcDbDimStyleTable
 71
     0
  0
DIMSTYLE
105
18
100
AcDbSymbolTableRecord
100
AcDbDimStyleTableRecord
  2
Standard
 70
     0
  3

  4

 40
1.0
 41
0.18
 42
0.0625
 43
0.38
 44
0.18
 45
0.0
 46
0.0
 47
0.0
 48
0.0
 71
     0
 72
     0
 73
     1
 74
     1
 75
     0
 76
     0
 77
     0
 78
     0
 79
     0
140
0.18
141
0.09
142
0.0
143
25.4
144
1.0
145
0.0
146
1.0
147
0.09
148
0.0
170
     0
171
     2
172
     0
173
     0
174
     0
175
     0
176
     0
177
     0
178
     0
179
     0
271
     4
272
     4
273
     2
274
     2
275
     0
276
     0
277
     2
278
    46
279
     0
280
     0
281
     0
282
     0
283
     1
284
     0
285
     0
286
     0
288
     0
340
17
341
0
342
0
343
0
344
0
371
    -2
372
    -2
  0
ENDTAB
  0
TABLE
  2
BLOCK_RECORD
  5
1
100
AcDbSymbolTable
 70
   138
  0
BLOCK_RECORD
  5
A
100
AcDbSymbolTableRecord
100
AcDbBlockTableRecord
  2
*MODEL_SPACE
340
20
  0
BLOCK_RECORD
  5
B
100
AcDbSymbolTableRecord
100
AcDbBlockTableRecord
  2
*PAPER_SPACE
340
21
  0
BLOCK_RECORD
  5
29
100
AcDbSymbolTableRecord
100
AcDbBlockTableRecord
  2
*B0
340
0
  0
BLOCK_RECORD
  5
2C
100
AcDbSymbolTableRecord
100
AcDbBlockTableRecord
  2
*B1
340
0
  0
BLOCK_RECORD
  5
2F
100
AcDbSymbolTableRecord
100
AcDbBlockTableRecord
  2
*B2
340
0
  0
BLOCK_RECORD
  5
4B
100
AcDbSymbolTableRecord
100
AcDbBlockTableRecord
  2
*B3
340
0
  0
BLOCK_RECORD
  5
5F
100
AcDbSymbolTableRecord
100
AcDbBlockTableRecord
  2
*B4
340
0
  0
BLOCK_RECORD
  5
222
100
AcDbSymbolTableRecord
100
AcDbBlockTableRecord
  2
*B5
340
0
  0
BLOCK_RECORD
  5
229
100
AcDbSymbolTableRecord
100
AcDbBlockTableRecord
  2
*B6
340
0
  0
BLOCK_RECORD
  5
230
100
AcDbSymbolTableRecord
100
AcDbBlockTableRecord
  2
*B7
340
0
  0
BLOCK_RECORD
  5
237
100
AcDbSymbolTableRecord
100
AcDbBlockTableRecord
  2
*B8
340
0
  0
BLOCK_RECORD
  5
23E
100
AcDbSymbolTableRecord
100
AcDbBlockTableRecord
  2
*B9
340
0
  0
BLOCK_RECORD
  5
245
100
AcDbSymbolTableRecord
100
AcDbBlockTableRecord
  2
*B10
340
0
  0
BLOCK_RECORD
  5
24C
100
AcDbSymbolTableRecord
100
AcDbBlockTableRecord
  2
*B11
340
0
  0
BLOCK_RECORD
  5
253
100
AcDbSymbolTableRecord
100
AcDbBlockTableRecord
  2
*B12
340
0
  0
BLOCK_RECORD
  5
25A
100
AcDbSymbolTableRecord
100
AcDbBlockTableRecord
  2
*B13
340
0
  0
BLOCK_RECORD
  5
261
100
AcDbSymbolTableRecord
100
AcDbBlockTableRecord
  2
*B14
340
0
  0
BLOCK_RECORD
  5
268
100
AcDbSymbolTableRecord
100
AcDbBlockTableRecord
  2
*B15
340
0
  0
BLOCK_RECORD
  5
26F
100
AcDbSymbolTableRecord
100
AcDbBlockTableRecord
  2
*B16
340
0
  0
BLOCK_RECORD
  5
276
100
AcDbSymbolTableRecord
100
AcDbBlockTableRecord
  2
*B17
340
0
  0
BLOCK_RECORD
  5
27D
100
AcDbSymbolTableRecord
100
AcDbBlockTableRecord
  2
*B18
340
0
  0
BLOCK_RECORD
  5
284
100
AcDbSymbolTableRecord
100
AcDbBlockTableRecord
  2
*B19
340
0
  0
BLOCK_RECORD
  5
28B
100
AcDbSymbolTableRecord
100
AcDbBlockTableRecord
  2
*B20
340
0
  0
BLOCK_RECORD
  5
292
100
AcDbSymbolTableRecord
100
AcDbBlockTableRecord
  2
*B21
340
0
  0
BLOCK_RECORD
  5
299
100
AcDbSymbolTableRecord
100
AcDbBlockTableRecord
  2
*B22
340
0
  0
BLOCK_RECORD
  5
2A0
100
AcDbSymbolTableRecord
100
AcDbBlockTableRecord
  2
*B23
340
0
  0
BLOCK_RECORD
  5
2A7
100
AcDbSymbolTableRecord
100
AcDbBlockTableRecord
  2
*B24
340
0
  0
BLOCK_RECORD
  5
2AE
100
AcDbSymbolTableRecord
100
AcDbBlockTableRecord
  2
*B25
340
0
  0
BLOCK_RECORD
  5
2B5
100
AcDbSymbolTableRecord
100
AcDbBlockTableRecord
  2
*B26
340
0
  0
BLOCK_RECORD
  5
2BC
100
AcDbSymbolTableRecord
100
AcDbBlockTableRecord
  2
*B27
340
0
  0
BLOCK_RECORD
  5
2C5
100
AcDbSymbolTableRecord
100
AcDbBlockTableRecord
  2
*B28
340
0
  0
BLOCK_RECORD
  5
2D1
100
AcDbSymbolTableRecord
100
AcDbBlockTableRecord
  2
*B29
340
0
  0
BLOCK_RECORD
  5
2DA
100
AcDbSymbolTableRecord
100
AcDbBlockTableRecord
  2
*B30
340
0
  0
BLOCK_RECORD
  5
2E0
100
AcDbSymbolTableRecord
100
AcDbBlockTableRecord
  2
*B31
340
0
  0
BLOCK_RECORD
  5
2EC
100
AcDbSymbolTableRecord
100
AcDbBlockTableRecord
  2
*B32
340
0
  0
BLOCK_RECORD
  5
2F2
100
AcDbSymbolTableRecord
100
AcDbBlockTableRecord
  2
*B33
340
0
  0
BLOCK_RECORD
  5
2F8
100
AcDbSymbolTableRecord
100
AcDbBlockTableRecord
  2
*B34
340
0
  0
BLOCK_RECORD
  5
2FE
100
AcDbSymbolTableRecord
100
AcDbBlockTableRecord
  2
*B35
340
0
  0
BLOCK_RECORD
  5
304
100
AcDbSymbolTableRecord
100
AcDbBlockTableRecord
  2
*B36
340
0
  0
BLOCK_RECORD
  5
30A
100
AcDbSymbolTableRecord
100
AcDbBlockTableRecord
  2
*B37
340
0
  0
BLOCK_RECORD
  5
322
100
AcDbSymbolTableRecord
100
AcDbBlockTableRecord
  2
*B38
340
0
  0
BLOCK_RECORD
  5
328
100
AcDbSymbolTableRecord
100
AcDbBlockTableRecord
  2
*B39
340
0
  0
BLOCK_RECORD
  5
32D
100
AcDbSymbolTableRecord
100
AcDbBlockTableRecord
  2
*B40
340
0
  0
BLOCK_RECORD
  5
332
100
AcDbSymbolTableRecord
100
AcDbBlockTableRecord
  2
*B41
340
0
  0
BLOCK_RECORD
  5
338
100
AcDbSymbolTableRecord
100
AcDbBlockTableRecord
  2
*B42
340
0
  0
BLOCK_RECORD
  5
33D
100
AcDbSymbolTableRecord
100
AcDbBlockTableRecord
  2
*B43
340
0
  0
BLOCK_RECORD
  5
343
100
AcDbSymbolTableRecord
100
AcDbBlockTableRecord
  2
*B44
340
0
  0
BLOCK_RECORD
  5
349
100
AcDbSymbolTableRecord
100
AcDbBlockTableRecord
  2
*B45
340
0
  0
BLOCK_RECORD
  5
360
100
AcDbSymbolTableRecord
100
AcDbBlockTableRecord
  2
*B46
340
0
  0
BLOCK_RECORD
  5
365
100
AcDbSymbolTableRecord
100
AcDbBlockTableRecord
  2
*B47
340
0
  0
BLOCK_RECORD
  5
36A
100
AcDbSymbolTableRecord
100
AcDbBlockTableRecord
  2
*B48
340
0
  0
BLOCK_RECORD
  5
374
100
AcDbSymbolTableRecord
100
AcDbBlockTableRecord
  2
*B49
340
0
  0
BLOCK_RECORD
  5
379
100
AcDbSymbolTableRecord
100
AcDbBlockTableRecord
  2
*B50
340
0
  0
BLOCK_RECORD
  5
385
100
AcDbSymbolTableRecord
100
AcDbBlockTableRecord
  2
*B51
340
0
  0
BLOCK_RECORD
  5
38A
100
AcDbSymbolTableRecord
100
AcDbBlockTableRecord
  2
*B52
340
0
  0
BLOCK_RECORD
  5
38F
100
AcDbSymbolTableRecord
100
AcDbBlockTableRecord
  2
*B53
340
0
  0
BLOCK_RECORD
  5
399
100
AcDbSymbolTableRecord
100
AcDbBlockTableRecord
  2
*B54
340
0
  0
BLOCK_RECORD
  5
3A5
100
AcDbSymbolTableRecord
100
AcDbBlockTableRecord
  2
*B55
340
0
  0
BLOCK_RECORD
  5
3AA
100
AcDbSymbolTableRecord
100
AcDbBlockTableRecord
  2
*B56
340
0
  0
BLOCK_RECORD
  5
3B7
100
AcDbSymbolTableRecord
100
AcDbBlockTableRecord
  2
*B57
340
0
  0
BLOCK_RECORD
  5
3BD
100
AcDbSymbolTableRecord
100
AcDbBlockTableRecord
  2
*B58
340
0
  0
BLOCK_RECORD
  5
3C2
100
AcDbSymbolTableRecord
100
AcDbBlockTableRecord
  2
*B59
340
0
  0
BLOCK_RECORD
  5
3CE
100
AcDbSymbolTableRecord
100
AcDbBlockTableRecord
  2
*B60
340
0
  0
BLOCK_RECORD
  5
3D3
100
AcDbSymbolTableRecord
100
AcDbBlockTableRecord
  2
*B61
340
0
  0
BLOCK_RECORD
  5
3D8
100
AcDbSymbolTableRecord
100
AcDbBlockTableRecord
  2
*B62
340
0
  0
BLOCK_RECORD
  5
3DE
100
AcDbSymbolTableRecord
100
AcDbBlockTableRecord
  2
*B63
340
0
  0
BLOCK_RECORD
  5
3EA
100
AcDbSymbolTableRecord
100
AcDbBlockTableRecord
  2
*B64
340
0
  0
BLOCK_RECORD
  5
3F5
100
AcDbSymbolTableRecord
100
AcDbBlockTableRecord
  2
*B65
340
0
  0
BLOCK_RECORD
  5
3FB
100
AcDbSymbolTableRecord
100
AcDbBlockTableRecord
  2
*B66
340
0
  0
BLOCK_RECORD
  5
400
100
AcDbSymbolTableRecord
100
AcDbBlockTableRecord
  2
*B67
340
0
  0
BLOCK_RECORD
  5
40B
100
AcDbSymbolTableRecord
100
AcDbBlockTableRecord
  2
*B68
340
0
  0
BLOCK_RECORD
  5
410
100
AcDbSymbolTableRecord
100
AcDbBlockTableRecord
  2
*B69
340
0
  0
BLOCK_RECORD
  5
416
100
AcDbSymbolTableRecord
100
AcDbBlockTableRecord
  2
*B70
340
0
  0
BLOCK_RECORD
  5
420
100
AcDbSymbolTableRecord
100
AcDbBlockTableRecord
  2
*B71
340
0
  0
BLOCK_RECORD
  5
425
100
AcDbSymbolTableRecord
100
AcDbBlockTableRecord
  2
*B72
340
0
  0
BLOCK_RECORD
  5
42A
100
AcDbSymbolTableRecord
100
AcDbBlockTableRecord
  2
*B73
340
0
  0
BLOCK_RECORD
  5
42F
100
AcDbSymbolTableRecord
100
AcDbBlockTableRecord
  2
*B74
340
0
  0
BLOCK_RECORD
  5
439
100
AcDbSymbolTableRecord
100
AcDbBlockTableRecord
  2
*B75
340
0
  0
BLOCK_RECORD
  5
451
100
AcDbSymbolTableRecord
100
AcDbBlockTableRecord
  2
*B76
340
0
  0
BLOCK_RECORD
  5
456
100
AcDbSymbolTableRecord
100
AcDbBlockTableRecord
  2
*B77
340
0
  0
BLOCK_RECORD
  5
461
100
AcDbSymbolTableRecord
100
AcDbBlockTableRecord
  2
*B78
340
0
  0
BLOCK_RECORD
  5
467
100
AcDbSymbolTableRecord
100
AcDbBlockTableRecord
  2
*B79
340
0
  0
BLOCK_RECORD
  5
46D
100
AcDbSymbolTableRecord
100
AcDbBlockTableRecord
  2
*B80
340
0
  0
BLOCK_RECORD
  5
473
100
AcDbSymbolTableRecord
100
AcDbBlockTableRecord
  2
*B81
340
0
  0
BLOCK_RECORD
  5
479
100
AcDbSymbolTableRecord
100
AcDbBlockTableRecord
  2
*B82
340
0
  0
BLOCK_RECORD
  5
47F
100
AcDbSymbolTableRecord
100
AcDbBlockTableRecord
  2
*B83
340
0
  0
BLOCK_RECORD
  5
485
100
AcDbSymbolTableRecord
100
AcDbBlockTableRecord
  2
*B84
340
0
  0
BLOCK_RECORD
  5
48B
100
AcDbSymbolTableRecord
100
AcDbBlockTableRecord
  2
*B85
340
0
  0
BLOCK_RECORD
  5
491
100
AcDbSymbolTableRecord
100
AcDbBlockTableRecord
  2
*B86
340
0
  0
BLOCK_RECORD
  5
497
100
AcDbSymbolTableRecord
100
AcDbBlockTableRecord
  2
*B87
340
0
  0
BLOCK_RECORD
  5
49D
100
AcDbSymbolTableRecord
100
AcDbBlockTableRecord
  2
*B88
340
0
  0
BLOCK_RECORD
  5
4A3
100
AcDbSymbolTableRecord
100
AcDbBlockTableRecord
  2
*B89
340
0
  0
BLOCK_RECORD
  5
4A9
100
AcDbSymbolTableRecord
100
AcDbBlockTableRecord
  2
*B90
340
0
  0
BLOCK_RECORD
  5
4AF
100
AcDbSymbolTableRecord
100
AcDbBlockTableRecord
  2
*B91
340
0
  0
BLOCK_RECORD
  5
4B5
100
AcDbSymbolTableRecord
100
AcDbBlockTableRecord
  2
*B92
340
0
  0
BLOCK_RECORD
  5
4BB
100
AcDbSymbolTableRecord
100
AcDbBlockTableRecord
  2
*B93
340
0
  0
BLOCK_RECORD
  5
4C1
100
AcDbSymbolTableRecord
100
AcDbBlockTableRecord
  2
*B94
340
0
  0
BLOCK_RECORD
  5
4C7
100
AcDbSymbolTableRecord
100
AcDbBlockTableRecord
  2
*B95
340
0
  0
BLOCK_RECORD
  5
4CD
100
AcDbSymbolTableRecord
100
AcDbBlockTableRecord
  2
*B96
340
0
  0
BLOCK_RECORD
  5
4D3
100
AcDbSymbolTableRecord
100
AcDbBlockTableRecord
  2
*B97
340
0
  0
BLOCK_RECORD
  5
4D9
100
AcDbSymbolTableRecord
100
AcDbBlockTableRecord
  2
*B98
340
0
  0
BLOCK_RECORD
  5
4DF
100
AcDbSymbolTableRecord
100
AcDbBlockTableRecord
  2
*B99
340
0
  0
BLOCK_RECORD
  5
4E5
100
AcDbSymbolTableRecord
100
AcDbBlockTableRecord
  2
*B100
340
0
  0
BLOCK_RECORD
  5
4EB
100
AcDbSymbolTableRecord
100
AcDbBlockTableRecord
  2
*B101
340
0
  0
BLOCK_RECORD
  5
4F1
100
AcDbSymbolTableRecord
100
AcDbBlockTableRecord
  2
*B102
340
0
  0
BLOCK_RECORD
  5
4F7
100
AcDbSymbolTableRecord
100
AcDbBlockTableRecord
  2
*B103
340
0
  0
BLOCK_RECORD
  5
4FD
100
AcDbSymbolTableRecord
100
AcDbBlockTableRecord
  2
*B104
340
0
  0
BLOCK_RECORD
  5
503
100
AcDbSymbolTableRecord
100
AcDbBlockTableRecord
  2
*B105
340
0
  0
BLOCK_RECORD
  5
509
100
AcDbSymbolTableRecord
100
AcDbBlockTableRecord
  2
*B106
340
0
  0
BLOCK_RECORD
  5
50F
100
AcDbSymbolTableRecord
100
AcDbBlockTableRecord
  2
*B107
340
0
  0
BLOCK_RECORD
  5
515
100
AcDbSymbolTableRecord
100
AcDbBlockTableRecord
  2
*B108
340
0
  0
BLOCK_RECORD
  5
51B
100
AcDbSymbolTableRecord
100
AcDbBlockTableRecord
  2
*B109
340
0
  0
BLOCK_RECORD
  5
521
100
AcDbSymbolTableRecord
100
AcDbBlockTableRecord
  2
*B110
340
0
  0
BLOCK_RECORD
  5
528
100
AcDbSymbolTableRecord
100
AcDbBlockTableRecord
  2
*B111
340
0
  0
BLOCK_RECORD
  5
52F
100
AcDbSymbolTableRecord
100
AcDbBlockTableRecord
  2
*B112
340
0
  0
BLOCK_RECORD
  5
536
100
AcDbSymbolTableRecord
100
AcDbBlockTableRecord
  2
*B113
340
0
  0
BLOCK_RECORD
  5
53B
100
AcDbSymbolTableRecord
100
AcDbBlockTableRecord
  2
*B114
340
0
  0
BLOCK_RECORD
  5
540
100
AcDbSymbolTableRecord
100
AcDbBlockTableRecord
  2
*B115
340
0
  0
BLOCK_RECORD
  5
545
100
AcDbSymbolTableRecord
100
AcDbBlockTableRecord
  2
*B116
340
0
  0
BLOCK_RECORD
  5
54A
100
AcDbSymbolTableRecord
100
AcDbBlockTableRecord
  2
*B117
340
0
  0
BLOCK_RECORD
  5
54F
100
AcDbSymbolTableRecord
100
AcDbBlockTableRecord
  2
*B118
340
0
  0
BLOCK_RECORD
  5
554
100
AcDbSymbolTableRecord
100
AcDbBlockTableRecord
  2
*B119
340
0
  0
BLOCK_RECORD
  5
559
100
AcDbSymbolTableRecord
100
AcDbBlockTableRecord
  2
*B120
340
0
  0
BLOCK_RECORD
  5
55E
100
AcDbSymbolTableRecord
100
AcDbBlockTableRecord
  2
*B121
340
0
  0
BLOCK_RECORD
  5
563
100
AcDbSymbolTableRecord
100
AcDbBlockTableRecord
  2
*B122
340
0
  0
BLOCK_RECORD
  5
568
100
AcDbSymbolTableRecord
100
AcDbBlockTableRecord
  2
*B123
340
0
  0
BLOCK_RECORD
  5
56D
100
AcDbSymbolTableRecord
100
AcDbBlockTableRecord
  2
*B124
340
0
  0
BLOCK_RECORD
  5
572
100
AcDbSymbolTableRecord
100
AcDbBlockTableRecord
  2
*B125
340
0
  0
BLOCK_RECORD
  5
577
100
AcDbSymbolTableRecord
100
AcDbBlockTableRecord
  2
*B126
340
0
  0
BLOCK_RECORD
  5
57C
100
AcDbSymbolTableRecord
100
AcDbBlockTableRecord
  2
*B127
340
0
  0
BLOCK_RECORD
  5
581
100
AcDbSymbolTableRecord
100
AcDbBlockTableRecord
  2
*B128
340
0
  0
BLOCK_RECORD
  5
586
100
AcDbSymbolTableRecord
100
AcDbBlockTableRecord
  2
*B129
340
0
  0
BLOCK_RECORD
  5
58B
100
AcDbSymbolTableRecord
100
AcDbBlockTableRecord
  2
*B130
340
0
  0
BLOCK_RECORD
  5
590
100
AcDbSymbolTableRecord
100
AcDbBlockTableRecord
  2
*B131
340
0
  0
BLOCK_RECORD
  5
595
100
AcDbSymbolTableRecord
100
AcDbBlockTableRecord
  2
*B132
340
0
  0
BLOCK_RECORD
  5
59A
100
AcDbSymbolTableRecord
100
AcDbBlockTableRecord
  2
*B133
340
0
  0
BLOCK_RECORD
  5
59F
100
AcDbSymbolTableRecord
100
AcDbBlockTableRecord
  2
*B134
340
0
  0
BLOCK_RECORD
  5
5A4
100
AcDbSymbolTableRecord
100
AcDbBlockTableRecord
  2
*B135
340
0
  0
BLOCK_RECORD
  5
5A9
100
AcDbSymbolTableRecord
100
AcDbBlockTableRecord
  2
*B136
340
0
  0
BLOCK_RECORD
  5
5AE
100
AcDbSymbolTableRecord
100
AcDbBlockTableRecord
  2
*B137
340
0
  0
ENDTAB
  0
ENDSEC
  0
SECTION
  2
BLOCKS
  0
BLOCK
  5
D
100
AcDbEntity
  8
0
100
AcDbBlockBegin
  2
*MODEL_SPACE
 70
     0
 10
0.0
 20
0.0
 30
0.0
  3
*MODEL_SPACE
  1

  0
ENDBLK
  5
E
100
AcDbEntity
  8
0
100
AcDbBlockEnd
  0
BLOCK
  5
F
100
AcDbEntity
 67
     1
  8
0
100
AcDbBlockBegin
  2
*PAPER_SPACE
 70
     0
 10
0.0
 20
0.0
 30
0.0
  3
*PAPER_SPACE
  1

  0
ENDBLK
  5
10
100
AcDbEntity
 67
     1
  8
0
100
AcDbBlockEnd
  0
BLOCK
  5
2A
100
AcDbEntity
  8
0
100
AcDbBlockBegin
  2
*B0
 70
     0
 10
0.0
 20
0.0
 30
0.0
  3
*B0
  1

  0
ENDBLK
  5
2B
100
AcDbEntity
  8
0
100
AcDbBlockEnd
  0
BLOCK
  5
2D
100
AcDbEntity
  8
0
100
AcDbBlockBegin
  2
*B1
 70
     0
 10
0.0
 20
0.0
 30
0.0
  3
*B1
  1

  0
ENDBLK
  5
2E
100
AcDbEntity
  8
0
100
AcDbBlockEnd
  0
BLOCK
  5
30
100
AcDbEntity
  8
0
100
AcDbBlockBegin
  2
*B2
 70
     0
 10
0.0
 20
0.0
 30
0.0
  3
*B2
  1

  0
ARC
  5
31
100
AcDbEntity
  8
0
  6
Continuous
 62
   174
100
AcDbCircle
 10
523.443017
 20
302.60294
 30
0.0
 40
8.0
100
AcDbArc
 50
-180.0
 51
0.0
  0
ARC
  5
32
100
AcDbEntity
  8
0
  6
Continuous
 62
   174
100
AcDbCircle
 10
523.443017
 20
302.60294
 30
0.0
 40
8.0
100
AcDbArc
 50
0.0
 51
180.0
  0
ARC
  5
33
100
AcDbEntity
  8
0
  6
Continuous
 62
   174
100
AcDbCircle
 10
267.443017
 20
302.60294
 30
0.0
 40
8.0
100
AcDbArc
 50
-180.0
 51
0.0
  0
ARC
  5
34
100
AcDbEntity
  8
0
  6
Continuous
 62
   174
100
AcDbCircle
 10
267.443017
 20
302.60294
 30
0.0
 40
8.0
100
AcDbArc
 50
0.0
 51
180.0
  0
ARC
  5
35
100
AcDbEntity
  8
0
  6
Continuous
 62
   174
100
AcDbCircle
 10
331.443017
 20
302.60294
 30
0.0
 40
8.0
100
AcDbArc
 50
-180.0
 51
0.0
  0
ARC
  5
36
100
AcDbEntity
  8
0
  6
Continuous
 62
   174
100
AcDbCircle
 10
331.443017
 20
302.60294
 30
0.0
 40
8.0
100
AcDbArc
 50
0.0
 51
180.0
  0
ARC
  5
37
100
AcDbEntity
  8
0
  6
Continuous
 62
   174
100
AcDbCircle
 10
395.443017
 20
302.60294
 30
0.0
 40
8.0
100
AcDbArc
 50
-180.0
 51
0.0
  0
ARC
  5
38
100
AcDbEntity
  8
0
  6
Continuous
 62
   174
100
AcDbCircle
 10
395.443017
 20
302.60294
 30
0.0
 40
8.0
100
AcDbArc
 50
0.0
 51
180.0
  0
ARC
  5
39
100
AcDbEntity
  8
0
  6
Continuous
 62
   174
100
AcDbCircle
 10
459.443017
 20
302.60294
 30
0.0
 40
8.0
100
AcDbArc
 50
-180.0
 51
0.0
  0
ARC
  5
3A
100
AcDbEntity
  8
0
  6
Continuous
 62
   174
100
AcDbCircle
 10
459.443017
 20
302.60294
 30
0.0
 40
8.0
100
AcDbArc
 50
0.0
 51
180.0
  0
LINE
  5
3B
100
AcDbEntity
  8
0
  6
Continuous
 62
   174
100
AcDbLine
 10
203.443017
 20
378.60294
 30
0.0
 11
203.443017
 21
278.60294
 31
0.0
  0
LINE
  5
3C
100
AcDbEntity
  8
0
  6
Continuous
 62
   174
100
AcDbLine
 10
619.443017
 20
378.60294
 30
0.0
 11
619.443017
 21
278.60294
 31
0.0
  0
LINE
  5
3D
100
AcDbEntity
  8
0
  6
Continuous
 62
   174
100
AcDbLine
 10
203.443017
 20
378.60294
 30
0.0
 11
619.443017
 21
378.60294
 31
0.0
  0
LINE
  5
3E
100
AcDbEntity
  8
0
  6
Continuous
 62
   174
100
AcDbLine
 10
203.443017
 20
278.60294
 30
0.0
 11
619.443017
 21
278.60294
 31
0.0
  0
ARC
  5
3F
100
AcDbEntity
  8
0
  6
Continuous
 62
   174
100
AcDbCircle
 10
523.443017
 20
302.60294
 30
0.0
 40
20.0
100
AcDbArc
 50
-180.0
 51
0.0
  0
ARC
  5
40
100
AcDbEntity
  8
0
  6
Continuous
 62
   174
100
AcDbCircle
 10
267.443017
 20
302.60294
 30
0.0
 40
20.0
100
AcDbArc
 50
0.0
 51
180.0
  0
ARC
  5
41
100
AcDbEntity
  8
0
  6
Continuous
 62
   174
100
AcDbCircle
 10
395.443017
 20
302.60294
 30
0.0
 40
20.0
100
AcDbArc
 50
0.0
 51
180.0
  0
ARC
  5
42
100
AcDbEntity
  8
0
  6
Continuous
 62
   174
100
AcDbCircle
 10
395.443017
 20
302.60294
 30
0.0
 40
20.0
100
AcDbArc
 50
-180.0
 51
0.0
  0
ARC
  5
43
100
AcDbEntity
  8
0
  6
Continuous
 62
   174
100
AcDbCircle
 10
523.443017
 20
302.60294
 30
0.0
 40
20.0
100
AcDbArc
 50
0.0
 51
180.0
  0
ARC
  5
44
100
AcDbEntity
  8
0
  6
Continuous
 62
   174
100
AcDbCircle
 10
267.443017
 20
302.60294
 30
0.0
 40
20.0
100
AcDbArc
 50
-180.0
 51
0.0
  0
ARC
  5
45
100
AcDbEntity
  8
0
  6
Continuous
 62
   174
100
AcDbCircle
 10
459.443017
 20
302.60294
 30
0.0
 40
20.0
100
AcDbArc
 50
0.0
 51
180.0
  0
ARC
  5
46
100
AcDbEntity
  8
0
  6
Continuous
 62
   174
100
AcDbCircle
 10
331.443017
 20
302.60294
 30
0.0
 40
20.0
100
AcDbArc
 50
0.0
 51
180.0
  0
ARC
  5
47
100
AcDbEntity
  8
0
  6
Continuous
 62
   174
100
AcDbCircle
 10
331.443017
 20
302.60294
 30
0.0
 40
20.0
100
AcDbArc
 50
-180.0
 51
0.0
  0
ARC
  5
48
100
AcDbEntity
  8
0
  6
Continuous
 62
   174
100
AcDbCircle
 10
459.443017
 20
302.60294
 30
0.0
 40
20.0
100
AcDbArc
 50
-180.0
 51
0.0
  0
ENDBLK
  5
49
100
AcDbEntity
  8
0
100
AcDbBlockEnd
  0
BLOCK
  5
4C
100
AcDbEntity
  8
0
100
AcDbBlockBegin
  2
*B3
 70
     0
 10
0.0
 20
0.0
 30
0.0
  3
*B3
  1

  0
LINE
  5
4D
100
AcDbEntity
  8
0
  6
HIDDEN
 62
   172
100
AcDbLine
 10
571.443017
 20
378.60294
 30
0.0
 11
571.443017
 21
466.60294
 31
0.0
  0
LINE
  5
4E
100
AcDbEntity
  8
0
  6
HIDDEN
 62
   172
100
AcDbLine
 10
507.443017
 20
378.60294
 30
0.0
 11
571.443017
 21
378.60294
 31
0.0
  0
LINE
  5
4F
100
AcDbEntity
  8
0
  6
HIDDEN
 62
   172
100
AcDbLine
 10
507.443017
 20
466.60294
 30
0.0
 11
507.443017
 21
378.60294
 31
0.0
  0
LINE
  5
50
100
AcDbEntity
  8
0
  6
HIDDEN
 62
   172
100
AcDbLine
 10
571.443017
 20
466.60294
 30
0.0
 11
507.443017
 21
466.60294
 31
0.0
  0
LINE
  5
51
100
AcDbEntity
  8
0
  6
HIDDEN
 62
   172
100
AcDbLine
 10
443.443017
 20
378.60294
 30
0.0
 11
507.443017
 21
378.60294
 31
0.0
  0
LINE
  5
52
100
AcDbEntity
  8
0
  6
HIDDEN
 62
   172
100
AcDbLine
 10
443.443017
 20
378.60294
 30
0.0
 11
443.443017
 21
466.60294
 31
0.0
  0
LINE
  5
53
100
AcDbEntity
  8
0
  6
HIDDEN
 62
   172
100
AcDbLine
 10
379.443017
 20
378.60294
 30
0.0
 11
443.443017
 21
378.60294
 31
0.0
  0
LINE
  5
54
100
AcDbEntity
  8
0
  6
HIDDEN
 62
   172
100
AcDbLine
 10
251.443017
 20
466.60294
 30
0.0
 11
251.443017
 21
378.60294
 31
0.0
  0
LINE
  5
55
100
AcDbEntity
  8
0
  6
HIDDEN
 62
   172
100
AcDbLine
 10
315.443017
 20
378.60294
 30
0.0
 11
315.443017
 21
466.60294
 31
0.0
  0
LINE
  5
56
100
AcDbEntity
  8
0
  6
HIDDEN
 62
   172
100
AcDbLine
 10
379.443017
 20
378.60294
 30
0.0
 11
379.443017
 21
466.60294
 31
0.0
  0
LINE
  5
57
100
AcDbEntity
  8
0
  6
HIDDEN
 62
   172
100
AcDbLine
 10
379.443017
 20
466.60294
 30
0.0
 11
443.443017
 21
466.60294
 31
0.0
  0
LINE
  5
58
100
AcDbEntity
  8
0
  6
HIDDEN
 62
   172
100
AcDbLine
 10
443.443017
 20
466.60294
 30
0.0
 11
507.443017
 21
466.60294
 31
0.0
  0
LINE
  5
59
100
AcDbEntity
  8
0
  6
HIDDEN
 62
   172
100
AcDbLine
 10
315.443017
 20
466.60294
 30
0.0
 11
379.443017
 21
466.60294
 31
0.0
  0
LINE
  5
5A
100
AcDbEntity
  8
0
  6
HIDDEN
 62
   172
100
AcDbLine
 10
315.443017
 20
378.60294
 30
0.0
 11
379.443017
 21
378.60294
 31
0.0
  0
LINE
  5
5B
100
AcDbEntity
  8
0
  6
HIDDEN
 62
   172
100
AcDbLine
 10
251.443017
 20
378.60294
 30
0.0
 11
315.443017
 21
378.60294
 31
0.0
  0
LINE
  5
5C
100
AcDbEntity
  8
0
  6
HIDDEN
 62
   172
100
AcDbLine
 10
315.443017
 20
466.60294
 30
0.0
 11
251.443017
 21
466.60294
 31
0.0
  0
ENDBLK
  5
5D
100
AcDbEntity
  8
0
100
AcDbBlockEnd
  0
BLOCK
  5
60
100
AcDbEntity
  8
0
100
AcDbBlockBegin
  2
*B4
 70
     0
 10
0.0
 20
0.0
 30
0.0
  3
*B4
  1

  0
LINE
  5
61
100
AcDbEntity
  8
0
  6
HIDDEN
 62
   174
100
AcDbLine
 10
259.443017
 20
76.11993
 30
0.0
 11
259.443017
 21
65.31993
 31
0.0
  0
LINE
  5
62
100
AcDbEntity
  8
0
  6
HIDDEN
 62
   174
100
AcDbLine
 10
275.443017
 20
76.11993
 30
0.0
 11
275.443017
 21
65.31993
 31
0.0
  0
LINE
  5
63
100
AcDbEntity
  8
0
  6
HIDDEN
 62
   174
100
AcDbLine
 10
259.443017
 20
76.11993
 30
0.0
 11
259.443017
 21
65.31993
 31
0.0
  0
LINE
  5
64
100
AcDbEntity
  8
0
  6
HIDDEN
 62
   174
100
AcDbLine
 10
275.443017
 20
76.11993
 30
0.0
 11
275.443017
 21
65.31993
 31
0.0
  0
LINE
  5
65
100
AcDbEntity
  8
0
  6
HIDDEN
 62
   174
100
AcDbLine
 10
323.443017
 20
76.11993
 30
0.0
 11
323.443017
 21
65.31993
 31
0.0
  0
LINE
  5
66
100
AcDbEntity
  8
0
  6
HIDDEN
 62
   174
100
AcDbLine
 10
339.443017
 20
76.11993
 30
0.0
 11
339.443017
 21
65.31993
 31
0.0
  0
LINE
  5
67
100
AcDbEntity
  8
0
  6
HIDDEN
 62
   174
100
AcDbLine
 10
323.443017
 20
76.11993
 30
0.0
 11
323.443017
 21
65.31993
 31
0.0
  0
LINE
  5
68
100
AcDbEntity
  8
0
  6
HIDDEN
 62
   174
100
AcDbLine
 10
339.443017
 20
76.11993
 30
0.0
 11
339.443017
 21
65.31993
 31
0.0
  0
LINE
  5
69
100
AcDbEntity
  8
0
  6
HIDDEN
 62
   174
100
AcDbLine
 10
387.443017
 20
76.11993
 30
0.0
 11
387.443017
 21
65.31993
 31
0.0
  0
LINE
  5
6A
100
AcDbEntity
  8
0
  6
HIDDEN
 62
   174
100
AcDbLine
 10
403.443017
 20
76.11993
 30
0.0
 11
403.443017
 21
65.31993
 31
0.0
  0
LINE
  5
6B
100
AcDbEntity
  8
0
  6
HIDDEN
 62
   174
100
AcDbLine
 10
387.443017
 20
76.11993
 30
0.0
 11
387.443017
 21
65.31993
 31
0.0
  0
LINE
  5
6C
100
AcDbEntity
  8
0
  6
HIDDEN
 62
   174
100
AcDbLine
 10
403.443017
 20
76.11993
 30
0.0
 11
403.443017
 21
65.31993
 31
0.0
  0
LINE
  5
6D
100
AcDbEntity
  8
0
  6
HIDDEN
 62
   174
100
AcDbLine
 10
451.443017
 20
76.11993
 30
0.0
 11
451.443017
 21
65.31993
 31
0.0
  0
LINE
  5
6E
100
AcDbEntity
  8
0
  6
HIDDEN
 62
   174
100
AcDbLine
 10
451.443017
 20
76.11993
 30
0.0
 11
451.443017
 21
65.31993
 31
0.0
  0
LINE
  5
6F
100
AcDbEntity
  8
0
  6
HIDDEN
 62
   174
100
AcDbLine
 10
531.443017
 20
76.11993
 30
0.0
 11
531.443017
 21
65.31993
 31
0.0
  0
LINE
  5
70
100
AcDbEntity
  8
0
  6
HIDDEN
 62
   174
100
AcDbLine
 10
515.41142
 20
65.31993
 30
0.0
 11
531.410316
 21
65.31993
 31
0.0
  0
LINE
  5
71
100
AcDbEntity
  8
0
  6
HIDDEN
 62
   174
100
AcDbLine
 10
455.415412
 20
76.11993
 30
0.0
 11
463.414559
 21
76.11993
 31
0.0
  0
LINE
  5
72
100
AcDbEntity
  8
0
  6
HIDDEN
 62
   174
100
AcDbLine
 10
399.418376
 20
76.11993
 30
0.0
 11
403.418551
 21
76.11993
 31
0.0
  0
ARC
  5
73
100
AcDbEntity
  8
0
  6
Continuous
 62
   174
100
AcDbCircle
 10
515.443017
 20
128.51993
 30
0.0
 40
5.0
100
AcDbArc
 50
-267.201333
 51
-92.798667
  0
ARC
  5
74
100
AcDbEntity
  8
0
  6
Continuous
 62
   174
100
AcDbCircle
 10
451.443017
 20
128.51993
 30
0.0
 40
5.0
100
AcDbArc
 50
-92.377821
 51
-90.0
  0
LINE
  5
75
100
AcDbEntity
  8
0
  6
HIDDEN
 62
   174
100
AcDbLine
 10
203.443017
 20
196.07354
 30
0.0
 11
203.443017
 21
157.155747
 31
0.0
  0
ARC
  5
76
100
AcDbEntity
  8
0
  6
Continuous
 62
   174
100
AcDbCircle
 10
435.443017
 20
176.51993
 30
0.0
 40
5.0
100
AcDbArc
 50
-92.377821
 51
-90.0
  0
LINE
  5
77
100
AcDbEntity
  8
0
  6
HIDDEN
 62
   174
100
AcDbLine
 10
246.618444
 20
188.51993
 30
0.0
 11
547.443017
 21
188.51993
 31
0.0
  0
ARC
  5
78
100
AcDbEntity
  8
0
  6
Continuous
 62
   174
100
AcDbCircle
 10
323.443017
 20
128.51993
 30
0.0
 40
5.0
100
AcDbArc
 50
-87.93182
 51
28.774077
  0
ARC
  5
79
100
AcDbEntity
  8
0
  6
Continuous
 62
   174
100
AcDbCircle
 10
267.443017
 20
152.51993
 30
0.0
 40
6.0
100
AcDbArc
 50
90.0
 51
270.0
  0
LINE
  5
7A
100
AcDbEntity
  8
0
  6
HIDDEN
 62
   174
100
AcDbLine
 10
463.414559
 20
76.11993
 30
0.0
 11
467.414734
 21
76.11993
 31
0.0
  0
LINE
  5
7B
100
AcDbEntity
  8
0
  6
HIDDEN
 62
   174
100
AcDbLine
 10
235.443017
 20
195.97993
 30
0.0
 11
203.443017
 21
195.97993
 31
0.0
  0
LINE
  5
7C
100
AcDbEntity
  8
0
  6
HIDDEN
 62
   174
100
AcDbLine
 10
203.443017
 20
194.01993
 30
0.0
 11
243.443017
 21
194.01993
 31
0.0
  0
LINE
  5
7D
100
AcDbEntity
  8
0
  6
HIDDEN
 62
   174
100
AcDbLine
 10
203.443017
 20
159.01993
 30
0.0
 11
243.443017
 21
159.01993
 31
0.0
  0
LINE
  5
7E
100
AcDbEntity
  8
0
  6
HIDDEN
 62
   174
100
AcDbLine
 10
235.443017
 20
194.01993
 30
0.0
 11
203.443017
 21
194.01993
 31
0.0
  0
ARC
  5
7F
100
AcDbEntity
  8
0
  6
Continuous
 62
   174
100
AcDbCircle
 10
435.443017
 20
176.51993
 30
0.0
 40
5.0
100
AcDbArc
 50
-270.0
 51
-267.622179
  0
ARC
  5
80
100
AcDbEntity
  8
0
  6
Continuous
 62
   174
100
AcDbCircle
 10
523.443017
 20
152.51993
 30
0.0
 40
6.0
100
AcDbArc
 50
-90.0
 51
90.0
  0
ARC
  5
81
100
AcDbEntity
  8
0
  6
Continuous
 62
   174
100
AcDbCircle
 10
387.443017
 20
128.51993
 30
0.0
 40
5.0
100
AcDbArc
 50
-267.622179
 51
-92.377821
  0
LINE
  5
82
100
AcDbEntity
  8
0
  6
HIDDEN
 62
   174
100
AcDbLine
 10
467.443017
 20
76.11993
 30
0.0
 11
467.443017
 21
65.31993
 31
0.0
  0
LINE
  5
83
100
AcDbEntity
  8
0
  6
HIDDEN
 62
   174
100
AcDbLine
 10
387.419656
 20
65.31993
 30
0.0
 11
403.418551
 21
65.31993
 31
0.0
  0
ARC
  5
84
100
AcDbEntity
  8
0
  6
Continuous
 62
   174
100
AcDbCircle
 10
515.443017
 20
128.51993
 30
0.0
 40
5.0
100
AcDbArc
 50
-87.201333
 51
28.824032
  0
ARC
  5
85
100
AcDbEntity
  8
0
  6
Continuous
 62
   174
100
AcDbCircle
 10
515.443017
 20
128.51993
 30
0.0
 40
5.0
100
AcDbArc
 50
-90.0
 51
-87.201333
  0
ARC
  5
86
100
AcDbEntity
  8
0
  6
Continuous
 62
   174
100
AcDbCircle
 10
515.443017
 20
128.51993
 30
0.0
 40
5.0
100
AcDbArc
 50
-92.798667
 51
-90.0
  0
ARC
  5
87
100
AcDbEntity
  8
0
  6
Continuous
 62
   174
100
AcDbCircle
 10
451.443017
 20
128.51993
 30
0.0
 40
5.0
100
AcDbArc
 50
-270.0
 51
-267.622179
  0
LINE
  5
88
100
AcDbEntity
  8
0
  6
HIDDEN
 62
   174
100
AcDbLine
 10
235.443017
 20
196.07354
 30
0.0
 11
235.443017
 21
157.155747
 31
0.0
  0
LINE
  5
89
100
AcDbEntity
  8
0
  6
HIDDEN
 62
   174
100
AcDbLine
 10
235.443017
 20
195.97993
 30
0.0
 11
203.443017
 21
195.97993
 31
0.0
  0
LINE
  5
8A
100
AcDbEntity
  8
0
  6
HIDDEN
 62
   174
100
AcDbLine
 10
243.443017
 20
159.115532
 30
0.0
 11
243.443017
 21
194.113755
 31
0.0
  0
ARC
  5
8B
100
AcDbEntity
  8
0
  6
Continuous
 62
   174
100
AcDbCircle
 10
259.443017
 20
128.51993
 30
0.0
 40
5.0
100
AcDbArc
 50
-270.0
 51
-267.93182
  0
ARC
  5
8C
100
AcDbEntity
  8
0
  6
Continuous
 62
   174
100
AcDbCircle
 10
259.443017
 20
128.51993
 30
0.0
 40
5.0
100
AcDbArc
 50
-87.93182
 51
28.774077
  0
ARC
  5
8D
100
AcDbEntity
  8
0
  6
Continuous
 62
   174
100
AcDbCircle
 10
259.443017
 20
128.51993
 30
0.0
 40
5.0
100
AcDbArc
 50
-90.0
 51
-87.93182
  0
ARC
  5
8E
100
AcDbEntity
  8
0
  6
Continuous
 62
   174
100
AcDbCircle
 10
259.443017
 20
128.51993
 30
0.0
 40
5.0
100
AcDbArc
 50
-92.06818
 51
-90.0
  0
LINE
  5
8F
100
AcDbEntity
  8
0
  6
HIDDEN
 62
   174
100
AcDbLine
 10
554.37122
 20
176.51993
 30
0.0
 11
547.443017
 21
188.51993
 31
0.0
  0
ARC
  5
90
100
AcDbEntity
  8
0
  6
Continuous
 62
   174
100
AcDbCircle
 10
435.443017
 20
176.51993
 30
0.0
 40
5.0
100
AcDbArc
 50
-90.0
 51
-87.622179
  0
LINE
  5
91
100
AcDbEntity
  8
0
  6
HIDDEN
 62
   174
100
AcDbLine
 10
246.618444
 20
188.51993
 30
0.0
 11
243.443017
 21
194.01993
 31
0.0
  0
LINE
  5
92
100
AcDbEntity
  8
0
  6
HIDDEN
 62
   174
100
AcDbLine
 10
246.618444
 20
188.613966
 30
0.0
 11
246.618444
 21
164.615322
 31
0.0
  0
ARC
  5
93
100
AcDbEntity
  8
0
  6
Continuous
 62
   174
100
AcDbCircle
 10
387.443017
 20
128.51993
 30
0.0
 40
5.0
100
AcDbArc
 50
-87.622179
 51
28.824842
  0
ARC
  5
94
100
AcDbEntity
  8
0
  6
Continuous
 62
   174
100
AcDbCircle
 10
387.443017
 20
128.51993
 30
0.0
 40
5.0
100
AcDbArc
 50
-90.0
 51
-87.622179
  0
ARC
  5
95
100
AcDbEntity
  8
0
  6
Continuous
 62
   174
100
AcDbCircle
 10
331.443017
 20
152.51993
 30
0.0
 40
6.0
100
AcDbArc
 50
-90.0
 51
90.0
  0
LINE
  5
96
100
AcDbEntity
  8
0
  6
HIDDEN
 62
   174
100
AcDbLine
 10
451.415237
 20
65.31993
 30
0.0
 11
467.414734
 21
65.31993
 31
0.0
  0
LINE
  5
97
100
AcDbEntity
  8
0
  6
HIDDEN
 62
   174
100
AcDbLine
 10
451.415237
 20
76.11993
 30
0.0
 11
455.415412
 21
76.11993
 31
0.0
  0
LINE
  5
98
100
AcDbEntity
  8
0
  6
HIDDEN
 62
   174
100
AcDbLine
 10
235.443017
 20
157.05993
 30
0.0
 11
203.443017
 21
157.05993
 31
0.0
  0
LINE
  5
99
100
AcDbEntity
  8
0
  6
HIDDEN
 62
   174
100
AcDbLine
 10
235.443017
 20
159.01993
 30
0.0
 11
203.443017
 21
159.01993
 31
0.0
  0
LINE
  5
9A
100
AcDbEntity
  8
0
  6
HIDDEN
 62
   174
100
AcDbLine
 10
246.618444
 20
164.51993
 30
0.0
 11
547.443017
 21
164.51993
 31
0.0
  0
ARC
  5
9B
100
AcDbEntity
  8
0
  6
Continuous
 62
   174
100
AcDbCircle
 10
323.443017
 20
128.51993
 30
0.0
 40
5.0
100
AcDbArc
 50
-267.93182
 51
-92.06818
  0
ARC
  5
9C
100
AcDbEntity
  8
0
  6
Continuous
 62
   174
100
AcDbCircle
 10
387.443017
 20
128.51993
 30
0.0
 40
5.0
100
AcDbArc
 50
-92.377821
 51
-90.0
  0
ARC
  5
9D
100
AcDbEntity
  8
0
  6
Continuous
 62
   174
100
AcDbCircle
 10
459.443017
 20
152.51993
 30
0.0
 40
6.0
100
AcDbArc
 50
-90.0
 51
90.0
  0
LINE
  5
9E
100
AcDbEntity
  8
0
  6
HIDDEN
 62
   174
100
AcDbLine
 10
467.443017
 20
76.11993
 30
0.0
 11
467.443017
 21
65.31993
 31
0.0
  0
LINE
  5
9F
100
AcDbEntity
  8
0
  6
HIDDEN
 62
   174
100
AcDbLine
 10
515.443017
 20
76.11993
 30
0.0
 11
515.443017
 21
65.31993
 31
0.0
  0
LINE
  5
A0
100
AcDbEntity
  8
0
  6
HIDDEN
 62
   174
100
AcDbLine
 10
323.423472
 20
65.31993
 30
0.0
 11
339.422368
 21
65.31993
 31
0.0
  0
LINE
  5
A1
100
AcDbEntity
  8
0
  6
HIDDEN
 62
   174
100
AcDbLine
 10
387.419656
 20
76.11993
 30
0.0
 11
391.419229
 21
76.11993
 31
0.0
  0
LINE
  5
A2
100
AcDbEntity
  8
0
  6
HIDDEN
 62
   174
100
AcDbLine
 10
327.423046
 20
76.11993
 30
0.0
 11
335.422794
 21
76.11993
 31
0.0
  0
LINE
  5
A3
100
AcDbEntity
  8
0
  6
HIDDEN
 62
   174
100
AcDbLine
 10
515.41142
 20
76.11993
 30
0.0
 11
519.410994
 21
76.11993
 31
0.0
  0
ARC
  5
A4
100
AcDbEntity
  8
0
  6
Continuous
 62
   174
100
AcDbCircle
 10
515.443017
 20
128.51993
 30
0.0
 40
5.0
100
AcDbArc
 50
-270.0
 51
-267.201333
  0
ARC
  5
A5
100
AcDbEntity
  8
0
  6
Continuous
 62
   174
100
AcDbCircle
 10
451.443017
 20
128.51993
 30
0.0
 40
5.0
100
AcDbArc
 50
-87.622179
 51
28.824842
  0
ARC
  5
A6
100
AcDbEntity
  8
0
  6
Continuous
 62
   174
100
AcDbCircle
 10
451.443017
 20
128.51993
 30
0.0
 40
5.0
100
AcDbArc
 50
-90.0
 51
-87.622179
  0
LINE
  5
A7
100
AcDbEntity
  8
0
  6
HIDDEN
 62
   174
100
AcDbLine
 10
243.443017
 20
159.115532
 30
0.0
 11
243.443017
 21
194.113755
 31
0.0
  0
LINE
  5
A8
100
AcDbEntity
  8
0
  6
HIDDEN
 62
   174
100
AcDbLine
 10
203.443017
 20
159.115532
 30
0.0
 11
203.443017
 21
194.113755
 31
0.0
  0
ARC
  5
A9
100
AcDbEntity
  8
0
  6
Continuous
 62
   174
100
AcDbCircle
 10
435.443017
 20
176.51993
 30
0.0
 40
5.0
100
AcDbArc
 50
-87.622179
 51
28.824842
  0
LINE
  5
AA
100
AcDbEntity
  8
0
  6
HIDDEN
 62
   174
100
AcDbLine
 10
547.443017
 20
164.615322
 30
0.0
 11
547.443017
 21
188.613966
 31
0.0
  0
LINE
  5
AB
100
AcDbEntity
  8
0
  6
HIDDEN
 62
   174
100
AcDbLine
 10
246.618444
 20
188.51993
 30
0.0
 11
243.443017
 21
194.01993
 31
0.0
  0
LINE
  5
AC
100
AcDbEntity
  8
0
  6
HIDDEN
 62
   174
100
AcDbLine
 10
246.618444
 20
188.613966
 30
0.0
 11
246.618444
 21
164.615322
 31
0.0
  0
ARC
  5
AD
100
AcDbEntity
  8
0
  6
Continuous
 62
   174
100
AcDbCircle
 10
387.443017
 20
128.51993
 30
0.0
 40
5.0
100
AcDbArc
 50
-270.0
 51
-267.622179
  0
ARC
  5
AE
100
AcDbEntity
  8
0
  6
Continuous
 62
   174
100
AcDbCircle
 10
459.443017
 20
152.51993
 30
0.0
 40
6.0
100
AcDbArc
 50
90.0
 51
270.0
  0
ARC
  5
AF
100
AcDbEntity
  8
0
  6
Continuous
 62
   174
100
AcDbCircle
 10
395.443017
 20
152.51993
 30
0.0
 40
6.0
100
AcDbArc
 50
90.0
 51
270.0
  0
ARC
  5
B0
100
AcDbEntity
  8
0
  6
Continuous
 62
   174
100
AcDbCircle
 10
267.443017
 20
152.51993
 30
0.0
 40
6.0
100
AcDbArc
 50
-90.0
 51
90.0
  0
LINE
  5
B1
100
AcDbEntity
  8
0
  6
HIDDEN
 62
   174
100
AcDbLine
 10
531.443017
 20
76.11993
 30
0.0
 11
531.443017
 21
65.31993
 31
0.0
  0
LINE
  5
B2
100
AcDbEntity
  8
0
  6
HIDDEN
 62
   174
100
AcDbLine
 10
335.422794
 20
76.11993
 30
0.0
 11
339.422368
 21
76.11993
 31
0.0
  0
LINE
  5
B3
100
AcDbEntity
  8
0
  6
HIDDEN
 62
   174
100
AcDbLine
 10
263.426863
 20
76.11993
 30
0.0
 11
271.426611
 21
76.11993
 31
0.0
  0
ARC
  5
B4
100
AcDbEntity
  8
0
  6
Continuous
 62
   174
100
AcDbCircle
 10
451.443017
 20
128.51993
 30
0.0
 40
5.0
100
AcDbArc
 50
-267.622179
 51
-92.377821
  0
LINE
  5
B5
100
AcDbEntity
  8
0
  6
HIDDEN
 62
   174
100
AcDbLine
 10
235.443017
 20
194.01993
 30
0.0
 11
203.443017
 21
194.01993
 31
0.0
  0
LINE
  5
B6
100
AcDbEntity
  8
0
  6
HIDDEN
 62
   174
100
AcDbLine
 10
203.443017
 20
159.01993
 30
0.0
 11
243.443017
 21
159.01993
 31
0.0
  0
LINE
  5
B7
100
AcDbEntity
  8
0
  6
HIDDEN
 62
   174
100
AcDbLine
 10
235.443017
 20
159.01993
 30
0.0
 11
203.443017
 21
159.01993
 31
0.0
  0
LINE
  5
B8
100
AcDbEntity
  8
0
  6
HIDDEN
 62
   174
100
AcDbLine
 10
547.443017
 20
164.615322
 30
0.0
 11
547.443017
 21
188.613966
 31
0.0
  0
ARC
  5
B9
100
AcDbEntity
  8
0
  6
Continuous
 62
   174
100
AcDbCircle
 10
323.443017
 20
128.51993
 30
0.0
 40
5.0
100
AcDbArc
 50
-270.0
 51
-267.93182
  0
ARC
  5
BA
100
AcDbEntity
  8
0
  6
Continuous
 62
   174
100
AcDbCircle
 10
323.443017
 20
128.51993
 30
0.0
 40
5.0
100
AcDbArc
 50
-92.06818
 51
-90.0
  0
ARC
  5
BB
100
AcDbEntity
  8
0
  6
Continuous
 62
   174
100
AcDbCircle
 10
523.443017
 20
152.51993
 30
0.0
 40
6.0
100
AcDbArc
 50
90.0
 51
270.0
  0
ARC
  5
BC
100
AcDbEntity
  8
0
  6
Continuous
 62
   174
100
AcDbCircle
 10
331.443017
 20
152.51993
 30
0.0
 40
6.0
100
AcDbArc
 50
90.0
 51
270.0
  0
LINE
  5
BD
100
AcDbEntity
  8
0
  6
HIDDEN
 62
   174
100
AcDbLine
 10
515.443017
 20
76.11993
 30
0.0
 11
515.443017
 21
65.31993
 31
0.0
  0
LINE
  5
BE
100
AcDbEntity
  8
0
  6
HIDDEN
 62
   174
100
AcDbLine
 10
259.427289
 20
65.31993
 30
0.0
 11
275.426185
 21
65.31993
 31
0.0
  0
LINE
  5
BF
100
AcDbEntity
  8
0
  6
HIDDEN
 62
   174
100
AcDbLine
 10
271.426611
 20
76.11993
 30
0.0
 11
275.426185
 21
76.11993
 31
0.0
  0
LINE
  5
C0
100
AcDbEntity
  8
0
  6
HIDDEN
 62
   174
100
AcDbLine
 10
527.410742
 20
76.11993
 30
0.0
 11
531.410316
 21
76.11993
 31
0.0
  0
LINE
  5
C1
100
AcDbEntity
  8
0
  6
HIDDEN
 62
   174
100
AcDbLine
 10
519.410994
 20
76.11993
 30
0.0
 11
527.410742
 21
76.11993
 31
0.0
  0
LINE
  5
C2
100
AcDbEntity
  8
0
  6
HIDDEN
 62
   174
100
AcDbLine
 10
235.443017
 20
157.05993
 30
0.0
 11
203.443017
 21
157.05993
 31
0.0
  0
LINE
  5
C3
100
AcDbEntity
  8
0
  6
HIDDEN
 62
   174
100
AcDbLine
 10
203.443017
 20
194.01993
 30
0.0
 11
243.443017
 21
194.01993
 31
0.0
  0
ARC
  5
C4
100
AcDbEntity
  8
0
  6
Continuous
 62
   174
100
AcDbCircle
 10
435.443017
 20
176.51993
 30
0.0
 40
5.0
100
AcDbArc
 50
-267.622179
 51
-92.377821
  0
LINE
  5
C5
100
AcDbEntity
  8
0
  6
HIDDEN
 62
   174
100
AcDbLine
 10
246.618444
 20
188.51993
 30
0.0
 11
547.443017
 21
188.51993
 31
0.0
  0
ARC
  5
C6
100
AcDbEntity
  8
0
  6
Continuous
 62
   174
100
AcDbCircle
 10
395.443017
 20
152.51993
 30
0.0
 40
6.0
100
AcDbArc
 50
-90.0
 51
90.0
  0
LINE
  5
C7
100
AcDbEntity
  8
0
  6
HIDDEN
 62
   174
100
AcDbLine
 10
391.419229
 20
76.11993
 30
0.0
 11
399.418376
 21
76.11993
 31
0.0
  0
LINE
  5
C8
100
AcDbEntity
  8
0
  6
HIDDEN
 62
   174
100
AcDbLine
 10
323.423472
 20
76.11993
 30
0.0
 11
327.423046
 21
76.11993
 31
0.0
  0
LINE
  5
C9
100
AcDbEntity
  8
0
  6
HIDDEN
 62
   174
100
AcDbLine
 10
259.427289
 20
76.11993
 30
0.0
 11
263.426863
 21
76.11993
 31
0.0
  0
ARC
  5
CA
100
AcDbEntity
  8
0
  6
Continuous
 62
   174
100
AcDbCircle
 10
259.443017
 20
128.51993
 30
0.0
 40
5.0
100
AcDbArc
 50
-267.93182
 51
-92.06818
  0
LINE
  5
CB
100
AcDbEntity
  8
0
  6
HIDDEN
 62
   174
100
AcDbLine
 10
554.37122
 20
176.51993
 30
0.0
 11
547.443017
 21
164.51993
 31
0.0
  0
LINE
  5
CC
100
AcDbEntity
  8
0
  6
HIDDEN
 62
   174
100
AcDbLine
 10
246.618444
 20
164.51993
 30
0.0
 11
547.443017
 21
164.51993
 31
0.0
  0
LINE
  5
CD
100
AcDbEntity
  8
0
  6
HIDDEN
 62
   174
100
AcDbLine
 10
246.618444
 20
164.51993
 30
0.0
 11
243.443017
 21
159.01993
 31
0.0
  0
ARC
  5
CE
100
AcDbEntity
  8
0
  6
Continuous
 62
   174
100
AcDbCircle
 10
323.443017
 20
128.51993
 30
0.0
 40
5.0
100
AcDbArc
 50
-90.0
 51
-87.93182
  0
ARC
  5
CF
100
AcDbEntity
  8
0
  6
Continuous
 62
   174
100
AcDbCircle
 10
411.443017
 20
128.51993
 30
0.0
 40
6.0
100
AcDbArc
 50
-270.0
 51
-90.0
  0
ARC
  5
D0
100
AcDbEntity
  8
0
  6
Continuous
 62
   174
100
AcDbCircle
 10
563.443017
 20
176.51993
 30
0.0
 40
4.1
100
AcDbArc
 50
112.96709
 51
270.0
  0
ARC
  5
D1
100
AcDbEntity
  8
0
  6
Continuous
 62
   174
100
AcDbCircle
 10
499.443017
 20
176.51993
 30
0.0
 40
4.1
100
AcDbArc
 50
62.919587
 51
90.0
  0
LINE
  5
D2
100
AcDbEntity
  8
0
  6
Continuous
 62
   174
100
AcDbLine
 10
479.443017
 20
92.51993
 30
0.0
 11
479.443017
 21
76.11993
 31
0.0
  0
LINE
  5
D3
100
AcDbEntity
  8
0
  6
Continuous
 62
   174
100
AcDbLine
 10
323.16301
 20
76.11993
 30
0.0
 11
339.68283
 21
76.11993
 31
0.0
  0
LINE
  5
D4
100
AcDbEntity
  8
0
  6
Continuous
 62
   174
100
AcDbLine
 10
515.150958
 20
76.11993
 30
0.0
 11
531.670778
 21
76.11993
 31
0.0
  0
LINE
  5
D5
100
AcDbEntity
  8
0
  6
Continuous
 62
   174
100
AcDbLine
 10
383.443017
 20
76.11993
 30
0.0
 11
383.443017
 21
71.31993
 31
0.0
  0
LINE
  5
D6
100
AcDbEntity
  8
0
  6
Continuous
 62
   174
100
AcDbLine
 10
343.443017
 20
76.11993
 30
0.0
 11
343.443017
 21
71.31993
 31
0.0
  0
LINE
  5
D7
100
AcDbEntity
  8
0
  6
HIDDEN
 62
   174
100
AcDbLine
 10
468.404251
 20
76.11993
 30
0.0
 11
450.42572
 21
76.11993
 31
0.0
  0
ARC
  5
D8
100
AcDbEntity
  8
0
  6
Continuous
 62
   174
100
AcDbCircle
 10
515.443017
 20
128.51993
 30
0.0
 40
4.1
100
AcDbArc
 50
90.0
 51
121.943068
  0
ARC
  5
D9
100
AcDbEntity
  8
0
  6
Continuous
 62
   174
100
AcDbCircle
 10
475.443017
 20
128.51993
 30
0.0
 40
6.0
100
AcDbArc
 50
-90.0
 51
90.0
  0
LINE
  5
DA
100
AcDbEntity
  8
0
  6
HIDDEN
 62
   174
100
AcDbLine
 10
515.41142
 20
76.11993
 30
0.0
 11
519.410994
 21
76.11993
 31
0.0
  0
LINE
  5
DB
100
AcDbEntity
  8
0
  6
HIDDEN
 62
   174
100
AcDbLine
 10
579.443017
 20
146.115866
 30
0.0
 11
579.443017
 21
111.117643
 31
0.0
  0
ARC
  5
DC
100
AcDbEntity
  8
0
  6
Continuous
 62
   174
100
AcDbCircle
 10
227.443017
 20
128.51993
 30
0.0
 40
9.0
100
AcDbArc
 50
-90.0
 51
90.0
  0
LINE
  5
DD
100
AcDbEntity
  8
0
  6
Continuous
 62
   174
100
AcDbLine
 10
279.443017
 20
76.11993
 30
0.0
 11
279.443017
 21
71.31993
 31
0.0
  0
LINE
  5
DE
100
AcDbEntity
  8
0
  6
Continuous
 62
   174
100
AcDbLine
 10
479.413455
 20
71.31993
 30
0.0
 11
472.53977
 21
71.31993
 31
0.0
  0
LINE
  5
DF
100
AcDbEntity
  8
0
  6
Continuous
 62
   174
100
AcDbLine
 10
344.547404
 20
71.31993
 30
0.0
 11
318.298436
 21
71.31993
 31
0.0
  0
LINE
  5
E0
100
AcDbEntity
  8
0
  6
Continuous
 62
   174
100
AcDbLine
 10
275.686647
 20
65.31993
 30
0.0
 11
259.166827
 21
65.31993
 31
0.0
  0
ARC
  5
E1
100
AcDbEntity
  8
0
  6
Continuous
 62
   174
100
AcDbCircle
 10
563.443017
 20
176.51993
 30
0.0
 40
5.0
100
AcDbArc
 50
-87.622179
 51
28.824842
  0
LINE
  5
E2
100
AcDbEntity
  8
0
  6
Continuous
 62
   174
100
AcDbLine
 10
543.443017
 20
71.31993
 30
0.0
 11
543.443017
 21
65.31993
 31
0.0
  0
ARC
  5
E3
100
AcDbEntity
  8
0
  6
Continuous
 62
   174
100
AcDbCircle
 10
307.443017
 20
176.51993
 30
0.0
 40
5.0
100
AcDbArc
 50
-90.0
 51
-87.93182
  0
ARC
  5
E4
100
AcDbEntity
  8
0
  6
Continuous
 62
   174
100
AcDbCircle
 10
499.443017
 20
176.51993
 30
0.0
 40
4.1
100
AcDbArc
 50
242.919587
 51
270.0
  0
LINE
  5
E5
100
AcDbEntity
  8
0
  6
HIDDEN
 62
   174
100
AcDbLine
 10
275.443017
 20
140.616076
 30
0.0
 11
275.443017
 21
116.617433
 31
0.0
  0
LINE
  5
E6
100
AcDbEntity
  8
0
  6
Continuous
 62
   174
100
AcDbLine
 10
387.159193
 20
76.11993
 30
0.0
 11
403.678412
 21
76.11993
 31
0.0
  0
LINE
  5
E7
100
AcDbEntity
  8
0
  6
HIDDEN
 62
   174
100
AcDbLine
 10
391.419229
 20
76.11993
 30
0.0
 11
399.418376
 21
76.11993
 31
0.0
  0
LINE
  5
E8
100
AcDbEntity
  8
0
  6
Continuous
 62
   174
100
AcDbLine
 10
415.417873
 20
71.31993
 30
0.0
 11
408.543587
 21
71.31993
 31
0.0
  0
ARC
  5
E9
100
AcDbEntity
  8
0
  6
Continuous
 62
   174
100
AcDbCircle
 10
451.443017
 20
128.51993
 30
0.0
 40
4.1
100
AcDbArc
 50
270.0
 51
301.943068
  0
ARC
  5
EA
100
AcDbEntity
  8
0
  6
Continuous
 62
   174
100
AcDbCircle
 10
307.443017
 20
176.51993
 30
0.0
 40
4.1
100
AcDbArc
 50
90.0
 51
270.0
  0
LINE
  5
EB
100
AcDbEntity
  8
0
  6
Continuous
 62
   174
100
AcDbLine
 10
351.42169
 20
65.31993
 30
0.0
 11
339.68283
 21
65.31993
 31
0.0
  0
ARC
  5
EC
100
AcDbEntity
  8
0
  6
Continuous
 62
   174
100
AcDbCircle
 10
347.443017
 20
128.51993
 30
0.0
 40
6.0
100
AcDbArc
 50
-270.0
 51
-90.0
  0
ARC
  5
ED
100
AcDbEntity
  8
0
  6
Continuous
 62
   174
100
AcDbCircle
 10
451.443017
 20
128.51993
 30
0.0
 40
4.1
100
AcDbArc
 50
32.011773
 51
62.919587
  0
LINE
  5
EE
100
AcDbEntity
  8
0
  6
Continuous
 62
   174
100
AcDbLine
 10
439.443017
 20
92.51993
 30
0.0
 11
439.443017
 21
76.11993
 31
0.0
  0
LINE
  5
EF
100
AcDbEntity
  8
0
  6
HIDDEN
 62
   174
100
AcDbLine
 10
275.686647
 20
92.51993
 30
0.0
 11
287.425507
 21
92.51993
 31
0.0
  0
ARC
  5
F0
100
AcDbEntity
  8
0
  6
Continuous
 62
   174
100
AcDbCircle
 10
227.443017
 20
128.51993
 30
0.0
 40
9.0
100
AcDbArc
 50
90.0
 51
270.0
  0
LINE
  5
F1
100
AcDbEntity
  8
0
  6
HIDDEN
 62
   174
100
AcDbLine
 10
263.426863
 20
76.11993
 30
0.0
 11
271.426611
 21
76.11993
 31
0.0
  0
LINE
  5
F2
100
AcDbEntity
  8
0
  6
Continuous
 62
   174
100
AcDbLine
 10
319.443017
 20
76.11993
 30
0.0
 11
319.443017
 21
71.31993
 31
0.0
  0
LINE
  5
F3
100
AcDbEntity
  8
0
  6
HIDDEN
 62
   174
100
AcDbLine
 10
587.443017
 20
109.157858
 30
0.0
 11
587.443017
 21
148.075651
 31
0.0
  0
LINE
  5
F4
100
AcDbEntity
  8
0
  6
Continuous
 62
   174
100
AcDbLine
 10
415.443017
 20
71.31993
 30
0.0
 11
415.443017
 21
65.31993
 31
0.0
  0
LINE
  5
F5
100
AcDbEntity
  8
0
  6
HIDDEN
 62
   174
100
AcDbLine
 10
323.423472
 20
76.11993
 30
0.0
 11
327.423046
 21
76.11993
 31
0.0
  0
ARC
  5
F6
100
AcDbEntity
  8
0
  6
Continuous
 62
   174
100
AcDbCircle
 10
563.443017
 20
176.51993
 30
0.0
 40
4.1
100
AcDbArc
 50
90.0
 51
112.96709
  0
ARC
  5
F7
100
AcDbEntity
  8
0
  6
Continuous
 62
   174
100
AcDbCircle
 10
451.443017
 20
128.51993
 30
0.0
 40
4.1
100
AcDbArc
 50
90.0
 51
121.943068
  0
ARC
  5
F8
100
AcDbEntity
  8
0
  6
Continuous
 62
   174
100
AcDbCircle
 10
259.443017
 20
128.51993
 30
0.0
 40
4.1
100
AcDbArc
 50
69.389821
 51
90.0
  0
LINE
  5
F9
100
AcDbEntity
  8
0
  6
HIDDEN
 62
   174
100
AcDbLine
 10
451.155376
 20
92.51993
 30
0.0
 11
467.674595
 21
92.51993
 31
0.0
  0
LINE
  5
FA
100
AcDbEntity
  8
0
  6
Continuous
 62
   174
100
AcDbLine
 10
408.543587
 20
76.11993
 30
0.0
 11
415.417873
 21
76.11993
 31
0.0
  0
LINE
  5
FB
100
AcDbEntity
  8
0
  6
Continuous
 62
   174
100
AcDbLine
 10
503.443017
 20
71.31993
 30
0.0
 11
503.443017
 21
65.31993
 31
0.0
  0
ARC
  5
FC
100
AcDbEntity
  8
0
  6
Continuous
 62
   174
100
AcDbCircle
 10
371.443017
 20
176.51993
 30
0.0
 40
5.0
100
AcDbArc
 50
-270.0
 51
-267.93182
  0
ARC
  5
FD
100
AcDbEntity
  8
0
  6
Continuous
 62
   174
100
AcDbCircle
 10
307.443017
 20
176.51993
 30
0.0
 40
5.0
100
AcDbArc
 50
-267.93182
 51
-92.06818
  0
ARC
  5
FE
100
AcDbEntity
  8
0
  6
Continuous
 62
   174
100
AcDbCircle
 10
307.443017
 20
176.51993
 30
0.0
 40
4.1
100
AcDbArc
 50
270.0
 51
290.610179
  0
LINE
  5
FF
100
AcDbEntity
  8
0
  6
Continuous
 62
   174
100
AcDbLine
 10
375.443017
 20
92.51993
 30
0.0
 11
375.443017
 21
76.11993
 31
0.0
  0
LINE
  5
100
100
AcDbEntity
  8
0
  6
Continuous
 62
   174
100
AcDbLine
 10
275.686647
 20
76.11993
 30
0.0
 11
277.426272
 21
76.11993
 31
0.0
  0
LINE
  5
101
100
AcDbEntity
  8
0
  6
Continuous
 62
   174
100
AcDbLine
 10
510.286384
 20
76.11993
 30
0.0
 11
515.150958
 21
76.11993
 31
0.0
  0
LINE
  5
102
100
AcDbEntity
  8
0
  6
HIDDEN
 62
   174
100
AcDbLine
 10
519.410994
 20
76.11993
 30
0.0
 11
527.410742
 21
76.11993
 31
0.0
  0
LINE
  5
103
100
AcDbEntity
  8
0
  6
Continuous
 62
   174
100
AcDbLine
 10
471.443017
 20
76.11993
 30
0.0
 11
471.443017
 21
71.31993
 31
0.0
  0
LINE
  5
104
100
AcDbEntity
  8
0
  6
HIDDEN
 62
   174
100
AcDbLine
 10
471.414308
 20
76.11993
 30
0.0
 11
468.404251
 21
76.11993
 31
0.0
  0
LINE
  5
105
100
AcDbEntity
  8
0
  6
HIDDEN
 62
   174
100
AcDbLine
 10
322.433354
 20
76.11993
 30
0.0
 11
319.423297
 21
76.11993
 31
0.0
  0
ARC
  5
106
100
AcDbEntity
  8
0
  6
Continuous
 62
   174
100
AcDbCircle
 10
563.443017
 20
176.51993
 30
0.0
 40
5.0
100
AcDbArc
 50
-270.0
 51
-267.622179
  0
LINE
  5
107
100
AcDbEntity
  8
0
  6
Continuous
 62
   174
100
AcDbLine
 10
318.298436
 20
76.11993
 30
0.0
 11
323.16301
 21
76.11993
 31
0.0
  0
LINE
  5
108
100
AcDbEntity
  8
0
  6
Continuous
 62
   174
100
AcDbLine
 10
287.425507
 20
65.31993
 30
0.0
 11
275.686647
 21
65.31993
 31
0.0
  0
ARC
  5
109
100
AcDbEntity
  8
0
  6
Continuous
 62
   174
100
AcDbCircle
 10
307.443017
 20
176.51993
 30
0.0
 40
5.0
100
AcDbArc
 50
-87.93182
 51
28.774077
  0
ARC
  5
10A
100
AcDbEntity
  8
0
  6
Continuous
 62
   174
100
AcDbCircle
 10
499.443017
 20
176.51993
 30
0.0
 40
5.0
100
AcDbArc
 50
-270.0
 51
-267.622179
  0
ARC
  5
10B
100
AcDbEntity
  8
0
  6
Continuous
 62
   174
100
AcDbCircle
 10
435.443017
 20
176.51993
 30
0.0
 40
4.1
100
AcDbArc
 50
67.03291
 51
90.0
  0
LINE
  5
10C
100
AcDbEntity
  8
0
  6
Continuous
 62
   174
100
AcDbLine
 10
351.443017
 20
71.31993
 30
0.0
 11
351.443017
 21
65.31993
 31
0.0
  0
LINE
  5
10D
100
AcDbEntity
  8
0
  6
Continuous
 62
   174
100
AcDbLine
 10
255.443017
 20
76.11993
 30
0.0
 11
255.443017
 21
71.31993
 31
0.0
  0
LINE
  5
10E
100
AcDbEntity
  8
0
  6
Continuous
 62
   174
100
AcDbLine
 10
543.409638
 20
65.31993
 30
0.0
 11
531.670778
 21
65.31993
 31
0.0
  0
ARC
  5
10F
100
AcDbEntity
  8
0
  6
Continuous
 62
   174
100
AcDbCircle
 10
411.443017
 20
128.51993
 30
0.0
 40
6.0
100
AcDbArc
 50
-90.0
 51
90.0
  0
ARC
  5
110
100
AcDbEntity
  8
0
  6
Continuous
 62
   174
100
AcDbCircle
 10
499.443017
 20
176.51993
 30
0.0
 40
4.1
100
AcDbArc
 50
212.011773
 51
242.919587
  0
LINE
  5
111
100
AcDbEntity
  8
0
  6
Continuous
 62
   174
100
AcDbLine
 10
382.294018
 20
76.11993
 30
0.0
 11
387.159193
 21
76.11993
 31
0.0
  0
LINE
  5
112
100
AcDbEntity
  8
0
  6
Continuous
 62
   174
100
AcDbLine
 10
447.443017
 20
76.11993
 30
0.0
 11
447.443017
 21
71.31993
 31
0.0
  0
LINE
  5
113
100
AcDbEntity
  8
0
  6
Continuous
 62
   174
100
AcDbLine
 10
351.42169
 20
71.31993
 30
0.0
 11
344.547404
 21
71.31993
 31
0.0
  0
LINE
  5
114
100
AcDbEntity
  8
0
  6
Continuous
 62
   174
100
AcDbLine
 10
451.155376
 20
65.31993
 30
0.0
 11
439.415915
 21
65.31993
 31
0.0
  0
ARC
  5
115
100
AcDbEntity
  8
0
  6
Continuous
 62
   174
100
AcDbCircle
 10
323.443017
 20
128.51993
 30
0.0
 40
4.1
100
AcDbArc
 50
110.610179
 51
270.0
  0
ARC
  5
116
100
AcDbEntity
  8
0
  6
Continuous
 62
   174
100
AcDbCircle
 10
475.443017
 20
128.51993
 30
0.0
 40
6.0
100
AcDbArc
 50
-270.0
 51
-90.0
  0
ARC
  5
117
100
AcDbEntity
  8
0
  6
Continuous
 62
   174
100
AcDbCircle
 10
499.443017
 20
176.51993
 30
0.0
 40
4.1
100
AcDbArc
 50
32.011773
 51
62.919587
  0
LINE
  5
118
100
AcDbEntity
  8
0
  6
HIDDEN
 62
   174
100
AcDbLine
 10
271.426611
 20
76.11993
 30
0.0
 11
275.426185
 21
76.11993
 31
0.0
  0
LINE
  5
119
100
AcDbEntity
  8
0
  6
Continuous
 62
   174
100
AcDbLine
 10
407.443017
 20
76.11993
 30
0.0
 11
407.443017
 21
71.31993
 31
0.0
  0
LINE
  5
11A
100
AcDbEntity
  8
0
  6
Continuous
 62
   174
100
AcDbLine
 10
479.443017
 20
92.51993
 30
0.0
 11
479.443017
 21
76.11993
 31
0.0
  0
LINE
  5
11B
100
AcDbEntity
  8
0
  6
HIDDEN
 62
   174
100
AcDbLine
 10
386.429537
 20
76.11993
 30
0.0
 11
383.419481
 21
76.11993
 31
0.0
  0
LINE
  5
11C
100
AcDbEntity
  8
0
  6
HIDDEN
 62
   174
100
AcDbLine
 10
340.411885
 20
76.11993
 30
0.0
 11
325.422958
 21
76.11993
 31
0.0
  0
LINE
  5
11D
100
AcDbEntity
  8
0
  6
HIDDEN
 62
   174
100
AcDbLine
 10
261.427377
 20
76.11993
 30
0.0
 11
258.437171
 21
76.11993
 31
0.0
  0
ARC
  5
11E
100
AcDbEntity
  8
0
  6
Continuous
 62
   174
100
AcDbCircle
 10
563.443017
 20
176.51993
 30
0.0
 40
4.1
100
AcDbArc
 50
67.03291
 51
90.0
  0
ARC
  5
11F
100
AcDbEntity
  8
0
  6
Continuous
 62
   174
100
AcDbCircle
 10
347.443017
 20
176.51993
 30
0.0
 40
6.0
100
AcDbArc
 50
-90.0
 51
90.0
  0
ARC
  5
120
100
AcDbEntity
  8
0
  6
Continuous
 62
   174
100
AcDbCircle
 10
451.443017
 20
128.51993
 30
0.0
 40
4.1
100
AcDbArc
 50
0.0
 51
32.011773
  0
LINE
  5
121
100
AcDbEntity
  8
0
  6
Continuous
 62
   174
100
AcDbLine
 10
619.443017
 20
92.51993
 30
0.0
 11
619.443017
 21
212.51993
 31
0.0
  0
LINE
  5
122
100
AcDbEntity
  8
0
  6
HIDDEN
 62
   174
100
AcDbLine
 10
587.443017
 20
147.97993
 30
0.0
 11
619.443017
 21
147.97993
 31
0.0
  0
LINE
  5
123
100
AcDbEntity
  8
0
  6
HIDDEN
 62
   174
100
AcDbLine
 10
576.267591
 20
116.617433
 30
0.0
 11
576.267591
 21
140.616076
 31
0.0
  0
LINE
  5
124
100
AcDbEntity
  8
0
  6
HIDDEN
 62
   174
100
AcDbLine
 10
259.166827
 20
92.51993
 30
0.0
 11
275.686647
 21
92.51993
 31
0.0
  0
LINE
  5
125
100
AcDbEntity
  8
0
  6
HIDDEN
 62
   174
100
AcDbLine
 10
319.423297
 20
71.31993
 30
0.0
 11
343.421941
 21
71.31993
 31
0.0
  0
ARC
  5
126
100
AcDbEntity
  8
0
  6
Continuous
 62
   174
100
AcDbCircle
 10
539.443017
 20
128.51993
 30
0.0
 40
6.0
100
AcDbArc
 50
-90.0
 51
90.0
  0
LINE
  5
127
100
AcDbEntity
  8
0
  6
Continuous
 62
   174
100
AcDbLine
 10
375.443017
 20
71.31993
 30
0.0
 11
375.443017
 21
65.31993
 31
0.0
  0
LINE
  5
128
100
AcDbEntity
  8
0
  6
HIDDEN
 62
   174
100
AcDbLine
 10
383.419481
 20
71.31993
 30
0.0
 11
407.418124
 21
71.31993
 31
0.0
  0
ARC
  5
129
100
AcDbEntity
  8
0
  6
Continuous
 62
   174
100
AcDbCircle
 10
515.443017
 20
128.51993
 30
0.0
 40
4.1
100
AcDbArc
 50
242.919587
 51
270.0
  0
ARC
  5
12A
100
AcDbEntity
  8
0
  6
Continuous
 62
   174
100
AcDbCircle
 10
323.443017
 20
128.51993
 30
0.0
 40
4.1
100
AcDbArc
 50
69.389821
 51
90.0
  0
LINE
  5
12B
100
AcDbEntity
  8
0
  6
HIDDEN
 62
   174
100
AcDbLine
 10
439.415915
 20
92.51993
 30
0.0
 11
451.155376
 21
92.51993
 31
0.0
  0
LINE
  5
12C
100
AcDbEntity
  8
0
  6
Continuous
 62
   174
100
AcDbLine
 10
311.443017
 20
71.31993
 30
0.0
 11
311.443017
 21
65.31993
 31
0.0
  0
LINE
  5
12D
100
AcDbEntity
  8
0
  6
HIDDEN
 62
   174
100
AcDbLine
 10
451.415237
 20
76.11993
 30
0.0
 11
455.415412
 21
76.11993
 31
0.0
  0
LINE
  5
12E
100
AcDbEntity
  8
0
  6
HIDDEN
 62
   174
100
AcDbLine
 10
527.410742
 20
76.11993
 30
0.0
 11
531.410316
 21
76.11993
 31
0.0
  0
LINE
  5
12F
100
AcDbEntity
  8
0
  6
Continuous
 62
   174
100
AcDbLine
 10
515.150958
 20
65.31993
 30
0.0
 11
503.412098
 21
65.31993
 31
0.0
  0
ARC
  5
130
100
AcDbEntity
  8
0
  6
Continuous
 62
   174
100
AcDbCircle
 10
259.443017
 20
128.51993
 30
0.0
 40
4.1
100
AcDbArc
 50
-90.0
 51
69.389821
  0
LINE
  5
131
100
AcDbEntity
  8
0
  6
HIDDEN
 62
   174
100
AcDbLine
 10
576.267591
 20
116.617433
 30
0.0
 11
576.267591
 21
140.616076
 31
0.0
  0
LINE
  5
132
100
AcDbEntity
  8
0
  6
Continuous
 62
   174
100
AcDbLine
 10
259.166827
 20
76.11993
 30
0.0
 11
275.686647
 21
76.11993
 31
0.0
  0
LINE
  5
133
100
AcDbEntity
  8
0
  6
Continuous
 62
   174
100
AcDbLine
 10
311.42415
 20
76.11993
 30
0.0
 11
318.298436
 21
76.11993
 31
0.0
  0
LINE
  5
134
100
AcDbEntity
  8
0
  6
Continuous
 62
   174
100
AcDbLine
 10
503.412098
 20
76.11993
 30
0.0
 11
510.286384
 21
76.11993
 31
0.0
  0
LINE
  5
135
100
AcDbEntity
  8
0
  6
Continuous
 62
   174
100
AcDbLine
 10
479.443017
 20
71.31993
 30
0.0
 11
479.443017
 21
65.31993
 31
0.0
  0
LINE
  5
136
100
AcDbEntity
  8
0
  6
Continuous
 62
   174
100
AcDbLine
 10
287.443017
 20
71.31993
 30
0.0
 11
287.443017
 21
65.31993
 31
0.0
  0
LINE
  5
137
100
AcDbEntity
  8
0
  6
Continuous
 62
   174
100
AcDbLine
 10
447.443017
 20
76.11993
 30
0.0
 11
447.443017
 21
71.31993
 31
0.0
  0
LINE
  5
138
100
AcDbEntity
  8
0
  6
Continuous
 62
   174
100
AcDbLine
 10
510.286384
 20
71.31993
 30
0.0
 11
503.412098
 21
71.31993
 31
0.0
  0
ARC
  5
139
100
AcDbEntity
  8
0
  6
Continuous
 62
   174
100
AcDbCircle
 10
563.443017
 20
176.51993
 30
0.0
 40
5.0
100
AcDbArc
 50
-267.622179
 51
-92.377821
  0
ARC
  5
13A
100
AcDbEntity
  8
0
  6
Continuous
 62
   174
100
AcDbCircle
 10
595.443017
 20
176.51993
 30
0.0
 40
9.0
100
AcDbArc
 50
90.0
 51
270.0
  0
LINE
  5
13B
100
AcDbEntity
  8
0
  6
HIDDEN
 62
   174
100
AcDbLine
 10
327.423046
 20
76.11993
 30
0.0
 11
335.422794
 21
76.11993
 31
0.0
  0
LINE
  5
13C
100
AcDbEntity
  8
0
  6
Continuous
 62
   174
100
AcDbLine
 10
254.302253
 20
71.31993
 30
0.0
 11
247.427967
 21
71.31993
 31
0.0
  0
ARC
  5
13D
100
AcDbEntity
  8
0
  6
Continuous
 62
   174
100
AcDbCircle
 10
499.443017
 20
176.51993
 30
0.0
 40
5.0
100
AcDbArc
 50
-90.0
 51
-87.622179
  0
LINE
  5
13E
100
AcDbEntity
  8
0
  6
HIDDEN
 62
   174
100
AcDbLine
 10
619.443017
 20
146.115866
 30
0.0
 11
619.443017
 21
111.117643
 31
0.0
  0
LINE
  5
13F
100
AcDbEntity
  8
0
  6
Continuous
 62
   174
100
AcDbLine
 10
472.53977
 20
76.11993
 30
0.0
 11
479.413455
 21
76.11993
 31
0.0
  0
LINE
  5
140
100
AcDbEntity
  8
0
  6
Continuous
 62
   174
100
AcDbLine
 10
343.443017
 20
76.11993
 30
0.0
 11
343.443017
 21
71.31993
 31
0.0
  0
LINE
  5
141
100
AcDbEntity
  8
0
  6
HIDDEN
 62
   174
100
AcDbLine
 10
514.421903
 20
76.11993
 30
0.0
 11
511.411847
 21
76.11993
 31
0.0
  0
ARC
  5
142
100
AcDbEntity
  8
0
  6
Continuous
 62
   174
100
AcDbCircle
 10
371.443017
 20
176.51993
 30
0.0
 40
5.0
100
AcDbArc
 50
-267.93182
 51
-92.06818
  0
ARC
  5
143
100
AcDbEntity
  8
0
  6
Continuous
 62
   174
100
AcDbCircle
 10
499.443017
 20
176.51993
 30
0.0
 40
4.1
100
AcDbArc
 50
180.0
 51
212.011773
  0
LINE
  5
144
100
AcDbEntity
  8
0
  6
HIDDEN
 62
   174
100
AcDbLine
 10
403.678412
 20
92.51993
 30
0.0
 11
415.417873
 21
92.51993
 31
0.0
  0
LINE
  5
145
100
AcDbEntity
  8
0
  6
HIDDEN
 62
   174
100
AcDbLine
 10
531.670778
 20
92.51993
 30
0.0
 11
543.409638
 21
92.51993
 31
0.0
  0
LINE
  5
146
100
AcDbEntity
  8
0
  6
Continuous
 62
   174
100
AcDbLine
 10
375.420334
 20
76.11993
 30
0.0
 11
382.294018
 21
76.11993
 31
0.0
  0
LINE
  5
147
100
AcDbEntity
  8
0
  6
Continuous
 62
   174
100
AcDbLine
 10
405.418037
 20
76.11993
 30
0.0
 11
408.543587
 21
76.11993
 31
0.0
  0
LINE
  5
148
100
AcDbEntity
  8
0
  6
HIDDEN
 62
   174
100
AcDbLine
 10
343.421941
 20
76.11993
 30
0.0
 11
340.411885
 21
76.11993
 31
0.0
  0
LINE
  5
149
100
AcDbEntity
  8
0
  6
HIDDEN
 62
   174
100
AcDbLine
 10
276.416303
 20
76.11993
 30
0.0
 11
261.427377
 21
76.11993
 31
0.0
  0
ARC
  5
14A
100
AcDbEntity
  8
0
  6
Continuous
 62
   174
100
AcDbCircle
 10
499.443017
 20
176.51993
 30
0.0
 40
5.0
100
AcDbArc
 50
-267.622179
 51
-92.377821
  0
ARC
  5
14B
100
AcDbEntity
  8
0
  6
Continuous
 62
   174
100
AcDbCircle
 10
411.443017
 20
176.51993
 30
0.0
 40
6.0
100
AcDbArc
 50
-270.0
 51
-90.0
  0
ARC
  5
14C
100
AcDbEntity
  8
0
  6
Continuous
 62
   174
100
AcDbCircle
 10
323.443017
 20
128.51993
 30
0.0
 40
4.1
100
AcDbArc
 50
90.0
 51
110.610179
  0
ARC
  5
14D
100
AcDbEntity
  8
0
  6
Continuous
 62
   174
100
AcDbCircle
 10
499.443017
 20
176.51993
 30
0.0
 40
4.1
100
AcDbArc
 50
0.0
 51
32.011773
  0
LINE
  5
14E
100
AcDbEntity
  8
0
  6
Continuous
 62
   174
100
AcDbLine
 10
619.443017
 20
212.51993
 30
0.0
 11
203.443017
 21
212.51993
 31
0.0
  0
LINE
  5
14F
100
AcDbEntity
  8
0
  6
Continuous
 62
   174
100
AcDbLine
 10
407.443017
 20
76.11993
 30
0.0
 11
407.443017
 21
71.31993
 31
0.0
  0
LINE
  5
150
100
AcDbEntity
  8
0
  6
HIDDEN
 62
   174
100
AcDbLine
 10
325.422958
 20
76.11993
 30
0.0
 11
322.433354
 21
76.11993
 31
0.0
  0
LINE
  5
151
100
AcDbEntity
  8
0
  6
Continuous
 62
   174
100
AcDbLine
 10
387.159193
 20
65.31993
 30
0.0
 11
375.420334
 21
65.31993
 31
0.0
  0
ARC
  5
152
100
AcDbEntity
  8
0
  6
Continuous
 62
   174
100
AcDbCircle
 10
283.443017
 20
128.51993
 30
0.0
 40
6.0
100
AcDbArc
 50
-90.0
 51
90.0
  0
LINE
  5
153
100
AcDbEntity
  8
0
  6
HIDDEN
 62
   174
100
AcDbLine
 10
247.427967
 20
92.51993
 30
0.0
 11
259.166827
 21
92.51993
 31
0.0
  0
LINE
  5
154
100
AcDbEntity
  8
0
  6
Continuous
 62
   174
100
AcDbLine
 10
439.443017
 20
71.31993
 30
0.0
 11
439.443017
 21
65.31993
 31
0.0
  0
LINE
  5
155
100
AcDbEntity
  8
0
  6
Continuous
 62
   174
100
AcDbLine
 10
467.674595
 20
65.31993
 30
0.0
 11
451.155376
 21
65.31993
 31
0.0
  0
ARC
  5
156
100
AcDbEntity
  8
0
  6
Continuous
 62
   174
100
AcDbCircle
 10
451.443017
 20
128.51993
 30
0.0
 40
4.1
100
AcDbArc
 50
-27.012676
 51
0.0
  0
ARC
  5
157
100
AcDbEntity
  8
0
  6
Continuous
 62
   174
100
AcDbCircle
 10
371.443017
 20
176.51993
 30
0.0
 40
4.1
100
AcDbArc
 50
90.0
 51
112.96709
  0
LINE
  5
158
100
AcDbEntity
  8
0
  6
HIDDEN
 62
   174
100
AcDbLine
 10
339.68283
 20
92.51993
 30
0.0
 11
351.42169
 21
92.51993
 31
0.0
  0
LINE
  5
159
100
AcDbEntity
  8
0
  6
Continuous
 62
   174
100
AcDbLine
 10
479.443017
 20
71.31993
 30
0.0
 11
479.443017
 21
65.31993
 31
0.0
  0
ARC
  5
15A
100
AcDbEntity
  8
0
  6
Continuous
 62
   174
100
AcDbCircle
 10
515.443017
 20
128.51993
 30
0.0
 40
4.1
100
AcDbArc
 50
212.011773
 51
242.919587
  0
ARC
  5
15B
100
AcDbEntity
  8
0
  6
Continuous
 62
   174
100
AcDbCircle
 10
435.443017
 20
176.51993
 30
0.0
 40
4.1
100
AcDbArc
 50
-90.0
 51
67.03291
  0
LINE
  5
15C
100
AcDbEntity
  8
0
  6
Continuous
 62
   174
100
AcDbLine
 10
311.443017
 20
92.51993
 30
0.0
 11
311.443017
 21
76.11993
 31
0.0
  0
LINE
  5
15D
100
AcDbEntity
  8
0
  6
HIDDEN
 62
   174
100
AcDbLine
 10
451.415237
 20
92.51993
 30
0.0
 11
467.414734
 21
92.51993
 31
0.0
  0
LINE
  5
15E
100
AcDbEntity
  8
0
  6
HIDDEN
 62
   174
100
AcDbLine
 10
467.443017
 20
92.51993
 30
0.0
 11
467.443017
 21
76.11993
 31
0.0
  0
LINE
  5
15F
100
AcDbEntity
  8
0
  6
HIDDEN
 62
   174
100
AcDbLine
 10
515.443017
 20
92.51993
 30
0.0
 11
515.443017
 21
76.11993
 31
0.0
  0
LINE
  5
160
100
AcDbEntity
  8
0
  6
HIDDEN
 62
   174
100
AcDbLine
 10
407.418124
 20
76.11993
 30
0.0
 11
404.408068
 21
76.11993
 31
0.0
  0
ARC
  5
161
100
AcDbEntity
  8
0
  6
Continuous
 62
   174
100
AcDbCircle
 10
347.443017
 20
176.51993
 30
0.0
 40
6.0
100
AcDbArc
 50
-270.0
 51
-90.0
  0
ARC
  5
162
100
AcDbEntity
  8
0
  6
Continuous
 62
   174
100
AcDbCircle
 10
515.443017
 20
128.51993
 30
0.0
 40
4.1
100
AcDbArc
 50
62.919587
 51
90.0
  0
LINE
  5
163
100
AcDbEntity
  8
0
  6
Continuous
 62
   174
100
AcDbLine
 10
503.443017
 20
92.51993
 30
0.0
 11
503.443017
 21
76.11993
 31
0.0
  0
LINE
  5
164
100
AcDbEntity
  8
0
  6
HIDDEN
 62
   174
100
AcDbLine
 10
576.267591
 20
140.51993
 30
0.0
 11
275.443017
 21
140.51993
 31
0.0
  0
LINE
  5
165
100
AcDbEntity
  8
0
  6
Continuous
 62
   174
100
AcDbLine
 10
254.302253
 20
76.11993
 30
0.0
 11
259.166827
 21
76.11993
 31
0.0
  0
LINE
  5
166
100
AcDbEntity
  8
0
  6
Continuous
 62
   174
100
AcDbLine
 10
247.443017
 20
71.31993
 30
0.0
 11
247.443017
 21
65.31993
 31
0.0
  0
LINE
  5
167
100
AcDbEntity
  8
0
  6
HIDDEN
 62
   174
100
AcDbLine
 10
389.419142
 20
76.11993
 30
0.0
 11
386.429537
 21
76.11993
 31
0.0
  0
ARC
  5
168
100
AcDbEntity
  8
0
  6
Continuous
 62
   174
100
AcDbCircle
 10
539.443017
 20
128.51993
 30
0.0
 40
6.0
100
AcDbArc
 50
-270.0
 51
-90.0
  0
LINE
  5
169
100
AcDbEntity
  8
0
  6
HIDDEN
 62
   174
100
AcDbLine
 10
375.420334
 20
92.51993
 30
0.0
 11
387.159193
 21
92.51993
 31
0.0
  0
LINE
  5
16A
100
AcDbEntity
  8
0
  6
Continuous
 62
   174
100
AcDbLine
 10
344.547404
 20
76.11993
 30
0.0
 11
351.42169
 21
76.11993
 31
0.0
  0
LINE
  5
16B
100
AcDbEntity
  8
0
  6
HIDDEN
 62
   174
100
AcDbLine
 10
335.422794
 20
76.11993
 30
0.0
 11
339.422368
 21
76.11993
 31
0.0
  0
LINE
  5
16C
100
AcDbEntity
  8
0
  6
Continuous
 62
   174
100
AcDbLine
 10
383.443017
 20
76.11993
 30
0.0
 11
383.443017
 21
71.31993
 31
0.0
  0
LINE
  5
16D
100
AcDbEntity
  8
0
  6
Continuous
 62
   174
100
AcDbLine
 10
403.678412
 20
65.31993
 30
0.0
 11
387.159193
 21
65.31993
 31
0.0
  0
ARC
  5
16E
100
AcDbEntity
  8
0
  6
Continuous
 62
   174
100
AcDbCircle
 10
563.443017
 20
176.51993
 30
0.0
 40
5.0
100
AcDbArc
 50
-92.377821
 51
-90.0
  0
ARC
  5
16F
100
AcDbEntity
  8
0
  6
Continuous
 62
   174
100
AcDbCircle
 10
451.443017
 20
128.51993
 30
0.0
 40
4.1
100
AcDbArc
 50
242.919587
 51
270.0
  0
ARC
  5
170
100
AcDbEntity
  8
0
  6
Continuous
 62
   174
100
AcDbCircle
 10
323.443017
 20
128.51993
 30
0.0
 40
4.1
100
AcDbArc
 50
-90.0
 51
69.389821
  0
LINE
  5
171
100
AcDbEntity
  8
0
  6
Continuous
 62
   174
100
AcDbLine
 10
543.443017
 20
92.51993
 30
0.0
 11
543.443017
 21
76.11993
 31
0.0
  0
LINE
  5
172
100
AcDbEntity
  8
0
  6
HIDDEN
 62
   174
100
AcDbLine
 10
279.425758
 20
76.11993
 30
0.0
 11
276.416303
 21
76.11993
 31
0.0
  0
LINE
  5
173
100
AcDbEntity
  8
0
  6
Continuous
 62
   174
100
AcDbLine
 10
536.535954
 20
71.31993
 30
0.0
 11
510.286384
 21
71.31993
 31
0.0
  0
ARC
  5
174
100
AcDbEntity
  8
0
  6
Continuous
 62
   174
100
AcDbCircle
 10
499.443017
 20
176.51993
 30
0.0
 40
5.0
100
AcDbArc
 50
-87.622179
 51
28.824842
  0
ARC
  5
175
100
AcDbEntity
  8
0
  6
Continuous
 62
   174
100
AcDbCircle
 10
499.443017
 20
176.51993
 30
0.0
 40
4.1
100
AcDbArc
 50
152.987324
 51
180.0
  0
ARC
  5
176
100
AcDbEntity
  8
0
  6
Continuous
 62
   174
100
AcDbCircle
 10
595.443017
 20
176.51993
 30
0.0
 40
9.0
100
AcDbArc
 50
-90.0
 51
90.0
  0
LINE
  5
177
100
AcDbEntity
  8
0
  6
Continuous
 62
   174
100
AcDbLine
 10
375.443017
 20
92.51993
 30
0.0
 11
375.443017
 21
76.11993
 31
0.0
  0
LINE
  5
178
100
AcDbEntity
  8
0
  6
HIDDEN
 62
   174
100
AcDbLine
 10
451.443017
 20
92.51993
 30
0.0
 11
451.443017
 21
76.11993
 31
0.0
  0
LINE
  5
179
100
AcDbEntity
  8
0
  6
Continuous
 62
   174
100
AcDbLine
 10
319.443017
 20
76.11993
 30
0.0
 11
319.443017
 21
71.31993
 31
0.0
  0
LINE
  5
17A
100
AcDbEntity
  8
0
  6
Continuous
 62
   174
100
AcDbLine
 10
531.670778
 20
65.31993
 30
0.0
 11
515.150958
 21
65.31993
 31
0.0
  0
ARC
  5
17B
100
AcDbEntity
  8
0
  6
Continuous
 62
   174
100
AcDbCircle
 10
371.443017
 20
176.51993
 30
0.0
 40
4.1
100
AcDbArc
 50
112.96709
 51
270.0
  0
LINE
  5
17C
100
AcDbEntity
  8
0
  6
Continuous
 62
   174
100
AcDbLine
 10
351.443017
 20
92.51993
 30
0.0
 11
351.443017
 21
76.11993
 31
0.0
  0
LINE
  5
17D
100
AcDbEntity
  8
0
  6
HIDDEN
 62
   174
100
AcDbLine
 10
576.267591
 20
140.51993
 30
0.0
 11
275.443017
 21
140.51993
 31
0.0
  0
LINE
  5
17E
100
AcDbEntity
  8
0
  6
HIDDEN
 62
   174
100
AcDbLine
 10
576.267591
 20
116.51993
 30
0.0
 11
275.443017
 21
116.51993
 31
0.0
  0
LINE
  5
17F
100
AcDbEntity
  8
0
  6
HIDDEN
 62
   174
100
AcDbLine
 10
403.443017
 20
92.51993
 30
0.0
 11
403.443017
 21
76.11993
 31
0.0
  0
LINE
  5
180
100
AcDbEntity
  8
0
  6
Continuous
 62
   174
100
AcDbLine
 10
287.443017
 20
71.31993
 30
0.0
 11
287.443017
 21
65.31993
 31
0.0
  0
ARC
  5
181
100
AcDbEntity
  8
0
  6
Continuous
 62
   174
100
AcDbCircle
 10
259.443017
 20
128.51993
 30
0.0
 40
4.1
100
AcDbArc
 50
249.389821
 51
270.0
  0
ARC
  5
182
100
AcDbEntity
  8
0
  6
Continuous
 62
   174
100
AcDbCircle
 10
499.443017
 20
176.51993
 30
0.0
 40
4.1
100
AcDbArc
 50
332.987324
 51
360.0
  0
LINE
  5
183
100
AcDbEntity
  8
0
  6
Continuous
 62
   174
100
AcDbLine
 10
203.443017
 20
212.51993
 30
0.0
 11
203.443017
 21
92.51993
 31
0.0
  0
LINE
  5
184
100
AcDbEntity
  8
0
  6
HIDDEN
 62
   174
100
AcDbLine
 10
531.443017
 20
92.51993
 30
0.0
 11
531.443017
 21
76.11993
 31
0.0
  0
LINE
  5
185
100
AcDbEntity
  8
0
  6
Continuous
 62
   174
100
AcDbLine
 10
511.443017
 20
76.11993
 30
0.0
 11
511.443017
 21
71.31993
 31
0.0
  0
LINE
  5
186
100
AcDbEntity
  8
0
  6
Continuous
 62
   174
100
AcDbLine
 10
280.551221
 20
71.31993
 30
0.0
 11
254.302253
 21
71.31993
 31
0.0
  0
ARC
  5
187
100
AcDbEntity
  8
0
  6
Continuous
 62
   174
100
AcDbCircle
 10
499.443017
 20
176.51993
 30
0.0
 40
5.0
100
AcDbArc
 50
-92.377821
 51
-90.0
  0
LINE
  5
188
100
AcDbEntity
  8
0
  6
Continuous
 62
   174
100
AcDbLine
 10
543.443017
 20
92.51993
 30
0.0
 11
543.443017
 21
76.11993
 31
0.0
  0
LINE
  5
189
100
AcDbEntity
  8
0
  6
HIDDEN
 62
   174
100
AcDbLine
 10
259.427289
 20
92.51993
 30
0.0
 11
275.426185
 21
92.51993
 31
0.0
  0
LINE
  5
18A
100
AcDbEntity
  8
0
  6
HIDDEN
 62
   174
100
AcDbLine
 10
515.150958
 20
92.51993
 30
0.0
 11
531.670778
 21
92.51993
 31
0.0
  0
LINE
  5
18B
100
AcDbEntity
  8
0
  6
Continuous
 62
   174
100
AcDbLine
 10
467.674595
 20
76.11993
 30
0.0
 11
472.53977
 21
76.11993
 31
0.0
  0
LINE
  5
18C
100
AcDbEntity
  8
0
  6
Continuous
 62
   174
100
AcDbLine
 10
439.443017
 20
71.31993
 30
0.0
 11
439.443017
 21
65.31993
 31
0.0
  0
LINE
  5
18D
100
AcDbEntity
  8
0
  6
Continuous
 62
   174
100
AcDbLine
 10
415.443017
 20
71.31993
 30
0.0
 11
415.443017
 21
65.31993
 31
0.0
  0
LINE
  5
18E
100
AcDbEntity
  8
0
  6
Continuous
 62
   174
100
AcDbLine
 10
279.443017
 20
76.11993
 30
0.0
 11
279.443017
 21
71.31993
 31
0.0
  0
LINE
  5
18F
100
AcDbEntity
  8
0
  6
HIDDEN
 62
   174
100
AcDbLine
 10
258.437171
 20
76.11993
 30
0.0
 11
255.427716
 21
76.11993
 31
0.0
  0
LINE
  5
190
100
AcDbEntity
  8
0
  6
Continuous
 62
   174
100
AcDbLine
 10
479.413455
 20
65.31993
 30
0.0
 11
467.674595
 21
65.31993
 31
0.0
  0
ARC
  5
191
100
AcDbEntity
  8
0
  6
Continuous
 62
   174
100
AcDbCircle
 10
411.443017
 20
176.51993
 30
0.0
 40
6.0
100
AcDbArc
 50
-90.0
 51
90.0
  0
ARC
  5
192
100
AcDbEntity
  8
0
  6
Continuous
 62
   174
100
AcDbCircle
 10
515.443017
 20
128.51993
 30
0.0
 40
4.1
100
AcDbArc
 50
180.0
 51
212.011773
  0
ARC
  5
193
100
AcDbEntity
  8
0
  6
Continuous
 62
   174
100
AcDbCircle
 10
515.443017
 20
128.51993
 30
0.0
 40
4.1
100
AcDbArc
 50
0.0
 51
32.011773
  0
ARC
  5
194
100
AcDbEntity
  8
0
  6
Continuous
 62
   174
100
AcDbCircle
 10
307.443017
 20
176.51993
 30
0.0
 40
4.1
100
AcDbArc
 50
69.389821
 51
90.0
  0
LINE
  5
195
100
AcDbEntity
  8
0
  6
HIDDEN
 62
   174
100
AcDbLine
 10
579.443017
 20
146.115866
 30
0.0
 11
579.443017
 21
111.117643
 31
0.0
  0
LINE
  5
196
100
AcDbEntity
  8
0
  6
HIDDEN
 62
   174
100
AcDbLine
 10
576.267591
 20
116.51993
 30
0.0
 11
579.443017
 21
111.01993
 31
0.0
  0
LINE
  5
197
100
AcDbEntity
  8
0
  6
HIDDEN
 62
   174
100
AcDbLine
 10
387.159193
 20
92.51993
 30
0.0
 11
403.678412
 21
92.51993
 31
0.0
  0
LINE
  5
198
100
AcDbEntity
  8
0
  6
HIDDEN
 62
   174
100
AcDbLine
 10
339.443017
 20
92.51993
 30
0.0
 11
339.443017
 21
76.11993
 31
0.0
  0
LINE
  5
199
100
AcDbEntity
  8
0
  6
HIDDEN
 62
   174
100
AcDbLine
 10
387.443017
 20
92.51993
 30
0.0
 11
387.443017
 21
76.11993
 31
0.0
  0
LINE
  5
19A
100
AcDbEntity
  8
0
  6
HIDDEN
 62
   174
100
AcDbLine
 10
515.443017
 20
92.51993
 30
0.0
 11
515.443017
 21
76.11993
 31
0.0
  0
LINE
  5
19B
100
AcDbEntity
  8
0
  6
HIDDEN
 62
   174
100
AcDbLine
 10
455.415412
 20
76.11993
 30
0.0
 11
463.414559
 21
76.11993
 31
0.0
  0
ARC
  5
19C
100
AcDbEntity
  8
0
  6
Continuous
 62
   174
100
AcDbCircle
 10
283.443017
 20
128.51993
 30
0.0
 40
6.0
100
AcDbArc
 50
-270.0
 51
-90.0
  0
LINE
  5
19D
100
AcDbEntity
  8
0
  6
Continuous
 62
   174
100
AcDbLine
 10
415.443017
 20
92.51993
 30
0.0
 11
415.443017
 21
76.11993
 31
0.0
  0
LINE
  5
19E
100
AcDbEntity
  8
0
  6
HIDDEN
 62
   174
100
AcDbLine
 10
576.267591
 20
116.51993
 30
0.0
 11
275.443017
 21
116.51993
 31
0.0
  0
LINE
  5
19F
100
AcDbEntity
  8
0
  6
Continuous
 62
   174
100
AcDbLine
 10
247.427967
 20
76.11993
 30
0.0
 11
254.302253
 21
76.11993
 31
0.0
  0
LINE
  5
1A0
100
AcDbEntity
  8
0
  6
HIDDEN
 62
   174
100
AcDbLine
 10
404.408068
 20
76.11993
 30
0.0
 11
389.419142
 21
76.11993
 31
0.0
  0
LINE
  5
1A1
100
AcDbEntity
  8
0
  6
Continuous
 62
   174
100
AcDbLine
 10
415.417873
 20
65.31993
 30
0.0
 11
403.678412
 21
65.31993
 31
0.0
  0
ARC
  5
1A2
100
AcDbEntity
  8
0
  6
Continuous
 62
   174
100
AcDbCircle
 10
371.443017
 20
176.51993
 30
0.0
 40
5.0
100
AcDbArc
 50
-92.06818
 51
-90.0
  0
ARC
  5
1A3
100
AcDbEntity
  8
0
  6
Continuous
 62
   174
100
AcDbCircle
 10
451.443017
 20
128.51993
 30
0.0
 40
4.1
100
AcDbArc
 50
212.011773
 51
242.919587
  0
ARC
  5
1A4
100
AcDbEntity
  8
0
  6
Continuous
 62
   174
100
AcDbCircle
 10
387.443017
 20
128.51993
 30
0.0
 40
4.1
100
AcDbArc
 50
-90.0
 51
90.0
  0
LINE
  5
1A5
100
AcDbEntity
  8
0
  6
Continuous
 62
   174
100
AcDbLine
 10
311.443017
 20
92.51993
 30
0.0
 11
311.443017
 21
76.11993
 31
0.0
  0
LINE
  5
1A6
100
AcDbEntity
  8
0
  6
HIDDEN
 62
   174
100
AcDbLine
 10
323.16301
 20
92.51993
 30
0.0
 11
339.68283
 21
92.51993
 31
0.0
  0
LINE
  5
1A7
100
AcDbEntity
  8
0
  6
HIDDEN
 62
   174
100
AcDbLine
 10
467.443017
 20
92.51993
 30
0.0
 11
467.443017
 21
76.11993
 31
0.0
  0
LINE
  5
1A8
100
AcDbEntity
  8
0
  6
Continuous
 62
   174
100
AcDbLine
 10
351.443017
 20
71.31993
 30
0.0
 11
351.443017
 21
65.31993
 31
0.0
  0
LINE
  5
1A9
100
AcDbEntity
  8
0
  6
Continuous
 62
   174
100
AcDbLine
 10
247.443017
 20
71.31993
 30
0.0
 11
247.443017
 21
65.31993
 31
0.0
  0
LINE
  5
1AA
100
AcDbEntity
  8
0
  6
Continuous
 62
   174
100
AcDbLine
 10
543.443017
 20
71.31993
 30
0.0
 11
543.443017
 21
65.31993
 31
0.0
  0
ARC
  5
1AB
100
AcDbEntity
  8
0
  6
Continuous
 62
   174
100
AcDbCircle
 10
539.443017
 20
176.51993
 30
0.0
 40
6.0
100
AcDbArc
 50
-90.0
 51
90.0
  0
LINE
  5
1AC
100
AcDbEntity
  8
0
  6
HIDDEN
 62
   174
100
AcDbLine
 10
387.419656
 20
92.51993
 30
0.0
 11
403.418551
 21
92.51993
 31
0.0
  0
ARC
  5
1AD
100
AcDbEntity
  8
0
  6
Continuous
 62
   174
100
AcDbCircle
 10
283.443017
 20
176.51993
 30
0.0
 40
6.0
100
AcDbArc
 50
-90.0
 51
90.0
  0
LINE
  5
1AE
100
AcDbEntity
  8
0
  6
HIDDEN
 62
   174
100
AcDbLine
 10
587.443017
 20
146.01993
 30
0.0
 11
619.443017
 21
146.01993
 31
0.0
  0
LINE
  5
1AF
100
AcDbEntity
  8
0
  6
Continuous
 62
   174
100
AcDbLine
 10
503.443017
 20
92.51993
 30
0.0
 11
503.443017
 21
76.11993
 31
0.0
  0
LINE
  5
1B0
100
AcDbEntity
  8
0
  6
Continuous
 62
   174
100
AcDbLine
 10
536.535954
 20
76.11993
 30
0.0
 11
543.409638
 21
76.11993
 31
0.0
  0
LINE
  5
1B1
100
AcDbEntity
  8
0
  6
HIDDEN
 62
   174
100
AcDbLine
 10
323.443017
 20
92.51993
 30
0.0
 11
323.443017
 21
76.11993
 31
0.0
  0
ARC
  5
1B2
100
AcDbEntity
  8
0
  6
Continuous
 62
   174
100
AcDbCircle
 10
259.443017
 20
128.51993
 30
0.0
 40
4.1
100
AcDbArc
 50
110.610179
 51
249.389821
  0
ARC
  5
1B3
100
AcDbEntity
  8
0
  6
Continuous
 62
   174
100
AcDbCircle
 10
371.443017
 20
176.51993
 30
0.0
 40
4.1
100
AcDbArc
 50
67.03291
 51
90.0
  0
ARC
  5
1B4
100
AcDbEntity
  8
0
  6
Continuous
 62
   174
100
AcDbCircle
 10
499.443017
 20
176.51993
 30
0.0
 40
4.1
100
AcDbArc
 50
121.943068
 51
152.987324
  0
LINE
  5
1B5
100
AcDbEntity
  8
0
  6
HIDDEN
 62
   174
100
AcDbLine
 10
268.514814
 20
128.51993
 30
0.0
 11
275.443017
 21
116.51993
 31
0.0
  0
LINE
  5
1B6
100
AcDbEntity
  8
0
  6
HIDDEN
 62
   174
100
AcDbLine
 10
576.267591
 20
140.51993
 30
0.0
 11
579.443017
 21
146.01993
 31
0.0
  0
LINE
  5
1B7
100
AcDbEntity
  8
0
  6
HIDDEN
 62
   174
100
AcDbLine
 10
275.443017
 20
92.51993
 30
0.0
 11
275.443017
 21
76.11993
 31
0.0
  0
LINE
  5
1B8
100
AcDbEntity
  8
0
  6
HIDDEN
 62
   174
100
AcDbLine
 10
451.443017
 20
92.51993
 30
0.0
 11
451.443017
 21
76.11993
 31
0.0
  0
LINE
  5
1B9
100
AcDbEntity
  8
0
  6
Continuous
 62
   174
100
AcDbLine
 10
375.443017
 20
71.31993
 30
0.0
 11
375.443017
 21
65.31993
 31
0.0
  0
LINE
  5
1BA
100
AcDbEntity
  8
0
  6
Continuous
 62
   174
100
AcDbLine
 10
255.443017
 20
76.11993
 30
0.0
 11
255.443017
 21
71.31993
 31
0.0
  0
LINE
  5
1BB
100
AcDbEntity
  8
0
  6
Continuous
 62
   174
100
AcDbLine
 10
543.409638
 20
71.31993
 30
0.0
 11
536.535954
 21
71.31993
 31
0.0
  0
ARC
  5
1BC
100
AcDbEntity
  8
0
  6
Continuous
 62
   174
100
AcDbCircle
 10
515.443017
 20
128.51993
 30
0.0
 40
4.1
100
AcDbArc
 50
32.011773
 51
62.919587
  0
ARC
  5
1BD
100
AcDbEntity
  8
0
  6
Continuous
 62
   174
100
AcDbCircle
 10
499.443017
 20
176.51993
 30
0.0
 40
4.1
100
AcDbArc
 50
301.943068
 51
332.987324
  0
LINE
  5
1BE
100
AcDbEntity
  8
0
  6
HIDDEN
 62
   174
100
AcDbLine
 10
619.443017
 20
111.01993
 30
0.0
 11
579.443017
 21
111.01993
 31
0.0
  0
LINE
  5
1BF
100
AcDbEntity
  8
0
  6
HIDDEN
 62
   174
100
AcDbLine
 10
587.443017
 20
146.01993
 30
0.0
 11
619.443017
 21
146.01993
 31
0.0
  0
LINE
  5
1C0
100
AcDbEntity
  8
0
  6
HIDDEN
 62
   174
100
AcDbLine
 10
503.412098
 20
92.51993
 30
0.0
 11
515.150958
 21
92.51993
 31
0.0
  0
LINE
  5
1C1
100
AcDbEntity
  8
0
  6
HIDDEN
 62
   174
100
AcDbLine
 10
403.443017
 20
92.51993
 30
0.0
 11
403.443017
 21
76.11993
 31
0.0
  0
LINE
  5
1C2
100
AcDbEntity
  8
0
  6
Continuous
 62
   174
100
AcDbLine
 10
471.443017
 20
76.11993
 30
0.0
 11
471.443017
 21
71.31993
 31
0.0
  0
ARC
  5
1C3
100
AcDbEntity
  8
0
  6
Continuous
 62
   174
100
AcDbCircle
 10
499.443017
 20
176.51993
 30
0.0
 40
4.1
100
AcDbArc
 50
270.0
 51
301.943068
  0
LINE
  5
1C4
100
AcDbEntity
  8
0
  6
HIDDEN
 62
   174
100
AcDbLine
 10
619.443017
 20
146.01993
 30
0.0
 11
579.443017
 21
146.01993
 31
0.0
  0
LINE
  5
1C5
100
AcDbEntity
  8
0
  6
Continuous
 62
   174
100
AcDbLine
 10
341.422455
 20
76.11993
 30
0.0
 11
344.547404
 21
76.11993
 31
0.0
  0
LINE
  5
1C6
100
AcDbEntity
  8
0
  6
HIDDEN
 62
   174
100
AcDbLine
 10
535.410491
 20
76.11993
 30
0.0
 11
532.400434
 21
76.11993
 31
0.0
  0
LINE
  5
1C7
100
AcDbEntity
  8
0
  6
HIDDEN
 62
   174
100
AcDbLine
 10
255.427716
 20
71.31993
 30
0.0
 11
279.425758
 21
71.31993
 31
0.0
  0
ARC
  5
1C8
100
AcDbEntity
  8
0
  6
Continuous
 62
   174
100
AcDbCircle
 10
515.443017
 20
128.51993
 30
0.0
 40
4.1
100
AcDbArc
 50
-27.012676
 51
0.0
  0
LINE
  5
1C9
100
AcDbEntity
  8
0
  6
Continuous
 62
   174
100
AcDbLine
 10
203.443017
 20
92.51993
 30
0.0
 11
619.443017
 21
92.51993
 31
0.0
  0
LINE
  5
1CA
100
AcDbEntity
  8
0
  6
Continuous
 62
   174
100
AcDbLine
 10
287.443017
 20
92.51993
 30
0.0
 11
287.443017
 21
76.11993
 31
0.0
  0
LINE
  5
1CB
100
AcDbEntity
  8
0
  6
Continuous
 62
   174
100
AcDbLine
 10
247.443017
 20
92.51993
 30
0.0
 11
247.443017
 21
76.11993
 31
0.0
  0
LINE
  5
1CC
100
AcDbEntity
  8
0
  6
Continuous
 62
   174
100
AcDbLine
 10
446.290201
 20
71.31993
 30
0.0
 11
439.415915
 21
71.31993
 31
0.0
  0
LINE
  5
1CD
100
AcDbEntity
  8
0
  6
Continuous
 62
   174
100
AcDbLine
 10
323.16301
 20
65.31993
 30
0.0
 11
311.42415
 21
65.31993
 31
0.0
  0
ARC
  5
1CE
100
AcDbEntity
  8
0
  6
Continuous
 62
   174
100
AcDbCircle
 10
515.443017
 20
128.51993
 30
0.0
 40
4.1
100
AcDbArc
 50
152.987324
 51
180.0
  0
LINE
  5
1CF
100
AcDbEntity
  8
0
  6
Continuous
 62
   174
100
AcDbLine
 10
451.155376
 20
76.11993
 30
0.0
 11
467.674595
 21
76.11993
 31
0.0
  0
LINE
  5
1D0
100
AcDbEntity
  8
0
  6
HIDDEN
 62
   174
100
AcDbLine
 10
259.443017
 20
92.51993
 30
0.0
 11
259.443017
 21
76.11993
 31
0.0
  0
LINE
  5
1D1
100
AcDbEntity
  8
0
  6
HIDDEN
 62
   174
100
AcDbLine
 10
387.443017
 20
92.51993
 30
0.0
 11
387.443017
 21
76.11993
 31
0.0
  0
LINE
  5
1D2
100
AcDbEntity
  8
0
  6
HIDDEN
 62
   174
100
AcDbLine
 10
532.400434
 20
76.11993
 30
0.0
 11
514.421903
 21
76.11993
 31
0.0
  0
LINE
  5
1D3
100
AcDbEntity
  8
0
  6
Continuous
 62
   174
100
AcDbLine
 10
382.294018
 20
71.31993
 30
0.0
 11
375.420334
 21
71.31993
 31
0.0
  0
ARC
  5
1D4
100
AcDbEntity
  8
0
  6
Continuous
 62
   174
100
AcDbCircle
 10
371.443017
 20
176.51993
 30
0.0
 40
5.0
100
AcDbArc
 50
-90.0
 51
-87.93182
  0
ARC
  5
1D5
100
AcDbEntity
  8
0
  6
Continuous
 62
   174
100
AcDbCircle
 10
451.443017
 20
128.51993
 30
0.0
 40
4.1
100
AcDbArc
 50
180.0
 51
212.011773
  0
LINE
  5
1D6
100
AcDbEntity
  8
0
  6
HIDDEN
 62
   174
100
AcDbLine
 10
619.443017
 20
146.01993
 30
0.0
 11
579.443017
 21
146.01993
 31
0.0
  0
LINE
  5
1D7
100
AcDbEntity
  8
0
  6
HIDDEN
 62
   174
100
AcDbLine
 10
268.514814
 20
128.51993
 30
0.0
 11
275.443017
 21
140.51993
 31
0.0
  0
LINE
  5
1D8
100
AcDbEntity
  8
0
  6
Continuous
 62
   174
100
AcDbLine
 10
351.443017
 20
92.51993
 30
0.0
 11
351.443017
 21
76.11993
 31
0.0
  0
LINE
  5
1D9
100
AcDbEntity
  8
0
  6
HIDDEN
 62
   174
100
AcDbLine
 10
463.414559
 20
76.11993
 30
0.0
 11
467.414734
 21
76.11993
 31
0.0
  0
ARC
  5
1DA
100
AcDbEntity
  8
0
  6
Continuous
 62
   174
100
AcDbCircle
 10
475.443017
 20
176.51993
 30
0.0
 40
6.0
100
AcDbArc
 50
-270.0
 51
-90.0
  0
LINE
  5
1DB
100
AcDbEntity
  8
0
  6
HIDDEN
 62
   174
100
AcDbLine
 10
619.443017
 20
111.01993
 30
0.0
 11
579.443017
 21
111.01993
 31
0.0
  0
LINE
  5
1DC
100
AcDbEntity
  8
0
  6
HIDDEN
 62
   174
100
AcDbLine
 10
311.42415
 20
92.51993
 30
0.0
 11
323.16301
 21
92.51993
 31
0.0
  0
LINE
  5
1DD
100
AcDbEntity
  8
0
  6
HIDDEN
 62
   174
100
AcDbLine
 10
339.443017
 20
92.51993
 30
0.0
 11
339.443017
 21
76.11993
 31
0.0
  0
LINE
  5
1DE
100
AcDbEntity
  8
0
  6
Continuous
 62
   174
100
AcDbLine
 10
503.443017
 20
71.31993
 30
0.0
 11
503.443017
 21
65.31993
 31
0.0
  0
LINE
  5
1DF
100
AcDbEntity
  8
0
  6
HIDDEN
 62
   174
100
AcDbLine
 10
587.443017
 20
109.05993
 30
0.0
 11
619.443017
 21
109.05993
 31
0.0
  0
LINE
  5
1E0
100
AcDbEntity
  8
0
  6
Continuous
 62
   174
100
AcDbLine
 10
439.415915
 20
76.11993
 30
0.0
 11
446.290201
 21
76.11993
 31
0.0
  0
LINE
  5
1E1
100
AcDbEntity
  8
0
  6
HIDDEN
 62
   174
100
AcDbLine
 10
511.411847
 20
71.31993
 30
0.0
 11
535.410491
 21
71.31993
 31
0.0
  0
ARC
  5
1E2
100
AcDbEntity
  8
0
  6
Continuous
 62
   174
100
AcDbCircle
 10
259.443017
 20
128.51993
 30
0.0
 40
4.1
100
AcDbArc
 50
90.0
 51
110.610179
  0
LINE
  5
1E3
100
AcDbEntity
  8
0
  6
HIDDEN
 62
   174
100
AcDbLine
 10
531.443017
 20
92.51993
 30
0.0
 11
531.443017
 21
76.11993
 31
0.0
  0
LINE
  5
1E4
100
AcDbEntity
  8
0
  6
HIDDEN
 62
   174
100
AcDbLine
 10
450.42572
 20
76.11993
 30
0.0
 11
447.415664
 21
76.11993
 31
0.0
  0
ARC
  5
1E5
100
AcDbEntity
  8
0
  6
Continuous
 62
   174
100
AcDbCircle
 10
307.443017
 20
176.51993
 30
0.0
 40
4.1
100
AcDbArc
 50
-69.389821
 51
69.389821
  0
ARC
  5
1E6
100
AcDbEntity
  8
0
  6
Continuous
 62
   174
100
AcDbCircle
 10
499.443017
 20
176.51993
 30
0.0
 40
4.1
100
AcDbArc
 50
90.0
 51
121.943068
  0
LINE
  5
1E7
100
AcDbEntity
  8
0
  6
Continuous
 62
   174
100
AcDbLine
 10
287.443017
 20
92.51993
 30
0.0
 11
287.443017
 21
76.11993
 31
0.0
  0
LINE
  5
1E8
100
AcDbEntity
  8
0
  6
HIDDEN
 62
   174
100
AcDbLine
 10
515.41142
 20
92.51993
 30
0.0
 11
531.410316
 21
92.51993
 31
0.0
  0
LINE
  5
1E9
100
AcDbEntity
  8
0
  6
HIDDEN
 62
   174
100
AcDbLine
 10
323.443017
 20
92.51993
 30
0.0
 11
323.443017
 21
76.11993
 31
0.0
  0
LINE
  5
1EA
100
AcDbEntity
  8
0
  6
Continuous
 62
   174
100
AcDbLine
 10
535.443017
 20
76.11993
 30
0.0
 11
535.443017
 21
71.31993
 31
0.0
  0
LINE
  5
1EB
100
AcDbEntity
  8
0
  6
HIDDEN
 62
   174
100
AcDbLine
 10
275.443017
 20
92.51993
 30
0.0
 11
275.443017
 21
76.11993
 31
0.0
  0
LINE
  5
1EC
100
AcDbEntity
  8
0
  6
HIDDEN
 62
   174
100
AcDbLine
 10
399.418376
 20
76.11993
 30
0.0
 11
403.418551
 21
76.11993
 31
0.0
  0
ARC
  5
1ED
100
AcDbEntity
  8
0
  6
Continuous
 62
   174
100
AcDbCircle
 10
539.443017
 20
176.51993
 30
0.0
 40
6.0
100
AcDbArc
 50
-270.0
 51
-90.0
  0
ARC
  5
1EE
100
AcDbEntity
  8
0
  6
Continuous
 62
   174
100
AcDbCircle
 10
563.443017
 20
176.51993
 30
0.0
 40
4.1
100
AcDbArc
 50
-90.0
 51
67.03291
  0
ARC
  5
1EF
100
AcDbEntity
  8
0
  6
Continuous
 62
   174
100
AcDbCircle
 10
515.443017
 20
128.51993
 30
0.0
 40
4.1
100
AcDbArc
 50
301.943068
 51
332.987324
  0
LINE
  5
1F0
100
AcDbEntity
  8
0
  6
HIDDEN
 62
   174
100
AcDbLine
 10
576.267591
 20
116.51993
 30
0.0
 11
579.443017
 21
111.01993
 31
0.0
  0
ARC
  5
1F1
100
AcDbEntity
  8
0
  6
Continuous
 62
   174
100
AcDbCircle
 10
283.443017
 20
176.51993
 30
0.0
 40
6.0
100
AcDbArc
 50
-270.0
 51
-90.0
  0
LINE
  5
1F2
100
AcDbEntity
  8
0
  6
HIDDEN
 62
   174
100
AcDbLine
 10
387.419656
 20
76.11993
 30
0.0
 11
391.419229
 21
76.11993
 31
0.0
  0
ARC
  5
1F3
100
AcDbEntity
  8
0
  6
Continuous
 62
   174
100
AcDbCircle
 10
371.443017
 20
176.51993
 30
0.0
 40
5.0
100
AcDbArc
 50
-87.93182
 51
28.774077
  0
ARC
  5
1F4
100
AcDbEntity
  8
0
  6
Continuous
 62
   174
100
AcDbCircle
 10
451.443017
 20
128.51993
 30
0.0
 40
4.1
100
AcDbArc
 50
152.987324
 51
180.0
  0
ARC
  5
1F5
100
AcDbEntity
  8
0
  6
Continuous
 62
   174
100
AcDbCircle
 10
371.443017
 20
176.51993
 30
0.0
 40
4.1
100
AcDbArc
 50
-90.0
 51
67.03291
  0
LINE
  5
1F6
100
AcDbEntity
  8
0
  6
HIDDEN
 62
   174
100
AcDbLine
 10
587.443017
 20
111.01993
 30
0.0
 11
619.443017
 21
111.01993
 31
0.0
  0
LINE
  5
1F7
100
AcDbEntity
  8
0
  6
HIDDEN
 62
   174
100
AcDbLine
 10
587.443017
 20
147.97993
 30
0.0
 11
619.443017
 21
147.97993
 31
0.0
  0
LINE
  5
1F8
100
AcDbEntity
  8
0
  6
Continuous
 62
   174
100
AcDbLine
 10
280.551221
 20
76.11993
 30
0.0
 11
287.425507
 21
76.11993
 31
0.0
  0
LINE
  5
1F9
100
AcDbEntity
  8
0
  6
Continuous
 62
   174
100
AcDbLine
 10
339.68283
 20
76.11993
 30
0.0
 11
341.422455
 21
76.11993
 31
0.0
  0
LINE
  5
1FA
100
AcDbEntity
  8
0
  6
Continuous
 62
   174
100
AcDbLine
 10
531.670778
 20
76.11993
 30
0.0
 11
536.535954
 21
76.11993
 31
0.0
  0
LINE
  5
1FB
100
AcDbEntity
  8
0
  6
HIDDEN
 62
   174
100
AcDbLine
 10
259.443017
 20
92.51993
 30
0.0
 11
259.443017
 21
76.11993
 31
0.0
  0
LINE
  5
1FC
100
AcDbEntity
  8
0
  6
Continuous
 62
   174
100
AcDbLine
 10
535.443017
 20
76.11993
 30
0.0
 11
535.443017
 21
71.31993
 31
0.0
  0
ARC
  5
1FD
100
AcDbEntity
  8
0
  6
Continuous
 62
   174
100
AcDbCircle
 10
515.443017
 20
128.51993
 30
0.0
 40
4.1
100
AcDbArc
 50
121.943068
 51
152.987324
  0
ARC
  5
1FE
100
AcDbEntity
  8
0
  6
Continuous
 62
   174
100
AcDbCircle
 10
347.443017
 20
128.51993
 30
0.0
 40
6.0
100
AcDbArc
 50
-90.0
 51
90.0
  0
LINE
  5
1FF
100
AcDbEntity
  8
0
  6
HIDDEN
 62
   174
100
AcDbLine
 10
587.443017
 20
111.01993
 30
0.0
 11
619.443017
 21
111.01993
 31
0.0
  0
LINE
  5
200
100
AcDbEntity
  8
0
  6
Continuous
 62
   174
100
AcDbLine
 10
446.290201
 20
76.11993
 30
0.0
 11
451.155376
 21
76.11993
 31
0.0
  0
LINE
  5
201
100
AcDbEntity
  8
0
  6
Continuous
 62
   174
100
AcDbLine
 10
247.443017
 20
92.51993
 30
0.0
 11
247.443017
 21
76.11993
 31
0.0
  0
LINE
  5
202
100
AcDbEntity
  8
0
  6
HIDDEN
 62
   174
100
AcDbLine
 10
576.267591
 20
140.51993
 30
0.0
 11
579.443017
 21
146.01993
 31
0.0
  0
LINE
  5
203
100
AcDbEntity
  8
0
  6
Continuous
 62
   174
100
AcDbLine
 10
311.443017
 20
71.31993
 30
0.0
 11
311.443017
 21
65.31993
 31
0.0
  0
ARC
  5
204
100
AcDbEntity
  8
0
  6
Continuous
 62
   174
100
AcDbCircle
 10
387.443017
 20
128.51993
 30
0.0
 40
4.1
100
AcDbArc
 50
90.0
 51
270.0
  0
LINE
  5
205
100
AcDbEntity
  8
0
  6
HIDDEN
 62
   174
100
AcDbLine
 10
587.443017
 20
109.05993
 30
0.0
 11
619.443017
 21
109.05993
 31
0.0
  0
LINE
  5
206
100
AcDbEntity
  8
0
  6
Continuous
 62
   174
100
AcDbLine
 10
439.443017
 20
92.51993
 30
0.0
 11
439.443017
 21
76.11993
 31
0.0
  0
LINE
  5
207
100
AcDbEntity
  8
0
  6
HIDDEN
 62
   174
100
AcDbLine
 10
323.423472
 20
92.51993
 30
0.0
 11
339.422368
 21
92.51993
 31
0.0
  0
LINE
  5
208
100
AcDbEntity
  8
0
  6
Continuous
 62
   174
100
AcDbLine
 10
403.678412
 20
76.11993
 30
0.0
 11
405.418037
 21
76.11993
 31
0.0
  0
LINE
  5
209
100
AcDbEntity
  8
0
  6
Continuous
 62
   174
100
AcDbLine
 10
472.53977
 20
71.31993
 30
0.0
 11
446.290201
 21
71.31993
 31
0.0
  0
LINE
  5
20A
100
AcDbEntity
  8
0
  6
Continuous
 62
   174
100
AcDbLine
 10
408.543587
 20
71.31993
 30
0.0
 11
382.294018
 21
71.31993
 31
0.0
  0
LINE
  5
20B
100
AcDbEntity
  8
0
  6
Continuous
 62
   174
100
AcDbLine
 10
318.298436
 20
71.31993
 30
0.0
 11
311.42415
 21
71.31993
 31
0.0
  0
LINE
  5
20C
100
AcDbEntity
  8
0
  6
Continuous
 62
   174
100
AcDbLine
 10
287.425507
 20
71.31993
 30
0.0
 11
280.551221
 21
71.31993
 31
0.0
  0
LINE
  5
20D
100
AcDbEntity
  8
0
  6
Continuous
 62
   174
100
AcDbLine
 10
339.68283
 20
65.31993
 30
0.0
 11
323.16301
 21
65.31993
 31
0.0
  0
LINE
  5
20E
100
AcDbEntity
  8
0
  6
Continuous
 62
   174
100
AcDbLine
 10
259.166827
 20
65.31993
 30
0.0
 11
247.427967
 21
65.31993
 31
0.0
  0
ARC
  5
20F
100
AcDbEntity
  8
0
  6
Continuous
 62
   174
100
AcDbCircle
 10
563.443017
 20
176.51993
 30
0.0
 40
5.0
100
AcDbArc
 50
-90.0
 51
-87.622179
  0
ARC
  5
210
100
AcDbEntity
  8
0
  6
Continuous
 62
   174
100
AcDbCircle
 10
307.443017
 20
176.51993
 30
0.0
 40
5.0
100
AcDbArc
 50
-92.06818
 51
-90.0
  0
ARC
  5
211
100
AcDbEntity
  8
0
  6
Continuous
 62
   174
100
AcDbCircle
 10
451.443017
 20
128.51993
 30
0.0
 40
4.1
100
AcDbArc
 50
62.919587
 51
90.0
  0
LINE
  5
212
100
AcDbEntity
  8
0
  6
HIDDEN
 62
   174
100
AcDbLine
 10
467.674595
 20
92.51993
 30
0.0
 11
479.413455
 21
92.51993
 31
0.0
  0
ARC
  5
213
100
AcDbEntity
  8
0
  6
Continuous
 62
   174
100
AcDbCircle
 10
475.443017
 20
176.51993
 30
0.0
 40
6.0
100
AcDbArc
 50
-90.0
 51
90.0
  0
ARC
  5
214
100
AcDbEntity
  8
0
  6
Continuous
 62
   174
100
AcDbCircle
 10
515.443017
 20
128.51993
 30
0.0
 40
4.1
100
AcDbArc
 50
270.0
 51
301.943068
  0
ARC
  5
215
100
AcDbEntity
  8
0
  6
Continuous
 62
   174
100
AcDbCircle
 10
451.443017
 20
128.51993
 30
0.0
 40
4.1
100
AcDbArc
 50
301.943068
 51
332.987324
  0
ARC
  5
216
100
AcDbEntity
  8
0
  6
Continuous
 62
   174
100
AcDbCircle
 10
435.443017
 20
176.51993
 30
0.0
 40
4.1
100
AcDbArc
 50
90.0
 51
270.0
  0
LINE
  5
217
100
AcDbEntity
  8
0
  6
Continuous
 62
   174
100
AcDbLine
 10
511.443017
 20
76.11993
 30
0.0
 11
511.443017
 21
71.31993
 31
0.0
  0
LINE
  5
218
100
AcDbEntity
  8
0
  6
HIDDEN
 62
   174
100
AcDbLine
 10
447.415664
 20
71.31993
 30
0.0
 11
471.414308
 21
71.31993
 31
0.0
  0
LINE
  5
219
100
AcDbEntity
  8
0
  6
HIDDEN
 62
   174
100
AcDbLine
 10
259.427289
 20
76.11993
 30
0.0
 11
263.426863
 21
76.11993
 31
0.0
  0
ARC
  5
21A
100
AcDbEntity
  8
0
  6
Continuous
 62
   174
100
AcDbCircle
 10
307.443017
 20
176.51993
 30
0.0
 40
5.0
100
AcDbArc
 50
-270.0
 51
-267.93182
  0
ARC
  5
21B
100
AcDbEntity
  8
0
  6
Continuous
 62
   174
100
AcDbCircle
 10
451.443017
 20
128.51993
 30
0.0
 40
4.1
100
AcDbArc
 50
121.943068
 51
152.987324
  0
LINE
  5
21C
100
AcDbEntity
  8
0
  6
HIDDEN
 62
   174
100
AcDbLine
 10
619.443017
 20
109.157858
 30
0.0
 11
619.443017
 21
148.075651
 31
0.0
  0
LINE
  5
21D
100
AcDbEntity
  8
0
  6
HIDDEN
 62
   174
100
AcDbLine
 10
275.443017
 20
140.616076
 30
0.0
 11
275.443017
 21
116.617433
 31
0.0
  0
LINE
  5
21E
100
AcDbEntity
  8
0
  6
Continuous
 62
   174
100
AcDbLine
 10
415.443017
 20
92.51993
 30
0.0
 11
415.443017
 21
76.11993
 31
0.0
  0
LINE
  5
21F
100
AcDbEntity
  8
0
  6
Continuous
 62
   174
100
AcDbLine
 10
277.426272
 20
76.11993
 30
0.0
 11
280.551221
 21
76.11993
 31
0.0
  0
ENDBLK
  5
220
100
AcDbEntity
  8
0
100
AcDbBlockEnd
  0
BLOCK
  5
223
100
AcDbEntity
  8
0
100
AcDbBlockBegin
  2
*B5
 70
     0
 10
0.0
 20
0.0
 30
0.0
  3
*B5
  1

  0
LINE
  5
224
100
AcDbEntity
  8
0
  6
Continuous
 62
     0
100
AcDbLine
 10
671.91932
 20
92.618187
 30
0.0
 11
671.91932
 21
212.61261
 31
0.0
  0
SOLID
  5
225
100
AcDbEntity
  8
0
  6
Continuous
 62
     0
100
AcDbTrace
 10
669.919834
 20
102.618023
 30
0.0
 11
671.91932
 21
92.618187
 31
0.0
 12
673.919407
 22
102.618023
 32
0.0
 13
673.919407
 23
102.618023
 33
0.0
  0
SOLID
  5
226
100
AcDbEntity
  8
0
  6
Continuous
 62
     0
100
AcDbTrace
 10
673.919407
 20
202.613375
 30
0.0
 11
671.91932
 21
212.61261
 31
0.0
 12
669.919834
 22
202.613375
 32
0.0
 13
669.919834
 23
202.613375
 33
0.0
  0
ENDBLK
  5
227
100
AcDbEntity
  8
0
100
AcDbBlockEnd
  0
BLOCK
  5
22A
100
AcDbEntity
  8
0
100
AcDbBlockBegin
  2
*B6
 70
     0
 10
0.0
 20
0.0
 30
0.0
  3
*B6
  1

  0
LINE
  5
22B
100
AcDbEntity
  8
0
  6
Continuous
 62
     0
100
AcDbLine
 10
671.91932
 20
112.617258
 30
0.0
 11
671.91932
 21
45.420934
 31
0.0
  0
SOLID
  5
22C
100
AcDbEntity
  8
0
  6
Continuous
 62
     0
100
AcDbTrace
 10
669.919834
 20
102.618023
 30
0.0
 11
671.91932
 21
92.618187
 31
0.0
 12
673.919407
 22
102.618023
 32
0.0
 13
673.919407
 23
102.618023
 33
0.0
  0
SOLID
  5
22D
100
AcDbEntity
  8
0
  6
Continuous
 62
     0
100
AcDbTrace
 10
673.919407
 20
55.420169
 30
0.0
 11
671.91932
 21
65.420005
 31
0.0
 12
669.919834
 22
55.420169
 32
0.0
 13
669.919834
 23
55.420169
 33
0.0
  0
ENDBLK
  5
22E
100
AcDbEntity
  8
0
100
AcDbBlockEnd
  0
BLOCK
  5
231
100
AcDbEntity
  8
0
100
AcDbBlockBegin
  2
*B7
 70
     0
 10
0.0
 20
0.0
 30
0.0
  3
*B7
  1

  0
LINE
  5
232
100
AcDbEntity
  8
0
  6
Continuous
 62
     0
100
AcDbLine
 10
575.40803
 20
41.100745
 30
0.0
 11
639.403612
 21
41.100745
 31
0.0
  0
SOLID
  5
233
100
AcDbEntity
  8
0
  6
Continuous
 62
     0
100
AcDbTrace
 10
585.407264
 20
39.101259
 30
0.0
 11
595.406499
 21
41.100745
 31
0.0
 12
585.407264
 22
43.100833
 32
0.0
 13
585.407264
 23
43.100833
 33
0.0
  0
SOLID
  5
234
100
AcDbEntity
  8
0
  6
Continuous
 62
     0
100
AcDbTrace
 10
629.404377
 20
43.100833
 30
0.0
 11
619.405143
 21
41.100745
 31
0.0
 12
629.404377
 22
39.101259
 32
0.0
 13
629.404377
 23
39.101259
 33
0.0
  0
ENDBLK
  5
235
100
AcDbEntity
  8
0
100
AcDbBlockEnd
  0
BLOCK
  5
238
100
AcDbEntity
  8
0
100
AcDbBlockBegin
  2
*B8
 70
     0
 10
0.0
 20
0.0
 30
0.0
  3
*B8
  1

  0
LINE
  5
239
100
AcDbEntity
  8
0
  6
Continuous
 62
     0
100
AcDbLine
 10
247.427967
 20
41.100745
 30
0.0
 11
183.431784
 21
41.100745
 31
0.0
  0
SOLID
  5
23A
100
AcDbEntity
  8
0
  6
Continuous
 62
     0
100
AcDbTrace
 10
237.428733
 20
43.100833
 30
0.0
 11
227.429498
 21
41.100745
 31
0.0
 12
237.428733
 22
39.101259
 32
0.0
 13
237.428733
 23
39.101259
 33
0.0
  0
SOLID
  5
23B
100
AcDbEntity
  8
0
  6
Continuous
 62
     0
100
AcDbTrace
 10
193.431019
 20
39.101259
 30
0.0
 11
203.430855
 21
41.100745
 31
0.0
 12
193.431019
 22
43.100833
 32
0.0
 13
193.431019
 23
43.100833
 33
0.0
  0
ENDBLK
  5
23C
100
AcDbEntity
  8
0
100
AcDbBlockEnd
  0
BLOCK
  5
23F
100
AcDbEntity
  8
0
100
AcDbBlockBegin
  2
*B9
 70
     0
 10
0.0
 20
0.0
 30
0.0
  3
*B9
  1

  0
LINE
  5
240
100
AcDbEntity
  8
0
  6
Continuous
 62
     0
100
AcDbLine
 10
323.423472
 20
41.100745
 30
0.0
 11
371.420159
 21
41.100745
 31
0.0
  0
SOLID
  5
241
100
AcDbEntity
  8
0
  6
Continuous
 62
     0
100
AcDbTrace
 10
333.422707
 20
43.100833
 30
0.0
 11
323.423472
 21
41.100745
 31
0.0
 12
333.422707
 22
39.101259
 32
0.0
 13
333.422707
 23
39.101259
 33
0.0
  0
SOLID
  5
242
100
AcDbEntity
  8
0
  6
Continuous
 62
     0
100
AcDbTrace
 10
361.420924
 20
39.101259
 30
0.0
 11
371.420159
 21
41.100745
 31
0.0
 12
361.420924
 22
43.100833
 32
0.0
 13
361.420924
 23
43.100833
 33
0.0
  0
ENDBLK
  5
243
100
AcDbEntity
  8
0
100
AcDbBlockEnd
  0
BLOCK
  5
246
100
AcDbEntity
  8
0
100
AcDbBlockBegin
  2
*B10
 70
     0
 10
0.0
 20
0.0
 30
0.0
  3
*B10
  1

  0
LINE
  5
247
100
AcDbEntity
  8
0
  6
Continuous
 62
     0
100
AcDbLine
 10
418.389431
 20
41.100745
 30
0.0
 11
487.413203
 21
41.100745
 31
0.0
  0
SOLID
  5
248
100
AcDbEntity
  8
0
  6
Continuous
 62
     0
100
AcDbTrace
 10
441.416003
 20
39.101259
 30
0.0
 11
451.415237
 21
41.100745
 31
0.0
 12
441.416003
 22
43.100833
 32
0.0
 13
441.416003
 23
43.100833
 33
0.0
  0
SOLID
  5
249
100
AcDbEntity
  8
0
  6
Continuous
 62
     0
100
AcDbTrace
 10
477.413969
 20
43.100833
 30
0.0
 11
467.414734
 21
41.100745
 31
0.0
 12
477.413969
 22
39.101259
 32
0.0
 13
477.413969
 23
39.101259
 33
0.0
  0
ENDBLK
  5
24A
100
AcDbEntity
  8
0
100
AcDbBlockEnd
  0
BLOCK
  5
24D
100
AcDbEntity
  8
0
100
AcDbBlockBegin
  2
*B11
 70
     0
 10
0.0
 20
0.0
 30
0.0
  3
*B11
  1

  0
LINE
  5
24E
100
AcDbEntity
  8
0
  6
Continuous
 62
     0
100
AcDbLine
 10
175.949953
 20
139.116462
 30
0.0
 11
175.949953
 21
214.112826
 31
0.0
  0
SOLID
  5
24F
100
AcDbEntity
  8
0
  6
Continuous
 62
     0
100
AcDbTrace
 10
177.950041
 20
149.115696
 30
0.0
 11
175.949953
 21
159.115532
 31
0.0
 12
173.949866
 22
149.115696
 32
0.0
 13
173.949866
 23
149.115696
 33
0.0
  0
SOLID
  5
250
100
AcDbEntity
  8
0
  6
Continuous
 62
     0
100
AcDbTrace
 10
173.949866
 20
204.11299
 30
0.0
 11
175.949953
 21
194.113755
 31
0.0
 12
177.950041
 22
204.11299
 32
0.0
 13
177.950041
 23
204.11299
 33
0.0
  0
ENDBLK
  5
251
100
AcDbEntity
  8
0
100
AcDbBlockEnd
  0
BLOCK
  5
254
100
AcDbEntity
  8
0
100
AcDbBlockBegin
  2
*B12
 70
     0
 10
0.0
 20
0.0
 30
0.0
  3
*B12
  1

  0
LINE
  5
255
100
AcDbEntity
  8
0
  6
Continuous
 62
     0
100
AcDbLine
 10
283.425933
 20
239.091964
 30
0.0
 11
203.430855
 21
239.091964
 31
0.0
  0
SOLID
  5
256
100
AcDbEntity
  8
0
  6
Continuous
 62
     0
100
AcDbTrace
 10
273.426097
 20
237.091876
 30
0.0
 11
283.425933
 21
239.091964
 31
0.0
 12
273.426097
 22
241.091449
 32
0.0
 13
273.426097
 23
241.091449
 33
0.0
  0
SOLID
  5
257
100
AcDbEntity
  8
0
  6
Continuous
 62
     0
100
AcDbTrace
 10
213.430089
 20
241.091449
 30
0.0
 11
203.430855
 21
239.091964
 31
0.0
 12
213.430089
 22
237.091876
 32
0.0
 13
213.430089
 23
237.091876
 33
0.0
  0
ENDBLK
  5
258
100
AcDbEntity
  8
0
100
AcDbBlockEnd
  0
BLOCK
  5
25B
100
AcDbEntity
  8
0
100
AcDbBlockBegin
  2
*B13
 70
     0
 10
0.0
 20
0.0
 30
0.0
  3
*B13
  1

  0
LINE
  5
25C
100
AcDbEntity
  8
0
  6
Continuous
 62
     0
100
AcDbLine
 10
283.425933
 20
239.091964
 30
0.0
 11
347.422116
 21
239.091964
 31
0.0
  0
SOLID
  5
25D
100
AcDbEntity
  8
0
  6
Continuous
 62
     0
100
AcDbTrace
 10
293.425168
 20
241.091449
 30
0.0
 11
283.425933
 21
239.091964
 31
0.0
 12
293.425168
 22
237.091876
 32
0.0
 13
293.425168
 23
237.091876
 33
0.0
  0
SOLID
  5
25E
100
AcDbEntity
  8
0
  6
Continuous
 62
     0
100
AcDbTrace
 10
337.42228
 20
237.091876
 30
0.0
 11
347.422116
 21
239.091964
 31
0.0
 12
337.42228
 22
241.091449
 32
0.0
 13
337.42228
 23
241.091449
 33
0.0
  0
ENDBLK
  5
25F
100
AcDbEntity
  8
0
100
AcDbBlockEnd
  0
BLOCK
  5
262
100
AcDbEntity
  8
0
100
AcDbBlockBegin
  2
*B14
 70
     0
 10
0.0
 20
0.0
 30
0.0
  3
*B14
  1

  0
LINE
  5
263
100
AcDbEntity
  8
0
  6
Continuous
 62
     0
100
AcDbLine
 10
347.422116
 20
239.091964
 30
0.0
 11
411.417698
 21
239.091964
 31
0.0
  0
SOLID
  5
264
100
AcDbEntity
  8
0
  6
Continuous
 62
     0
100
AcDbTrace
 10
357.421351
 20
241.091449
 30
0.0
 11
347.422116
 21
239.091964
 31
0.0
 12
357.421351
 22
237.091876
 32
0.0
 13
357.421351
 23
237.091876
 33
0.0
  0
SOLID
  5
265
100
AcDbEntity
  8
0
  6
Continuous
 62
     0
100
AcDbTrace
 10
401.418463
 20
237.091876
 30
0.0
 11
411.417698
 21
239.091964
 31
0.0
 12
401.418463
 22
241.091449
 32
0.0
 13
401.418463
 23
241.091449
 33
0.0
  0
ENDBLK
  5
266
100
AcDbEntity
  8
0
100
AcDbBlockEnd
  0
BLOCK
  5
269
100
AcDbEntity
  8
0
100
AcDbBlockBegin
  2
*B15
 70
     0
 10
0.0
 20
0.0
 30
0.0
  3
*B15
  1

  0
LINE
  5
26A
100
AcDbEntity
  8
0
  6
Continuous
 62
     0
100
AcDbLine
 10
647.960377
 20
176.614644
 30
0.0
 11
647.960377
 21
92.618187
 31
0.0
  0
SOLID
  5
26B
100
AcDbEntity
  8
0
  6
Continuous
 62
     0
100
AcDbTrace
 10
649.959863
 20
166.614808
 30
0.0
 11
647.960377
 21
176.614644
 31
0.0
 12
645.960289
 22
166.614808
 32
0.0
 13
645.960289
 23
166.614808
 33
0.0
  0
SOLID
  5
26C
100
AcDbEntity
  8
0
  6
Continuous
 62
     0
100
AcDbTrace
 10
645.960289
 20
102.618023
 30
0.0
 11
647.960377
 21
92.618187
 31
0.0
 12
649.959863
 22
102.618023
 32
0.0
 13
649.959863
 23
102.618023
 33
0.0
  0
ENDBLK
  5
26D
100
AcDbEntity
  8
0
100
AcDbBlockEnd
  0
BLOCK
  5
270
100
AcDbEntity
  8
0
100
AcDbBlockBegin
  2
*B16
 70
     0
 10
0.0
 20
0.0
 30
0.0
  3
*B16
  1

  0
LINE
  5
271
100
AcDbEntity
  8
0
  6
Continuous
 62
     0
100
AcDbLine
 10
145.991349
 20
148.615825
 30
0.0
 11
145.991349
 21
72.619117
 31
0.0
  0
SOLID
  5
272
100
AcDbEntity
  8
0
  6
Continuous
 62
     0
100
AcDbTrace
 10
143.991262
 20
138.61659
 30
0.0
 11
145.991349
 21
128.616755
 31
0.0
 12
147.990835
 22
138.61659
 32
0.0
 13
147.990835
 23
138.61659
 33
0.0
  0
SOLID
  5
273
100
AcDbEntity
  8
0
  6
Continuous
 62
     0
100
AcDbTrace
 10
147.990835
 20
82.618953
 30
0.0
 11
145.991349
 21
92.618187
 31
0.0
 12
143.991262
 22
82.618953
 32
0.0
 13
143.991262
 23
82.618953
 33
0.0
  0
ENDBLK
  5
274
100
AcDbEntity
  8
0
100
AcDbBlockEnd
  0
BLOCK
  5
277
100
AcDbEntity
  8
0
100
AcDbBlockBegin
  2
*B17
 70
     0
 10
0.0
 20
0.0
 30
0.0
  3
*B17
  1

  0
LINE
  5
278
100
AcDbEntity
  8
0
  6
Continuous
 62
     0
100
AcDbLine
 10
145.991349
 20
176.614644
 30
0.0
 11
145.991349
 21
128.616755
 31
0.0
  0
SOLID
  5
279
100
AcDbEntity
  8
0
  6
Continuous
 62
     0
100
AcDbTrace
 10
147.990835
 20
166.614808
 30
0.0
 11
145.991349
 21
176.614644
 31
0.0
 12
143.991262
 22
166.614808
 32
0.0
 13
143.991262
 23
166.614808
 33
0.0
  0
SOLID
  5
27A
100
AcDbEntity
  8
0
  6
Continuous
 62
     0
100
AcDbTrace
 10
143.991262
 20
138.61659
 30
0.0
 11
145.991349
 21
128.616755
 31
0.0
 12
147.990835
 22
138.61659
 32
0.0
 13
147.990835
 23
138.61659
 33
0.0
  0
ENDBLK
  5
27B
100
AcDbEntity
  8
0
100
AcDbBlockEnd
  0
BLOCK
  5
27E
100
AcDbEntity
  8
0
100
AcDbBlockBegin
  2
*B18
 70
     0
 10
0.0
 20
0.0
 30
0.0
  3
*B18
  1

  0
LINE
  5
27F
100
AcDbEntity
  8
0
  6
Continuous
 62
     0
100
AcDbLine
 10
539.410064
 20
239.091964
 30
0.0
 11
619.405143
 21
239.091964
 31
0.0
  0
SOLID
  5
280
100
AcDbEntity
  8
0
  6
Continuous
 62
     0
100
AcDbTrace
 10
549.409299
 20
241.091449
 30
0.0
 11
539.410064
 21
239.091964
 31
0.0
 12
549.409299
 22
237.091876
 32
0.0
 13
549.409299
 23
237.091876
 33
0.0
  0
SOLID
  5
281
100
AcDbEntity
  8
0
  6
Continuous
 62
     0
100
AcDbTrace
 10
609.405908
 20
237.091876
 30
0.0
 11
619.405143
 21
239.091964
 31
0.0
 12
609.405908
 22
241.091449
 32
0.0
 13
609.405908
 23
241.091449
 33
0.0
  0
ENDBLK
  5
282
100
AcDbEntity
  8
0
100
AcDbBlockEnd
  0
BLOCK
  5
285
100
AcDbEntity
  8
0
100
AcDbBlockBegin
  2
*B19
 70
     0
 10
0.0
 20
0.0
 30
0.0
  3
*B19
  1

  0
LINE
  5
286
100
AcDbEntity
  8
0
  6
Continuous
 62
     0
100
AcDbLine
 10
174.98931
 20
378.687845
 30
0.0
 11
174.98931
 21
466.683875
 31
0.0
  0
SOLID
  5
287
100
AcDbEntity
  8
0
  6
Continuous
 62
     0
100
AcDbTrace
 10
172.989824
 20
388.687681
 30
0.0
 11
174.98931
 21
378.687845
 31
0.0
 12
176.989397
 22
388.687681
 32
0.0
 13
176.989397
 23
388.687681
 33
0.0
  0
SOLID
  5
288
100
AcDbEntity
  8
0
  6
Continuous
 62
     0
100
AcDbTrace
 10
176.989397
 20
456.684641
 30
0.0
 11
174.98931
 21
466.683875
 31
0.0
 12
172.989824
 22
456.684641
 32
0.0
 13
172.989824
 23
456.684641
 33
0.0
  0
ENDBLK
  5
289
100
AcDbEntity
  8
0
100
AcDbBlockEnd
  0
BLOCK
  5
28C
100
AcDbEntity
  8
0
100
AcDbBlockBegin
  2
*B20
 70
     0
 10
0.0
 20
0.0
 30
0.0
  3
*B20
  1

  0
LINE
  5
28D
100
AcDbEntity
  8
0
  6
Continuous
 62
     0
100
AcDbLine
 10
411.417698
 20
490.079786
 30
0.0
 11
475.413881
 21
490.079786
 31
0.0
  0
SOLID
  5
28E
100
AcDbEntity
  8
0
  6
Continuous
 62
     0
100
AcDbTrace
 10
421.417534
 20
492.079873
 30
0.0
 11
411.417698
 21
490.079786
 31
0.0
 12
421.417534
 22
488.0803
 32
0.0
 13
421.417534
 23
488.0803
 33
0.0
  0
SOLID
  5
28F
100
AcDbEntity
  8
0
  6
Continuous
 62
     0
100
AcDbTrace
 10
465.414647
 20
488.0803
 30
0.0
 11
475.413881
 21
490.079786
 31
0.0
 12
465.414647
 22
492.079873
 32
0.0
 13
465.414647
 23
492.079873
 33
0.0
  0
ENDBLK
  5
290
100
AcDbEntity
  8
0
100
AcDbBlockEnd
  0
BLOCK
  5
293
100
AcDbEntity
  8
0
100
AcDbBlockBegin
  2
*B21
 70
     0
 10
0.0
 20
0.0
 30
0.0
  3
*B21
  1

  0
LINE
  5
294
100
AcDbEntity
  8
0
  6
Continuous
 62
     0
100
AcDbLine
 10
174.98931
 20
378.687845
 30
0.0
 11
174.98931
 21
278.692493
 31
0.0
  0
SOLID
  5
295
100
AcDbEntity
  8
0
  6
Continuous
 62
     0
100
AcDbTrace
 10
176.989397
 20
368.688611
 30
0.0
 11
174.98931
 21
378.687845
 31
0.0
 12
172.989824
 22
368.688611
 32
0.0
 13
172.989824
 23
368.688611
 33
0.0
  0
SOLID
  5
296
100
AcDbEntity
  8
0
  6
Continuous
 62
     0
100
AcDbTrace
 10
172.989824
 20
288.692329
 30
0.0
 11
174.98931
 21
278.692493
 31
0.0
 12
176.989397
 22
288.692329
 32
0.0
 13
176.989397
 23
288.692329
 33
0.0
  0
ENDBLK
  5
297
100
AcDbEntity
  8
0
100
AcDbBlockEnd
  0
BLOCK
  5
29A
100
AcDbEntity
  8
0
100
AcDbBlockBegin
  2
*B22
 70
     0
 10
0.0
 20
0.0
 30
0.0
  3
*B22
  1

  0
LINE
  5
29B
100
AcDbEntity
  8
0
  6
Continuous
 62
     0
100
AcDbLine
 10
475.413881
 20
239.091964
 30
0.0
 11
539.410064
 21
239.091964
 31
0.0
  0
SOLID
  5
29C
100
AcDbEntity
  8
0
  6
Continuous
 62
     0
100
AcDbTrace
 10
485.413116
 20
241.091449
 30
0.0
 11
475.413881
 21
239.091964
 31
0.0
 12
485.413116
 22
237.091876
 32
0.0
 13
485.413116
 23
237.091876
 33
0.0
  0
SOLID
  5
29D
100
AcDbEntity
  8
0
  6
Continuous
 62
     0
100
AcDbTrace
 10
529.41083
 20
237.091876
 30
0.0
 11
539.410064
 21
239.091964
 31
0.0
 12
529.41083
 22
241.091449
 32
0.0
 13
529.41083
 23
241.091449
 33
0.0
  0
ENDBLK
  5
29E
100
AcDbEntity
  8
0
100
AcDbBlockEnd
  0
BLOCK
  5
2A1
100
AcDbEntity
  8
0
100
AcDbBlockBegin
  2
*B23
 70
     0
 10
0.0
 20
0.0
 30
0.0
  3
*B23
  1

  0
LINE
  5
2A2
100
AcDbEntity
  8
0
  6
Continuous
 62
     0
100
AcDbLine
 10
347.422116
 20
490.079786
 30
0.0
 11
411.417698
 21
490.079786
 31
0.0
  0
SOLID
  5
2A3
100
AcDbEntity
  8
0
  6
Continuous
 62
     0
100
AcDbTrace
 10
357.421351
 20
492.079873
 30
0.0
 11
347.422116
 21
490.079786
 31
0.0
 12
357.421351
 22
488.0803
 32
0.0
 13
357.421351
 23
488.0803
 33
0.0
  0
SOLID
  5
2A4
100
AcDbEntity
  8
0
  6
Continuous
 62
     0
100
AcDbTrace
 10
401.418463
 20
488.0803
 30
0.0
 11
411.417698
 21
490.079786
 31
0.0
 12
401.418463
 22
492.079873
 32
0.0
 13
401.418463
 23
492.079873
 33
0.0
  0
ENDBLK
  5
2A5
100
AcDbEntity
  8
0
100
AcDbBlockEnd
  0
BLOCK
  5
2A8
100
AcDbEntity
  8
0
100
AcDbBlockBegin
  2
*B24
 70
     0
 10
0.0
 20
0.0
 30
0.0
  3
*B24
  1

  0
LINE
  5
2A9
100
AcDbEntity
  8
0
  6
Continuous
 62
     0
100
AcDbLine
 10
347.422116
 20
490.079786
 30
0.0
 11
283.425933
 21
490.079786
 31
0.0
  0
SOLID
  5
2AA
100
AcDbEntity
  8
0
  6
Continuous
 62
     0
100
AcDbTrace
 10
337.42228
 20
488.0803
 30
0.0
 11
347.422116
 21
490.079786
 31
0.0
 12
337.42228
 22
492.079873
 32
0.0
 13
337.42228
 23
492.079873
 33
0.0
  0
SOLID
  5
2AB
100
AcDbEntity
  8
0
  6
Continuous
 62
     0
100
AcDbTrace
 10
293.425168
 20
492.079873
 30
0.0
 11
283.425933
 21
490.079786
 31
0.0
 12
293.425168
 22
488.0803
 32
0.0
 13
293.425168
 23
488.0803
 33
0.0
  0
ENDBLK
  5
2AC
100
AcDbEntity
  8
0
100
AcDbBlockEnd
  0
BLOCK
  5
2AF
100
AcDbEntity
  8
0
100
AcDbBlockBegin
  2
*B25
 70
     0
 10
0.0
 20
0.0
 30
0.0
  3
*B25
  1

  0
LINE
  5
2B0
100
AcDbEntity
  8
0
  6
Continuous
 62
     0
100
AcDbLine
 10
411.417698
 20
239.091964
 30
0.0
 11
475.413881
 21
239.091964
 31
0.0
  0
SOLID
  5
2B1
100
AcDbEntity
  8
0
  6
Continuous
 62
     0
100
AcDbTrace
 10
421.417534
 20
241.091449
 30
0.0
 11
411.417698
 21
239.091964
 31
0.0
 12
421.417534
 22
237.091876
 32
0.0
 13
421.417534
 23
237.091876
 33
0.0
  0
SOLID
  5
2B2
100
AcDbEntity
  8
0
  6
Continuous
 62
     0
100
AcDbTrace
 10
465.414647
 20
237.091876
 30
0.0
 11
475.413881
 21
239.091964
 31
0.0
 12
465.414647
 22
241.091449
 32
0.0
 13
465.414647
 23
241.091449
 33
0.0
  0
ENDBLK
  5
2B3
100
AcDbEntity
  8
0
100
AcDbBlockEnd
  0
BLOCK
  5
2B6
100
AcDbEntity
  8
0
100
AcDbBlockBegin
  2
*B26
 70
     0
 10
0.0
 20
0.0
 30
0.0
  3
*B26
  1

  0
LINE
  5
2B7
100
AcDbEntity
  8
0
  6
Continuous
 62
     0
100
AcDbLine
 10
539.410064
 20
490.079786
 30
0.0
 11
475.413881
 21
490.079786
 31
0.0
  0
SOLID
  5
2B8
100
AcDbEntity
  8
0
  6
Continuous
 62
     0
100
AcDbTrace
 10
529.41083
 20
488.0803
 30
0.0
 11
539.410064
 21
490.079786
 31
0.0
 12
529.41083
 22
492.079873
 32
0.0
 13
529.41083
 23
492.079873
 33
0.0
  0
SOLID
  5
2B9
100
AcDbEntity
  8
0
  6
Continuous
 62
     0
100
AcDbTrace
 10
485.413116
 20
492.079873
 30
0.0
 11
475.413881
 21
490.079786
 31
0.0
 12
485.413116
 22
488.0803
 32
0.0
 13
485.413116
 23
488.0803
 33
0.0
  0
ENDBLK
  5
2BA
100
AcDbEntity
  8
0
100
AcDbBlockEnd
  0
BLOCK
  5
2BD
100
AcDbEntity
  8
0
100
AcDbBlockBegin
  2
*B27
 70
     0
 10
0.0
 20
0.0
 30
0.0
  3
*B27
  1

  0
LINE
  5
2BE
100
AcDbEntity
  8
0
  6
Continuous
 62
     8
100
AcDbLine
 10
539.410064
 20
237.091876
 30
0.0
 11
539.410064
 21
241.091449
 31
0.0
  0
LINE
  5
2BF
100
AcDbEntity
  8
0
  6
Continuous
 62
     8
100
AcDbLine
 10
539.410064
 20
136.616503
 30
0.0
 11
539.410064
 21
168.614895
 31
0.0
  0
LINE
  5
2C0
100
AcDbEntity
  8
0
  6
Continuous
 62
     8
100
AcDbLine
 10
539.410064
 20
184.614392
 30
0.0
 11
539.410064
 21
203.853129
 31
0.0
  0
LINE
  5
2C1
100
AcDbEntity
  8
0
  6
Continuous
 62
     8
100
AcDbLine
 10
539.410064
 20
209.85279
 30
0.0
 11
539.410064
 21
211.852877
 31
0.0
  0
LINE
  5
2C2
100
AcDbEntity
  8
0
  6
Continuous
 62
     8
100
AcDbLine
 10
539.410064
 20
217.852538
 30
0.0
 11
539.410064
 21
237.091876
 31
0.0
  0
ENDBLK
  5
2C3
100
AcDbEntity
  8
0
100
AcDbBlockEnd
  0
BLOCK
  5
2C6
100
AcDbEntity
  8
0
100
AcDbBlockBegin
  2
*B28
 70
     0
 10
0.0
 20
0.0
 30
0.0
  3
*B28
  1

  0
LINE
  5
2C7
100
AcDbEntity
  8
0
  6
Continuous
 62
     8
100
AcDbLine
 10
539.410064
 20
488.0803
 30
0.0
 11
539.410064
 21
492.079873
 31
0.0
  0
LINE
  5
2C8
100
AcDbEntity
  8
0
  6
Continuous
 62
     8
100
AcDbLine
 10
539.410064
 20
372.688184
 30
0.0
 11
539.410064
 21
391.036656
 31
0.0
  0
LINE
  5
2C9
100
AcDbEntity
  8
0
  6
Continuous
 62
     8
100
AcDbLine
 10
539.410064
 20
397.036317
 30
0.0
 11
539.410064
 21
399.036404
 31
0.0
  0
LINE
  5
2CA
100
AcDbEntity
  8
0
  6
Continuous
 62
     8
100
AcDbLine
 10
539.410064
 20
405.036065
 30
0.0
 11
539.410064
 21
423.384537
 31
0.0
  0
LINE
  5
2CB
100
AcDbEntity
  8
0
  6
Continuous
 62
     8
100
AcDbLine
 10
539.410064
 20
429.384198
 30
0.0
 11
539.410064
 21
431.384286
 31
0.0
  0
LINE
  5
2CC
100
AcDbEntity
  8
0
  6
Continuous
 62
     8
100
AcDbLine
 10
539.410064
 20
437.383947
 30
0.0
 11
539.410064
 21
455.732419
 31
0.0
  0
LINE
  5
2CD
100
AcDbEntity
  8
0
  6
Continuous
 62
     8
100
AcDbLine
 10
539.410064
 20
461.73208
 30
0.0
 11
539.410064
 21
463.732167
 31
0.0
  0
LINE
  5
2CE
100
AcDbEntity
  8
0
  6
Continuous
 62
     8
100
AcDbLine
 10
539.410064
 20
469.731828
 30
0.0
 11
539.410064
 21
488.0803
 31
0.0
  0
ENDBLK
  5
2CF
100
AcDbEntity
  8
0
100
AcDbBlockEnd
  0
BLOCK
  5
2D2
100
AcDbEntity
  8
0
100
AcDbBlockBegin
  2
*B29
 70
     0
 10
0.0
 20
0.0
 30
0.0
  3
*B29
  1

  0
LINE
  5
2D3
100
AcDbEntity
  8
0
  6
Continuous
 62
     8
100
AcDbLine
 10
347.422116
 20
237.091876
 30
0.0
 11
347.422116
 21
241.091449
 31
0.0
  0
LINE
  5
2D4
100
AcDbEntity
  8
0
  6
Continuous
 62
     8
100
AcDbLine
 10
347.422116
 20
136.616503
 30
0.0
 11
347.422116
 21
168.614895
 31
0.0
  0
LINE
  5
2D5
100
AcDbEntity
  8
0
  6
Continuous
 62
     8
100
AcDbLine
 10
347.422116
 20
184.614392
 30
0.0
 11
347.422116
 21
203.853129
 31
0.0
  0
LINE
  5
2D6
100
AcDbEntity
  8
0
  6
Continuous
 62
     8
100
AcDbLine
 10
347.422116
 20
209.85279
 30
0.0
 11
347.422116
 21
211.852877
 31
0.0
  0
LINE
  5
2D7
100
AcDbEntity
  8
0
  6
Continuous
 62
     8
100
AcDbLine
 10
347.422116
 20
217.852538
 30
0.0
 11
347.422116
 21
237.091876
 31
0.0
  0
ENDBLK
  5
2D8
100
AcDbEntity
  8
0
100
AcDbBlockEnd
  0
BLOCK
  5
2DB
100
AcDbEntity
  8
0
100
AcDbBlockBegin
  2
*B30
 70
     0
 10
0.0
 20
0.0
 30
0.0
  3
*B30
  1

  0
LINE
  5
2DC
100
AcDbEntity
  8
0
  6
Continuous
 62
     8
100
AcDbLine
 10
143.991262
 20
92.618187
 30
0.0
 11
197.431194
 21
92.618187
 31
0.0
  0
LINE
  5
2DD
100
AcDbEntity
  8
0
  6
Continuous
 62
     8
100
AcDbLine
 10
625.404804
 20
92.618187
 30
0.0
 11
673.919407
 21
92.618187
 31
0.0
  0
ENDBLK
  5
2DE
100
AcDbEntity
  8
0
100
AcDbBlockEnd
  0
BLOCK
  5
2E1
100
AcDbEntity
  8
0
100
AcDbBlockBegin
  2
*B31
 70
     0
 10
0.0
 20
0.0
 30
0.0
  3
*B31
  1

  0
LINE
  5
2E2
100
AcDbEntity
  8
0
  6
Continuous
 62
     8
100
AcDbLine
 10
347.422116
 20
488.0803
 30
0.0
 11
347.422116
 21
492.079873
 31
0.0
  0
LINE
  5
2E3
100
AcDbEntity
  8
0
  6
Continuous
 62
     8
100
AcDbLine
 10
347.422116
 20
372.688184
 30
0.0
 11
347.422116
 21
391.036656
 31
0.0
  0
LINE
  5
2E4
100
AcDbEntity
  8
0
  6
Continuous
 62
     8
100
AcDbLine
 10
347.422116
 20
397.036317
 30
0.0
 11
347.422116
 21
399.036404
 31
0.0
  0
LINE
  5
2E5
100
AcDbEntity
  8
0
  6
Continuous
 62
     8
100
AcDbLine
 10
347.422116
 20
405.036065
 30
0.0
 11
347.422116
 21
423.384537
 31
0.0
  0
LINE
  5
2E6
100
AcDbEntity
  8
0
  6
Continuous
 62
     8
100
AcDbLine
 10
347.422116
 20
429.384198
 30
0.0
 11
347.422116
 21
431.384286
 31
0.0
  0
LINE
  5
2E7
100
AcDbEntity
  8
0
  6
Continuous
 62
     8
100
AcDbLine
 10
347.422116
 20
437.383947
 30
0.0
 11
347.422116
 21
455.732419
 31
0.0
  0
LINE
  5
2E8
100
AcDbEntity
  8
0
  6
Continuous
 62
     8
100
AcDbLine
 10
347.422116
 20
461.73208
 30
0.0
 11
347.422116
 21
463.732167
 31
0.0
  0
LINE
  5
2E9
100
AcDbEntity
  8
0
  6
Continuous
 62
     8
100
AcDbLine
 10
347.422116
 20
469.731828
 30
0.0
 11
347.422116
 21
488.0803
 31
0.0
  0
ENDBLK
  5
2EA
100
AcDbEntity
  8
0
100
AcDbBlockEnd
  0
BLOCK
  5
2ED
100
AcDbEntity
  8
0
100
AcDbBlockBegin
  2
*B32
 70
     0
 10
0.0
 20
0.0
 30
0.0
  3
*B32
  1

  0
LINE
  5
2EE
100
AcDbEntity
  8
0
  6
Continuous
 62
     8
100
AcDbLine
 10
241.428306
 20
302.691738
 30
0.0
 11
259.427289
 21
302.691738
 31
0.0
  0
LINE
  5
2EF
100
AcDbEntity
  8
0
  6
Continuous
 62
     8
100
AcDbLine
 10
275.426185
 20
302.691738
 30
0.0
 11
293.425168
 21
302.691738
 31
0.0
  0
ENDBLK
  5
2F0
100
AcDbEntity
  8
0
100
AcDbBlockEnd
  0
BLOCK
  5
2F3
100
AcDbEntity
  8
0
100
AcDbBlockBegin
  2
*B33
 70
     0
 10
0.0
 20
0.0
 30
0.0
  3
*B33
  1

  0
LINE
  5
2F4
100
AcDbEntity
  8
0
  6
Continuous
 62
     8
100
AcDbLine
 10
369.420673
 20
302.691738
 30
0.0
 11
387.419656
 21
302.691738
 31
0.0
  0
LINE
  5
2F5
100
AcDbEntity
  8
0
  6
Continuous
 62
     8
100
AcDbLine
 10
403.418551
 20
302.691738
 30
0.0
 11
421.417534
 21
302.691738
 31
0.0
  0
ENDBLK
  5
2F6
100
AcDbEntity
  8
0
100
AcDbBlockEnd
  0
BLOCK
  5
2F9
100
AcDbEntity
  8
0
100
AcDbBlockBegin
  2
*B34
 70
     0
 10
0.0
 20
0.0
 30
0.0
  3
*B34
  1

  0
LINE
  5
2FA
100
AcDbEntity
  8
0
  6
Continuous
 62
     8
100
AcDbLine
 10
305.424489
 20
302.691738
 30
0.0
 11
323.423472
 21
302.691738
 31
0.0
  0
LINE
  5
2FB
100
AcDbEntity
  8
0
  6
Continuous
 62
     8
100
AcDbLine
 10
339.422368
 20
302.691738
 30
0.0
 11
357.421351
 21
302.691738
 31
0.0
  0
ENDBLK
  5
2FC
100
AcDbEntity
  8
0
100
AcDbBlockEnd
  0
BLOCK
  5
2FF
100
AcDbEntity
  8
0
100
AcDbBlockBegin
  2
*B35
 70
     0
 10
0.0
 20
0.0
 30
0.0
  3
*B35
  1

  0
LINE
  5
300
100
AcDbEntity
  8
0
  6
Continuous
 62
     8
100
AcDbLine
 10
433.416254
 20
302.691738
 30
0.0
 11
451.415237
 21
302.691738
 31
0.0
  0
LINE
  5
301
100
AcDbEntity
  8
0
  6
Continuous
 62
     8
100
AcDbLine
 10
467.414734
 20
302.691738
 30
0.0
 11
485.413116
 21
302.691738
 31
0.0
  0
ENDBLK
  5
302
100
AcDbEntity
  8
0
100
AcDbBlockEnd
  0
BLOCK
  5
305
100
AcDbEntity
  8
0
100
AcDbBlockBegin
  2
*B36
 70
     0
 10
0.0
 20
0.0
 30
0.0
  3
*B36
  1

  0
LINE
  5
306
100
AcDbEntity
  8
0
  6
Continuous
 62
     8
100
AcDbLine
 10
497.412437
 20
302.691738
 30
0.0
 11
515.41142
 21
302.691738
 31
0.0
  0
LINE
  5
307
100
AcDbEntity
  8
0
  6
Continuous
 62
     8
100
AcDbLine
 10
531.410316
 20
302.691738
 30
0.0
 11
549.409299
 21
302.691738
 31
0.0
  0
ENDBLK
  5
308
100
AcDbEntity
  8
0
100
AcDbBlockEnd
  0
BLOCK
  5
30B
100
AcDbEntity
  8
0
100
AcDbBlockBegin
  2
*B37
 70
     0
 10
0.0
 20
0.0
 30
0.0
  3
*B37
  1

  0
LINE
  5
30C
100
AcDbEntity
  8
0
  6
Continuous
 62
     8
100
AcDbLine
 10
197.431194
 20
152.615398
 30
0.0
 11
221.429837
 21
152.615398
 31
0.0
  0
LINE
  5
30D
100
AcDbEntity
  8
0
  6
Continuous
 62
     8
100
AcDbLine
 10
227.429498
 20
152.615398
 30
0.0
 11
229.428984
 21
152.615398
 31
0.0
  0
LINE
  5
30E
100
AcDbEntity
  8
0
  6
Continuous
 62
     8
100
AcDbLine
 10
235.428645
 20
152.615398
 30
0.0
 11
259.427289
 21
152.615398
 31
0.0
  0
LINE
  5
30F
100
AcDbEntity
  8
0
  6
Continuous
 62
     8
100
AcDbLine
 10
275.426185
 20
152.615398
 30
0.0
 11
292.425425
 21
152.615398
 31
0.0
  0
LINE
  5
310
100
AcDbEntity
  8
0
  6
Continuous
 62
     8
100
AcDbLine
 10
298.425086
 20
152.615398
 30
0.0
 11
300.424572
 21
152.615398
 31
0.0
  0
LINE
  5
311
100
AcDbEntity
  8
0
  6
Continuous
 62
     8
100
AcDbLine
 10
306.424232
 20
152.615398
 30
0.0
 11
323.423472
 21
152.615398
 31
0.0
  0
LINE
  5
312
100
AcDbEntity
  8
0
  6
Continuous
 62
     8
100
AcDbLine
 10
339.422368
 20
152.615398
 30
0.0
 11
356.421006
 21
152.615398
 31
0.0
  0
LINE
  5
313
100
AcDbEntity
  8
0
  6
Continuous
 62
     8
100
AcDbLine
 10
362.420667
 20
152.615398
 30
0.0
 11
364.420755
 21
152.615398
 31
0.0
  0
LINE
  5
314
100
AcDbEntity
  8
0
  6
Continuous
 62
     8
100
AcDbLine
 10
370.420416
 20
152.615398
 30
0.0
 11
387.419656
 21
152.615398
 31
0.0
  0
LINE
  5
315
100
AcDbEntity
  8
0
  6
Continuous
 62
     8
100
AcDbLine
 10
403.418551
 20
152.615398
 30
0.0
 11
420.417189
 21
152.615398
 31
0.0
  0
LINE
  5
316
100
AcDbEntity
  8
0
  6
Continuous
 62
     8
100
AcDbLine
 10
426.41685
 20
152.615398
 30
0.0
 11
428.416938
 21
152.615398
 31
0.0
  0
LINE
  5
317
100
AcDbEntity
  8
0
  6
Continuous
 62
     8
100
AcDbLine
 10
434.416599
 20
152.615398
 30
0.0
 11
451.415237
 21
152.615398
 31
0.0
  0
LINE
  5
318
100
AcDbEntity
  8
0
  6
Continuous
 62
     8
100
AcDbLine
 10
467.414734
 20
152.615398
 30
0.0
 11
484.413373
 21
152.615398
 31
0.0
  0
LINE
  5
319
100
AcDbEntity
  8
0
  6
Continuous
 62
     8
100
AcDbLine
 10
490.413033
 20
152.615398
 30
0.0
 11
492.413121
 21
152.615398
 31
0.0
  0
LINE
  5
31A
100
AcDbEntity
  8
0
  6
Continuous
 62
     8
100
AcDbLine
 10
498.412782
 20
152.615398
 30
0.0
 11
515.41142
 21
152.615398
 31
0.0
  0
LINE
  5
31B
100
AcDbEntity
  8
0
  6
Continuous
 62
     8
100
AcDbLine
 10
531.410316
 20
152.615398
 30
0.0
 11
553.408872
 21
152.615398
 31
0.0
  0
LINE
  5
31C
100
AcDbEntity
  8
0
  6
Continuous
 62
     8
100
AcDbLine
 10
559.408533
 20
152.615398
 30
0.0
 11
561.408621
 21
152.615398
 31
0.0
  0
LINE
  5
31D
100
AcDbEntity
  8
0
  6
Continuous
 62
     8
100
AcDbLine
 10
567.408282
 20
152.615398
 30
0.0
 11
589.406838
 21
152.615398
 31
0.0
  0
LINE
  5
31E
100
AcDbEntity
  8
0
  6
Continuous
 62
     8
100
AcDbLine
 10
595.406499
 20
152.615398
 30
0.0
 11
597.406586
 21
152.615398
 31
0.0
  0
LINE
  5
31F
100
AcDbEntity
  8
0
  6
Continuous
 62
     8
100
AcDbLine
 10
603.406247
 20
152.615398
 30
0.0
 11
625.404804
 21
152.615398
 31
0.0
  0
ENDBLK
  5
320
100
AcDbEntity
  8
0
100
AcDbBlockEnd
  0
BLOCK
  5
323
100
AcDbEntity
  8
0
100
AcDbBlockBegin
  2
*B38
 70
     0
 10
0.0
 20
0.0
 30
0.0
  3
*B38
  1

  0
LINE
  5
324
100
AcDbEntity
  8
0
  6
Continuous
 62
     8
100
AcDbLine
 10
619.405143
 20
39.101259
 30
0.0
 11
619.405143
 21
86.618526
 31
0.0
  0
LINE
  5
325
100
AcDbEntity
  8
0
  6
Continuous
 62
     8
100
AcDbLine
 10
619.405143
 20
218.612872
 30
0.0
 11
619.405143
 21
241.091449
 31
0.0
  0
ENDBLK
  5
326
100
AcDbEntity
  8
0
100
AcDbBlockEnd
  0
BLOCK
  5
329
100
AcDbEntity
  8
0
100
AcDbBlockBegin
  2
*B39
 70
     0
 10
0.0
 20
0.0
 30
0.0
  3
*B39
  1

  0
LINE
  5
32A
100
AcDbEntity
  8
0
  6
Continuous
 62
     8
100
AcDbLine
 10
395.418802
 20
160.615147
 30
0.0
 11
395.418802
 21
164.615322
 31
0.0
  0
ENDBLK
  5
32B
100
AcDbEntity
  8
0
100
AcDbBlockEnd
  0
BLOCK
  5
32E
100
AcDbEntity
  8
0
100
AcDbBlockBegin
  2
*B40
 70
     0
 10
0.0
 20
0.0
 30
0.0
  3
*B40
  1

  0
LINE
  5
32F
100
AcDbEntity
  8
0
  6
Continuous
 62
     8
100
AcDbLine
 10
523.411169
 20
59.419742
 30
0.0
 11
523.411169
 21
98.61845
 31
0.0
  0
ENDBLK
  5
330
100
AcDbEntity
  8
0
100
AcDbBlockEnd
  0
BLOCK
  5
333
100
AcDbEntity
  8
0
100
AcDbBlockBegin
  2
*B41
 70
     0
 10
0.0
 20
0.0
 30
0.0
  3
*B41
  1

  0
LINE
  5
334
100
AcDbEntity
  8
0
  6
Continuous
 62
     8
100
AcDbLine
 10
267.427038
 20
276.693007
 30
0.0
 11
267.427038
 21
294.69199
 31
0.0
  0
LINE
  5
335
100
AcDbEntity
  8
0
  6
Continuous
 62
     8
100
AcDbLine
 10
267.427038
 20
310.691487
 30
0.0
 11
267.427038
 21
328.69047
 31
0.0
  0
ENDBLK
  5
336
100
AcDbEntity
  8
0
100
AcDbBlockEnd
  0
BLOCK
  5
339
100
AcDbEntity
  8
0
100
AcDbBlockBegin
  2
*B42
 70
     0
 10
0.0
 20
0.0
 30
0.0
  3
*B42
  1

  0
LINE
  5
33A
100
AcDbEntity
  8
0
  6
Continuous
 62
     8
100
AcDbLine
 10
459.414986
 20
59.419742
 30
0.0
 11
459.414986
 21
98.61845
 31
0.0
  0
ENDBLK
  5
33B
100
AcDbEntity
  8
0
100
AcDbBlockEnd
  0
BLOCK
  5
33E
100
AcDbEntity
  8
0
100
AcDbBlockBegin
  2
*B43
 70
     0
 10
0.0
 20
0.0
 30
0.0
  3
*B43
  1

  0
LINE
  5
33F
100
AcDbEntity
  8
0
  6
Continuous
 62
     8
100
AcDbLine
 10
395.418802
 20
276.693007
 30
0.0
 11
395.418802
 21
294.69199
 31
0.0
  0
LINE
  5
340
100
AcDbEntity
  8
0
  6
Continuous
 62
     8
100
AcDbLine
 10
395.418802
 20
310.691487
 30
0.0
 11
395.418802
 21
328.69047
 31
0.0
  0
ENDBLK
  5
341
100
AcDbEntity
  8
0
100
AcDbBlockEnd
  0
BLOCK
  5
344
100
AcDbEntity
  8
0
100
AcDbBlockBegin
  2
*B44
 70
     0
 10
0.0
 20
0.0
 30
0.0
  3
*B44
  1

  0
LINE
  5
345
100
AcDbEntity
  8
0
  6
Continuous
 62
     8
100
AcDbLine
 10
203.430855
 20
39.101259
 30
0.0
 11
203.430855
 21
86.618526
 31
0.0
  0
LINE
  5
346
100
AcDbEntity
  8
0
  6
Continuous
 62
     8
100
AcDbLine
 10
203.430855
 20
218.612872
 30
0.0
 11
203.430855
 21
241.091449
 31
0.0
  0
ENDBLK
  5
347
100
AcDbEntity
  8
0
100
AcDbBlockEnd
  0
BLOCK
  5
34A
100
AcDbEntity
  8
0
100
AcDbBlockBegin
  2
*B45
 70
     0
 10
0.0
 20
0.0
 30
0.0
  3
*B45
  1

  0
LINE
  5
34B
100
AcDbEntity
  8
0
  6
Continuous
 62
     8
100
AcDbLine
 10
143.991262
 20
128.616755
 30
0.0
 11
147.990835
 21
128.616755
 31
0.0
  0
LINE
  5
34C
100
AcDbEntity
  8
0
  6
Continuous
 62
     8
100
AcDbLine
 10
147.990835
 20
128.616755
 30
0.0
 11
176.710889
 21
128.616755
 31
0.0
  0
LINE
  5
34D
100
AcDbEntity
  8
0
  6
Continuous
 62
     8
100
AcDbLine
 10
182.71055
 20
128.616755
 30
0.0
 11
184.710637
 21
128.616755
 31
0.0
  0
LINE
  5
34E
100
AcDbEntity
  8
0
  6
Continuous
 62
     8
100
AcDbLine
 10
190.709697
 20
128.616755
 30
0.0
 11
219.42975
 21
128.616755
 31
0.0
  0
LINE
  5
34F
100
AcDbEntity
  8
0
  6
Continuous
 62
     8
100
AcDbLine
 10
235.428645
 20
128.616755
 30
0.0
 11
251.427541
 21
128.616755
 31
0.0
  0
LINE
  5
350
100
AcDbEntity
  8
0
  6
Continuous
 62
     8
100
AcDbLine
 10
267.427038
 20
128.616755
 30
0.0
 11
275.426185
 21
128.616755
 31
0.0
  0
LINE
  5
351
100
AcDbEntity
  8
0
  6
Continuous
 62
     8
100
AcDbLine
 10
291.42508
 20
128.616755
 30
0.0
 11
315.423724
 21
128.616755
 31
0.0
  0
LINE
  5
352
100
AcDbEntity
  8
0
  6
Continuous
 62
     8
100
AcDbLine
 10
331.422619
 20
128.616755
 30
0.0
 11
339.422368
 21
128.616755
 31
0.0
  0
LINE
  5
353
100
AcDbEntity
  8
0
  6
Continuous
 62
     8
100
AcDbLine
 10
355.421263
 20
128.616755
 30
0.0
 11
379.419907
 21
128.616755
 31
0.0
  0
LINE
  5
354
100
AcDbEntity
  8
0
  6
Continuous
 62
     8
100
AcDbLine
 10
395.418802
 20
128.616755
 30
0.0
 11
403.418551
 21
128.616755
 31
0.0
  0
LINE
  5
355
100
AcDbEntity
  8
0
  6
Continuous
 62
     8
100
AcDbLine
 10
419.417446
 20
128.616755
 30
0.0
 11
443.41609
 21
128.616755
 31
0.0
  0
LINE
  5
356
100
AcDbEntity
  8
0
  6
Continuous
 62
     8
100
AcDbLine
 10
459.414986
 20
128.616755
 30
0.0
 11
467.414734
 21
128.616755
 31
0.0
  0
LINE
  5
357
100
AcDbEntity
  8
0
  6
Continuous
 62
     8
100
AcDbLine
 10
483.41363
 20
128.616755
 30
0.0
 11
507.411672
 21
128.616755
 31
0.0
  0
LINE
  5
358
100
AcDbEntity
  8
0
  6
Continuous
 62
     8
100
AcDbLine
 10
523.411169
 20
128.616755
 30
0.0
 11
531.410316
 21
128.616755
 31
0.0
  0
LINE
  5
359
100
AcDbEntity
  8
0
  6
Continuous
 62
     8
100
AcDbLine
 10
547.409813
 20
128.616755
 30
0.0
 11
564.075203
 21
128.616755
 31
0.0
  0
LINE
  5
35A
100
AcDbEntity
  8
0
  6
Continuous
 62
     8
100
AcDbLine
 10
570.074864
 20
128.616755
 30
0.0
 11
572.074952
 21
128.616755
 31
0.0
  0
LINE
  5
35B
100
AcDbEntity
  8
0
  6
Continuous
 62
     8
100
AcDbLine
 10
578.074613
 20
128.616755
 30
0.0
 11
594.740004
 21
128.616755
 31
0.0
  0
LINE
  5
35C
100
AcDbEntity
  8
0
  6
Continuous
 62
     8
100
AcDbLine
 10
600.739665
 20
128.616755
 30
0.0
 11
602.739151
 21
128.616755
 31
0.0
  0
LINE
  5
35D
100
AcDbEntity
  8
0
  6
Continuous
 62
     8
100
AcDbLine
 10
608.738811
 20
128.616755
 30
0.0
 11
625.404804
 21
128.616755
 31
0.0
  0
ENDBLK
  5
35E
100
AcDbEntity
  8
0
100
AcDbBlockEnd
  0
BLOCK
  5
361
100
AcDbEntity
  8
0
100
AcDbBlockBegin
  2
*B46
 70
     0
 10
0.0
 20
0.0
 30
0.0
  3
*B46
  1

  0
LINE
  5
362
100
AcDbEntity
  8
0
  6
Continuous
 62
     8
100
AcDbLine
 10
331.422619
 20
59.419742
 30
0.0
 11
331.422619
 21
98.61845
 31
0.0
  0
ENDBLK
  5
363
100
AcDbEntity
  8
0
100
AcDbBlockEnd
  0
BLOCK
  5
366
100
AcDbEntity
  8
0
100
AcDbBlockBegin
  2
*B47
 70
     0
 10
0.0
 20
0.0
 30
0.0
  3
*B47
  1

  0
LINE
  5
367
100
AcDbEntity
  8
0
  6
Continuous
 62
     8
100
AcDbLine
 10
549.409299
 20
65.420005
 30
0.0
 11
673.919407
 21
65.420005
 31
0.0
  0
ENDBLK
  5
368
100
AcDbEntity
  8
0
100
AcDbBlockEnd
  0
BLOCK
  5
36B
100
AcDbEntity
  8
0
100
AcDbBlockBegin
  2
*B48
 70
     0
 10
0.0
 20
0.0
 30
0.0
  3
*B48
  1

  0
LINE
  5
36C
100
AcDbEntity
  8
0
  6
Continuous
 62
     8
100
AcDbLine
 10
283.425933
 20
237.091876
 30
0.0
 11
283.425933
 21
241.091449
 31
0.0
  0
LINE
  5
36D
100
AcDbEntity
  8
0
  6
Continuous
 62
     8
100
AcDbLine
 10
283.425933
 20
116.617433
 30
0.0
 11
283.425933
 21
120.617006
 31
0.0
  0
LINE
  5
36E
100
AcDbEntity
  8
0
  6
Continuous
 62
     8
100
AcDbLine
 10
283.425933
 20
136.616503
 30
0.0
 11
283.425933
 21
168.614895
 31
0.0
  0
LINE
  5
36F
100
AcDbEntity
  8
0
  6
Continuous
 62
     8
100
AcDbLine
 10
283.425933
 20
184.614392
 30
0.0
 11
283.425933
 21
203.853129
 31
0.0
  0
LINE
  5
370
100
AcDbEntity
  8
0
  6
Continuous
 62
     8
100
AcDbLine
 10
283.425933
 20
209.85279
 30
0.0
 11
283.425933
 21
211.852877
 31
0.0
  0
LINE
  5
371
100
AcDbEntity
  8
0
  6
Continuous
 62
     8
100
AcDbLine
 10
283.425933
 20
217.852538
 30
0.0
 11
283.425933
 21
237.091876
 31
0.0
  0
ENDBLK
  5
372
100
AcDbEntity
  8
0
100
AcDbBlockEnd
  0
BLOCK
  5
375
100
AcDbEntity
  8
0
100
AcDbBlockBegin
  2
*B49
 70
     0
 10
0.0
 20
0.0
 30
0.0
  3
*B49
  1

  0
LINE
  5
376
100
AcDbEntity
  8
0
  6
Continuous
 62
     8
100
AcDbLine
 10
172.989824
 20
278.692493
 30
0.0
 11
197.431194
 21
278.692493
 31
0.0
  0
ENDBLK
  5
377
100
AcDbEntity
  8
0
100
AcDbBlockEnd
  0
BLOCK
  5
37A
100
AcDbEntity
  8
0
100
AcDbBlockBegin
  2
*B50
 70
     0
 10
0.0
 20
0.0
 30
0.0
  3
*B50
  1

  0
LINE
  5
37B
100
AcDbEntity
  8
0
  6
Continuous
 62
     8
100
AcDbLine
 10
411.417698
 20
488.0803
 30
0.0
 11
411.417698
 21
492.079873
 31
0.0
  0
LINE
  5
37C
100
AcDbEntity
  8
0
  6
Continuous
 62
     8
100
AcDbLine
 10
411.417698
 20
372.688184
 30
0.0
 11
411.417698
 21
391.036656
 31
0.0
  0
LINE
  5
37D
100
AcDbEntity
  8
0
  6
Continuous
 62
     8
100
AcDbLine
 10
411.417698
 20
397.036317
 30
0.0
 11
411.417698
 21
399.036404
 31
0.0
  0
LINE
  5
37E
100
AcDbEntity
  8
0
  6
Continuous
 62
     8
100
AcDbLine
 10
411.417698
 20
405.036065
 30
0.0
 11
411.417698
 21
423.384537
 31
0.0
  0
LINE
  5
37F
100
AcDbEntity
  8
0
  6
Continuous
 62
     8
100
AcDbLine
 10
411.417698
 20
429.384198
 30
0.0
 11
411.417698
 21
431.384286
 31
0.0
  0
LINE
  5
380
100
AcDbEntity
  8
0
  6
Continuous
 62
     8
100
AcDbLine
 10
411.417698
 20
437.383947
 30
0.0
 11
411.417698
 21
455.732419
 31
0.0
  0
LINE
  5
381
100
AcDbEntity
  8
0
  6
Continuous
 62
     8
100
AcDbLine
 10
411.417698
 20
461.73208
 30
0.0
 11
411.417698
 21
463.732167
 31
0.0
  0
LINE
  5
382
100
AcDbEntity
  8
0
  6
Continuous
 62
     8
100
AcDbLine
 10
411.417698
 20
469.731828
 30
0.0
 11
411.417698
 21
488.0803
 31
0.0
  0
ENDBLK
  5
383
100
AcDbEntity
  8
0
100
AcDbBlockEnd
  0
BLOCK
  5
386
100
AcDbEntity
  8
0
100
AcDbBlockBegin
  2
*B51
 70
     0
 10
0.0
 20
0.0
 30
0.0
  3
*B51
  1

  0
LINE
  5
387
100
AcDbEntity
  8
0
  6
Continuous
 62
     8
100
AcDbLine
 10
451.415237
 20
39.101259
 30
0.0
 11
451.415237
 21
70.219613
 31
0.0
  0
ENDBLK
  5
388
100
AcDbEntity
  8
0
100
AcDbBlockEnd
  0
BLOCK
  5
38B
100
AcDbEntity
  8
0
100
AcDbBlockBegin
  2
*B52
 70
     0
 10
0.0
 20
0.0
 30
0.0
  3
*B52
  1

  0
LINE
  5
38C
100
AcDbEntity
  8
0
  6
Continuous
 62
     8
100
AcDbLine
 10
173.949866
 20
194.113755
 30
0.0
 11
197.431194
 21
194.113755
 31
0.0
  0
ENDBLK
  5
38D
100
AcDbEntity
  8
0
100
AcDbBlockEnd
  0
BLOCK
  5
390
100
AcDbEntity
  8
0
100
AcDbBlockBegin
  2
*B53
 70
     0
 10
0.0
 20
0.0
 30
0.0
  3
*B53
  1

  0
LINE
  5
391
100
AcDbEntity
  8
0
  6
Continuous
 62
     8
100
AcDbLine
 10
475.413881
 20
237.091876
 30
0.0
 11
475.413881
 21
241.091449
 31
0.0
  0
LINE
  5
392
100
AcDbEntity
  8
0
  6
Continuous
 62
     8
100
AcDbLine
 10
475.413881
 20
116.617433
 30
0.0
 11
475.413881
 21
120.617006
 31
0.0
  0
LINE
  5
393
100
AcDbEntity
  8
0
  6
Continuous
 62
     8
100
AcDbLine
 10
475.413881
 20
136.616503
 30
0.0
 11
475.413881
 21
168.614895
 31
0.0
  0
LINE
  5
394
100
AcDbEntity
  8
0
  6
Continuous
 62
     8
100
AcDbLine
 10
475.413881
 20
184.614392
 30
0.0
 11
475.413881
 21
203.853129
 31
0.0
  0
LINE
  5
395
100
AcDbEntity
  8
0
  6
Continuous
 62
     8
100
AcDbLine
 10
475.413881
 20
209.85279
 30
0.0
 11
475.413881
 21
211.852877
 31
0.0
  0
LINE
  5
396
100
AcDbEntity
  8
0
  6
Continuous
 62
     8
100
AcDbLine
 10
475.413881
 20
217.852538
 30
0.0
 11
475.413881
 21
237.091876
 31
0.0
  0
ENDBLK
  5
397
100
AcDbEntity
  8
0
100
AcDbBlockEnd
  0
BLOCK
  5
39A
100
AcDbEntity
  8
0
100
AcDbBlockBegin
  2
*B54
 70
     0
 10
0.0
 20
0.0
 30
0.0
  3
*B54
  1

  0
LINE
  5
39B
100
AcDbEntity
  8
0
  6
Continuous
 62
     8
100
AcDbLine
 10
283.425933
 20
488.0803
 30
0.0
 11
283.425933
 21
492.079873
 31
0.0
  0
LINE
  5
39C
100
AcDbEntity
  8
0
  6
Continuous
 62
     8
100
AcDbLine
 10
283.425933
 20
372.688184
 30
0.0
 11
283.425933
 21
391.036656
 31
0.0
  0
LINE
  5
39D
100
AcDbEntity
  8
0
  6
Continuous
 62
     8
100
AcDbLine
 10
283.425933
 20
397.036317
 30
0.0
 11
283.425933
 21
399.036404
 31
0.0
  0
LINE
  5
39E
100
AcDbEntity
  8
0
  6
Continuous
 62
     8
100
AcDbLine
 10
283.425933
 20
405.036065
 30
0.0
 11
283.425933
 21
423.384537
 31
0.0
  0
LINE
  5
39F
100
AcDbEntity
  8
0
  6
Continuous
 62
     8
100
AcDbLine
 10
283.425933
 20
429.384198
 30
0.0
 11
283.425933
 21
431.384286
 31
0.0
  0
LINE
  5
3A0
100
AcDbEntity
  8
0
  6
Continuous
 62
     8
100
AcDbLine
 10
283.425933
 20
437.383947
 30
0.0
 11
283.425933
 21
455.732419
 31
0.0
  0
LINE
  5
3A1
100
AcDbEntity
  8
0
  6
Continuous
 62
     8
100
AcDbLine
 10
283.425933
 20
461.73208
 30
0.0
 11
283.425933
 21
463.732167
 31
0.0
  0
LINE
  5
3A2
100
AcDbEntity
  8
0
  6
Continuous
 62
     8
100
AcDbLine
 10
283.425933
 20
469.731828
 30
0.0
 11
283.425933
 21
488.0803
 31
0.0
  0
ENDBLK
  5
3A3
100
AcDbEntity
  8
0
100
AcDbBlockEnd
  0
BLOCK
  5
3A6
100
AcDbEntity
  8
0
100
AcDbBlockBegin
  2
*B55
 70
     0
 10
0.0
 20
0.0
 30
0.0
  3
*B55
  1

  0
LINE
  5
3A7
100
AcDbEntity
  8
0
  6
Continuous
 62
     8
100
AcDbLine
 10
173.949866
 20
159.115532
 30
0.0
 11
197.431194
 21
159.115532
 31
0.0
  0
ENDBLK
  5
3A8
100
AcDbEntity
  8
0
100
AcDbBlockEnd
  0
BLOCK
  5
3AB
100
AcDbEntity
  8
0
100
AcDbBlockBegin
  2
*B56
 70
     0
 10
0.0
 20
0.0
 30
0.0
  3
*B56
  1

  0
LINE
  5
3AC
100
AcDbEntity
  8
0
  6
Continuous
 62
     8
100
AcDbLine
 10
595.406499
 20
39.101259
 30
0.0
 11
595.406499
 21
43.100833
 31
0.0
  0
LINE
  5
3AD
100
AcDbEntity
  8
0
  6
Continuous
 62
     8
100
AcDbLine
 10
595.406499
 20
43.100833
 30
0.0
 11
595.406499
 21
63.979942
 31
0.0
  0
LINE
  5
3AE
100
AcDbEntity
  8
0
  6
Continuous
 62
     8
100
AcDbLine
 10
595.406499
 20
69.979603
 30
0.0
 11
595.406499
 21
71.97969
 31
0.0
  0
LINE
  5
3AF
100
AcDbEntity
  8
0
  6
Continuous
 62
     8
100
AcDbLine
 10
595.406499
 20
77.979351
 30
0.0
 11
595.406499
 21
98.85846
 31
0.0
  0
LINE
  5
3B0
100
AcDbEntity
  8
0
  6
Continuous
 62
     8
100
AcDbLine
 10
595.406499
 20
104.858121
 30
0.0
 11
595.406499
 21
106.857607
 31
0.0
  0
LINE
  5
3B1
100
AcDbEntity
  8
0
  6
Continuous
 62
     8
100
AcDbLine
 10
595.406499
 20
112.857268
 30
0.0
 11
595.406499
 21
133.736377
 31
0.0
  0
LINE
  5
3B2
100
AcDbEntity
  8
0
  6
Continuous
 62
     8
100
AcDbLine
 10
595.406499
 20
139.736038
 30
0.0
 11
595.406499
 21
141.736125
 31
0.0
  0
LINE
  5
3B3
100
AcDbEntity
  8
0
  6
Continuous
 62
     8
100
AcDbLine
 10
595.406499
 20
147.735786
 30
0.0
 11
595.406499
 21
168.614895
 31
0.0
  0
LINE
  5
3B4
100
AcDbEntity
  8
0
  6
Continuous
 62
     8
100
AcDbLine
 10
595.406499
 20
184.614392
 30
0.0
 11
595.406499
 21
191.613796
 31
0.0
  0
ENDBLK
  5
3B5
100
AcDbEntity
  8
0
100
AcDbBlockEnd
  0
BLOCK
  5
3B8
100
AcDbEntity
  8
0
100
AcDbBlockBegin
  2
*B57
 70
     0
 10
0.0
 20
0.0
 30
0.0
  3
*B57
  1

  0
LINE
  5
3B9
100
AcDbEntity
  8
0
  6
Continuous
 62
     8
100
AcDbLine
 10
523.411169
 20
140.616076
 30
0.0
 11
523.411169
 21
144.616251
 31
0.0
  0
LINE
  5
3BA
100
AcDbEntity
  8
0
  6
Continuous
 62
     8
100
AcDbLine
 10
523.411169
 20
160.615147
 30
0.0
 11
523.411169
 21
164.615322
 31
0.0
  0
ENDBLK
  5
3BB
100
AcDbEntity
  8
0
100
AcDbBlockEnd
  0
BLOCK
  5
3BE
100
AcDbEntity
  8
0
100
AcDbBlockBegin
  2
*B58
 70
     0
 10
0.0
 20
0.0
 30
0.0
  3
*B58
  1

  0
LINE
  5
3BF
100
AcDbEntity
  8
0
  6
Continuous
 62
     8
100
AcDbLine
 10
267.427038
 20
59.419742
 30
0.0
 11
267.427038
 21
98.61845
 31
0.0
  0
ENDBLK
  5
3C0
100
AcDbEntity
  8
0
100
AcDbBlockEnd
  0
BLOCK
  5
3C3
100
AcDbEntity
  8
0
100
AcDbBlockBegin
  2
*B59
 70
     0
 10
0.0
 20
0.0
 30
0.0
  3
*B59
  1

  0
LINE
  5
3C4
100
AcDbEntity
  8
0
  6
Continuous
 62
     8
100
AcDbLine
 10
475.413881
 20
488.0803
 30
0.0
 11
475.413881
 21
492.079873
 31
0.0
  0
LINE
  5
3C5
100
AcDbEntity
  8
0
  6
Continuous
 62
     8
100
AcDbLine
 10
475.413881
 20
372.688184
 30
0.0
 11
475.413881
 21
391.036656
 31
0.0
  0
LINE
  5
3C6
100
AcDbEntity
  8
0
  6
Continuous
 62
     8
100
AcDbLine
 10
475.413881
 20
397.036317
 30
0.0
 11
475.413881
 21
399.036404
 31
0.0
  0
LINE
  5
3C7
100
AcDbEntity
  8
0
  6
Continuous
 62
     8
100
AcDbLine
 10
475.413881
 20
405.036065
 30
0.0
 11
475.413881
 21
423.384537
 31
0.0
  0
LINE
  5
3C8
100
AcDbEntity
  8
0
  6
Continuous
 62
     8
100
AcDbLine
 10
475.413881
 20
429.384198
 30
0.0
 11
475.413881
 21
431.384286
 31
0.0
  0
LINE
  5
3C9
100
AcDbEntity
  8
0
  6
Continuous
 62
     8
100
AcDbLine
 10
475.413881
 20
437.383947
 30
0.0
 11
475.413881
 21
455.732419
 31
0.0
  0
LINE
  5
3CA
100
AcDbEntity
  8
0
  6
Continuous
 62
     8
100
AcDbLine
 10
475.413881
 20
461.73208
 30
0.0
 11
475.413881
 21
463.732167
 31
0.0
  0
LINE
  5
3CB
100
AcDbEntity
  8
0
  6
Continuous
 62
     8
100
AcDbLine
 10
475.413881
 20
469.731828
 30
0.0
 11
475.413881
 21
488.0803
 31
0.0
  0
ENDBLK
  5
3CC
100
AcDbEntity
  8
0
100
AcDbBlockEnd
  0
BLOCK
  5
3CF
100
AcDbEntity
  8
0
100
AcDbBlockBegin
  2
*B60
 70
     0
 10
0.0
 20
0.0
 30
0.0
  3
*B60
  1

  0
LINE
  5
3D0
100
AcDbEntity
  8
0
  6
Continuous
 62
     8
100
AcDbLine
 10
267.427038
 20
160.615147
 30
0.0
 11
267.427038
 21
164.615322
 31
0.0
  0
ENDBLK
  5
3D1
100
AcDbEntity
  8
0
100
AcDbBlockEnd
  0
BLOCK
  5
3D4
100
AcDbEntity
  8
0
100
AcDbBlockBegin
  2
*B61
 70
     0
 10
0.0
 20
0.0
 30
0.0
  3
*B61
  1

  0
LINE
  5
3D5
100
AcDbEntity
  8
0
  6
Continuous
 62
     8
100
AcDbLine
 10
331.422619
 20
160.615147
 30
0.0
 11
331.422619
 21
164.615322
 31
0.0
  0
ENDBLK
  5
3D6
100
AcDbEntity
  8
0
100
AcDbBlockEnd
  0
BLOCK
  5
3D9
100
AcDbEntity
  8
0
100
AcDbBlockBegin
  2
*B62
 70
     0
 10
0.0
 20
0.0
 30
0.0
  3
*B62
  1

  0
LINE
  5
3DA
100
AcDbEntity
  8
0
  6
Continuous
 62
     8
100
AcDbLine
 10
331.422619
 20
276.693007
 30
0.0
 11
331.422619
 21
294.69199
 31
0.0
  0
LINE
  5
3DB
100
AcDbEntity
  8
0
  6
Continuous
 62
     8
100
AcDbLine
 10
331.422619
 20
310.691487
 30
0.0
 11
331.422619
 21
328.69047
 31
0.0
  0
ENDBLK
  5
3DC
100
AcDbEntity
  8
0
100
AcDbBlockEnd
  0
BLOCK
  5
3DF
100
AcDbEntity
  8
0
100
AcDbBlockBegin
  2
*B63
 70
     0
 10
0.0
 20
0.0
 30
0.0
  3
*B63
  1

  0
LINE
  5
3E0
100
AcDbEntity
  8
0
  6
Continuous
 62
     8
100
AcDbLine
 10
371.420159
 20
39.101259
 30
0.0
 11
371.420159
 21
43.100833
 31
0.0
  0
LINE
  5
3E1
100
AcDbEntity
  8
0
  6
Continuous
 62
     8
100
AcDbLine
 10
371.420159
 20
43.100833
 30
0.0
 11
371.420159
 21
63.979942
 31
0.0
  0
LINE
  5
3E2
100
AcDbEntity
  8
0
  6
Continuous
 62
     8
100
AcDbLine
 10
371.420159
 20
69.979603
 30
0.0
 11
371.420159
 21
71.97969
 31
0.0
  0
LINE
  5
3E3
100
AcDbEntity
  8
0
  6
Continuous
 62
     8
100
AcDbLine
 10
371.420159
 20
77.979351
 30
0.0
 11
371.420159
 21
98.85846
 31
0.0
  0
LINE
  5
3E4
100
AcDbEntity
  8
0
  6
Continuous
 62
     8
100
AcDbLine
 10
371.420159
 20
104.858121
 30
0.0
 11
371.420159
 21
106.857607
 31
0.0
  0
LINE
  5
3E5
100
AcDbEntity
  8
0
  6
Continuous
 62
     8
100
AcDbLine
 10
371.420159
 20
112.857268
 30
0.0
 11
371.420159
 21
133.736377
 31
0.0
  0
LINE
  5
3E6
100
AcDbEntity
  8
0
  6
Continuous
 62
     8
100
AcDbLine
 10
371.420159
 20
139.736038
 30
0.0
 11
371.420159
 21
141.736125
 31
0.0
  0
LINE
  5
3E7
100
AcDbEntity
  8
0
  6
Continuous
 62
     8
100
AcDbLine
 10
371.420159
 20
147.735786
 30
0.0
 11
371.420159
 21
168.614895
 31
0.0
  0
ENDBLK
  5
3E8
100
AcDbEntity
  8
0
100
AcDbBlockEnd
  0
BLOCK
  5
3EB
100
AcDbEntity
  8
0
100
AcDbBlockBegin
  2
*B64
 70
     0
 10
0.0
 20
0.0
 30
0.0
  3
*B64
  1

  0
LINE
  5
3EC
100
AcDbEntity
  8
0
  6
Continuous
 62
     8
100
AcDbLine
 10
227.429498
 20
272.692832
 30
0.0
 11
227.429498
 21
290.191943
 31
0.0
  0
LINE
  5
3ED
100
AcDbEntity
  8
0
  6
Continuous
 62
     8
100
AcDbLine
 10
227.429498
 20
296.192206
 30
0.0
 11
227.429498
 21
298.191692
 31
0.0
  0
LINE
  5
3EE
100
AcDbEntity
  8
0
  6
Continuous
 62
     8
100
AcDbLine
 10
227.429498
 20
304.191353
 30
0.0
 11
227.429498
 21
321.691066
 31
0.0
  0
LINE
  5
3EF
100
AcDbEntity
  8
0
  6
Continuous
 62
     8
100
AcDbLine
 10
227.429498
 20
327.690727
 30
0.0
 11
227.429498
 21
329.690213
 31
0.0
  0
LINE
  5
3F0
100
AcDbEntity
  8
0
  6
Continuous
 62
     8
100
AcDbLine
 10
227.429498
 20
335.689874
 30
0.0
 11
227.429498
 21
353.189587
 31
0.0
  0
LINE
  5
3F1
100
AcDbEntity
  8
0
  6
Continuous
 62
     8
100
AcDbLine
 10
227.429498
 20
359.189248
 30
0.0
 11
227.429498
 21
361.188734
 31
0.0
  0
LINE
  5
3F2
100
AcDbEntity
  8
0
  6
Continuous
 62
     8
100
AcDbLine
 10
227.429498
 20
367.188395
 30
0.0
 11
227.429498
 21
384.688107
 31
0.0
  0
ENDBLK
  5
3F3
100
AcDbEntity
  8
0
100
AcDbBlockEnd
  0
BLOCK
  5
3F6
100
AcDbEntity
  8
0
100
AcDbBlockBegin
  2
*B65
 70
     0
 10
0.0
 20
0.0
 30
0.0
  3
*B65
  1

  0
LINE
  5
3F7
100
AcDbEntity
  8
0
  6
Continuous
 62
     8
100
AcDbLine
 10
459.414986
 20
276.693007
 30
0.0
 11
459.414986
 21
294.69199
 31
0.0
  0
LINE
  5
3F8
100
AcDbEntity
  8
0
  6
Continuous
 62
     8
100
AcDbLine
 10
459.414986
 20
310.691487
 30
0.0
 11
459.414986
 21
328.69047
 31
0.0
  0
ENDBLK
  5
3F9
100
AcDbEntity
  8
0
100
AcDbBlockEnd
  0
BLOCK
  5
3FC
100
AcDbEntity
  8
0
100
AcDbBlockBegin
  2
*B66
 70
     0
 10
0.0
 20
0.0
 30
0.0
  3
*B66
  1

  0
LINE
  5
3FD
100
AcDbEntity
  8
0
  6
Continuous
 62
     8
100
AcDbLine
 10
625.404804
 20
212.61261
 30
0.0
 11
673.919407
 21
212.61261
 31
0.0
  0
ENDBLK
  5
3FE
100
AcDbEntity
  8
0
100
AcDbBlockEnd
  0
BLOCK
  5
401
100
AcDbEntity
  8
0
100
AcDbBlockBegin
  2
*B67
 70
     0
 10
0.0
 20
0.0
 30
0.0
  3
*B67
  1

  0
LINE
  5
402
100
AcDbEntity
  8
0
  6
Continuous
 62
     8
100
AcDbLine
 10
595.406499
 20
272.692832
 30
0.0
 11
595.406499
 21
290.191943
 31
0.0
  0
LINE
  5
403
100
AcDbEntity
  8
0
  6
Continuous
 62
     8
100
AcDbLine
 10
595.406499
 20
296.192206
 30
0.0
 11
595.406499
 21
298.191692
 31
0.0
  0
LINE
  5
404
100
AcDbEntity
  8
0
  6
Continuous
 62
     8
100
AcDbLine
 10
595.406499
 20
304.191353
 30
0.0
 11
595.406499
 21
321.691066
 31
0.0
  0
LINE
  5
405
100
AcDbEntity
  8
0
  6
Continuous
 62
     8
100
AcDbLine
 10
595.406499
 20
327.690727
 30
0.0
 11
595.406499
 21
329.690213
 31
0.0
  0
LINE
  5
406
100
AcDbEntity
  8
0
  6
Continuous
 62
     8
100
AcDbLine
 10
595.406499
 20
335.689874
 30
0.0
 11
595.406499
 21
353.189587
 31
0.0
  0
LINE
  5
407
100
AcDbEntity
  8
0
  6
Continuous
 62
     8
100
AcDbLine
 10
595.406499
 20
359.189248
 30
0.0
 11
595.406499
 21
361.188734
 31
0.0
  0
LINE
  5
408
100
AcDbEntity
  8
0
  6
Continuous
 62
     8
100
AcDbLine
 10
595.406499
 20
367.188395
 30
0.0
 11
595.406499
 21
384.688107
 31
0.0
  0
ENDBLK
  5
409
100
AcDbEntity
  8
0
100
AcDbBlockEnd
  0
BLOCK
  5
40C
100
AcDbEntity
  8
0
100
AcDbBlockBegin
  2
*B68
 70
     0
 10
0.0
 20
0.0
 30
0.0
  3
*B68
  1

  0
LINE
  5
40D
100
AcDbEntity
  8
0
  6
Continuous
 62
     8
100
AcDbLine
 10
172.989824
 20
378.687845
 30
0.0
 11
197.431194
 21
378.687845
 31
0.0
  0
ENDBLK
  5
40E
100
AcDbEntity
  8
0
100
AcDbBlockEnd
  0
BLOCK
  5
411
100
AcDbEntity
  8
0
100
AcDbBlockBegin
  2
*B69
 70
     0
 10
0.0
 20
0.0
 30
0.0
  3
*B69
  1

  0
LINE
  5
412
100
AcDbEntity
  8
0
  6
Continuous
 62
     8
100
AcDbLine
 10
523.411169
 20
276.693007
 30
0.0
 11
523.411169
 21
294.69199
 31
0.0
  0
LINE
  5
413
100
AcDbEntity
  8
0
  6
Continuous
 62
     8
100
AcDbLine
 10
523.411169
 20
310.691487
 30
0.0
 11
523.411169
 21
328.69047
 31
0.0
  0
ENDBLK
  5
414
100
AcDbEntity
  8
0
100
AcDbBlockEnd
  0
BLOCK
  5
417
100
AcDbEntity
  8
0
100
AcDbBlockBegin
  2
*B70
 70
     0
 10
0.0
 20
0.0
 30
0.0
  3
*B70
  1

  0
LINE
  5
418
100
AcDbEntity
  8
0
  6
Continuous
 62
     8
100
AcDbLine
 10
411.417698
 20
237.091876
 30
0.0
 11
411.417698
 21
241.091449
 31
0.0
  0
LINE
  5
419
100
AcDbEntity
  8
0
  6
Continuous
 62
     8
100
AcDbLine
 10
411.417698
 20
116.617433
 30
0.0
 11
411.417698
 21
120.617006
 31
0.0
  0
LINE
  5
41A
100
AcDbEntity
  8
0
  6
Continuous
 62
     8
100
AcDbLine
 10
411.417698
 20
136.616503
 30
0.0
 11
411.417698
 21
168.614895
 31
0.0
  0
LINE
  5
41B
100
AcDbEntity
  8
0
  6
Continuous
 62
     8
100
AcDbLine
 10
411.417698
 20
184.614392
 30
0.0
 11
411.417698
 21
203.853129
 31
0.0
  0
LINE
  5
41C
100
AcDbEntity
  8
0
  6
Continuous
 62
     8
100
AcDbLine
 10
411.417698
 20
209.85279
 30
0.0
 11
411.417698
 21
211.852877
 31
0.0
  0
LINE
  5
41D
100
AcDbEntity
  8
0
  6
Continuous
 62
     8
100
AcDbLine
 10
411.417698
 20
217.852538
 30
0.0
 11
411.417698
 21
237.091876
 31
0.0
  0
ENDBLK
  5
41E
100
AcDbEntity
  8
0
100
AcDbBlockEnd
  0
BLOCK
  5
421
100
AcDbEntity
  8
0
100
AcDbBlockBegin
  2
*B71
 70
     0
 10
0.0
 20
0.0
 30
0.0
  3
*B71
  1

  0
LINE
  5
422
100
AcDbEntity
  8
0
  6
Continuous
 62
     8
100
AcDbLine
 10
459.414986
 20
160.615147
 30
0.0
 11
459.414986
 21
164.615322
 31
0.0
  0
ENDBLK
  5
423
100
AcDbEntity
  8
0
100
AcDbBlockEnd
  0
BLOCK
  5
426
100
AcDbEntity
  8
0
100
AcDbBlockBegin
  2
*B72
 70
     0
 10
0.0
 20
0.0
 30
0.0
  3
*B72
  1

  0
LINE
  5
427
100
AcDbEntity
  8
0
  6
Continuous
 62
     8
100
AcDbLine
 10
467.414734
 20
39.101259
 30
0.0
 11
467.414734
 21
70.219613
 31
0.0
  0
ENDBLK
  5
428
100
AcDbEntity
  8
0
100
AcDbBlockEnd
  0
BLOCK
  5
42B
100
AcDbEntity
  8
0
100
AcDbBlockBegin
  2
*B73
 70
     0
 10
0.0
 20
0.0
 30
0.0
  3
*B73
  1

  0
LINE
  5
42C
100
AcDbEntity
  8
0
  6
Continuous
 62
     8
100
AcDbLine
 10
395.418802
 20
59.419742
 30
0.0
 11
395.418802
 21
98.61845
 31
0.0
  0
ENDBLK
  5
42D
100
AcDbEntity
  8
0
100
AcDbBlockEnd
  0
BLOCK
  5
430
100
AcDbEntity
  8
0
100
AcDbBlockBegin
  2
*B74
 70
     0
 10
0.0
 20
0.0
 30
0.0
  3
*B74
  1

  0
LINE
  5
431
100
AcDbEntity
  8
0
  6
Continuous
 62
     8
100
AcDbLine
 10
323.423472
 20
39.101259
 30
0.0
 11
323.423472
 21
43.100833
 31
0.0
  0
LINE
  5
432
100
AcDbEntity
  8
0
  6
Continuous
 62
     8
100
AcDbLine
 10
323.423472
 20
43.100833
 30
0.0
 11
323.423472
 21
59.606818
 31
0.0
  0
LINE
  5
433
100
AcDbEntity
  8
0
  6
Continuous
 62
     8
100
AcDbLine
 10
323.423472
 20
65.606479
 30
0.0
 11
323.423472
 21
67.606567
 31
0.0
  0
LINE
  5
434
100
AcDbEntity
  8
0
  6
Continuous
 62
     8
100
AcDbLine
 10
323.423472
 20
73.606228
 30
0.0
 11
323.423472
 21
90.112213
 31
0.0
  0
LINE
  5
435
100
AcDbEntity
  8
0
  6
Continuous
 62
     8
100
AcDbLine
 10
323.423472
 20
96.111874
 30
0.0
 11
323.423472
 21
98.11136
 31
0.0
  0
LINE
  5
436
100
AcDbEntity
  8
0
  6
Continuous
 62
     8
100
AcDbLine
 10
323.423472
 20
104.111021
 30
0.0
 11
323.423472
 21
120.617006
 31
0.0
  0
ENDBLK
  5
437
100
AcDbEntity
  8
0
100
AcDbBlockEnd
  0
BLOCK
  5
43A
100
AcDbEntity
  8
0
100
AcDbBlockBegin
  2
*B75
 70
     0
 10
0.0
 20
0.0
 30
0.0
  3
*B75
  1

  0
LINE
  5
43B
100
AcDbEntity
  8
0
  6
Continuous
 62
     8
100
AcDbLine
 10
143.991262
 20
176.614644
 30
0.0
 11
147.990835
 21
176.614644
 31
0.0
  0
LINE
  5
43C
100
AcDbEntity
  8
0
  6
Continuous
 62
     8
100
AcDbLine
 10
645.960289
 20
176.614644
 30
0.0
 11
649.959863
 21
176.614644
 31
0.0
  0
LINE
  5
43D
100
AcDbEntity
  8
0
  6
Continuous
 62
     8
100
AcDbLine
 10
147.990835
 20
176.614644
 30
0.0
 11
169.350567
 21
176.614644
 31
0.0
  0
LINE
  5
43E
100
AcDbEntity
  8
0
  6
Continuous
 62
     8
100
AcDbLine
 10
175.350228
 20
176.614644
 30
0.0
 11
177.350315
 21
176.614644
 31
0.0
  0
LINE
  5
43F
100
AcDbEntity
  8
0
  6
Continuous
 62
     8
100
AcDbLine
 10
183.349375
 20
176.614644
 30
0.0
 11
204.709106
 21
176.614644
 31
0.0
  0
LINE
  5
440
100
AcDbEntity
  8
0
  6
Continuous
 62
     8
100
AcDbLine
 10
210.708767
 20
176.614644
 30
0.0
 11
212.708854
 21
176.614644
 31
0.0
  0
LINE
  5
441
100
AcDbEntity
  8
0
  6
Continuous
 62
     8
100
AcDbLine
 10
218.708515
 20
176.614644
 30
0.0
 11
240.067645
 21
176.614644
 31
0.0
  0
LINE
  5
442
100
AcDbEntity
  8
0
  6
Continuous
 62
     8
100
AcDbLine
 10
246.067306
 20
176.614644
 30
0.0
 11
248.067394
 21
176.614644
 31
0.0
  0
LINE
  5
443
100
AcDbEntity
  8
0
  6
Continuous
 62
     8
100
AcDbLine
 10
254.067055
 20
176.614644
 30
0.0
 11
275.426185
 21
176.614644
 31
0.0
  0
LINE
  5
444
100
AcDbEntity
  8
0
  6
Continuous
 62
     8
100
AcDbLine
 10
291.42508
 20
176.614644
 30
0.0
 11
299.424829
 21
176.614644
 31
0.0
  0
LINE
  5
445
100
AcDbEntity
  8
0
  6
Continuous
 62
     8
100
AcDbLine
 10
315.423724
 20
176.614644
 30
0.0
 11
339.422368
 21
176.614644
 31
0.0
  0
LINE
  5
446
100
AcDbEntity
  8
0
  6
Continuous
 62
     8
100
AcDbLine
 10
355.421263
 20
176.614644
 30
0.0
 11
363.421012
 21
176.614644
 31
0.0
  0
LINE
  5
447
100
AcDbEntity
  8
0
  6
Continuous
 62
     8
100
AcDbLine
 10
379.419907
 20
176.614644
 30
0.0
 11
403.418551
 21
176.614644
 31
0.0
  0
LINE
  5
448
100
AcDbEntity
  8
0
  6
Continuous
 62
     8
100
AcDbLine
 10
419.417446
 20
176.614644
 30
0.0
 11
427.417195
 21
176.614644
 31
0.0
  0
LINE
  5
449
100
AcDbEntity
  8
0
  6
Continuous
 62
     8
100
AcDbLine
 10
443.41609
 20
176.614644
 30
0.0
 11
467.414734
 21
176.614644
 31
0.0
  0
LINE
  5
44A
100
AcDbEntity
  8
0
  6
Continuous
 62
     8
100
AcDbLine
 10
483.41363
 20
176.614644
 30
0.0
 11
491.412776
 21
176.614644
 31
0.0
  0
LINE
  5
44B
100
AcDbEntity
  8
0
  6
Continuous
 62
     8
100
AcDbLine
 10
507.411672
 20
176.614644
 30
0.0
 11
531.410316
 21
176.614644
 31
0.0
  0
LINE
  5
44C
100
AcDbEntity
  8
0
  6
Continuous
 62
     8
100
AcDbLine
 10
547.409813
 20
176.614644
 30
0.0
 11
555.40896
 21
176.614644
 31
0.0
  0
LINE
  5
44D
100
AcDbEntity
  8
0
  6
Continuous
 62
     8
100
AcDbLine
 10
571.407855
 20
176.614644
 30
0.0
 11
587.407352
 21
176.614644
 31
0.0
  0
LINE
  5
44E
100
AcDbEntity
  8
0
  6
Continuous
 62
     8
100
AcDbLine
 10
603.406247
 20
176.614644
 30
0.0
 11
645.960289
 21
176.614644
 31
0.0
  0
ENDBLK
  5
44F
100
AcDbEntity
  8
0
100
AcDbBlockEnd
  0
BLOCK
  5
452
100
AcDbEntity
  8
0
100
AcDbBlockBegin
  2
*B76
 70
     0
 10
0.0
 20
0.0
 30
0.0
  3
*B76
  1

  0
LINE
  5
453
100
AcDbEntity
  8
0
  6
Continuous
 62
     8
100
AcDbLine
 10
172.989824
 20
466.683875
 30
0.0
 11
245.42788
 21
466.683875
 31
0.0
  0
ENDBLK
  5
454
100
AcDbEntity
  8
0
100
AcDbBlockEnd
  0
BLOCK
  5
457
100
AcDbEntity
  8
0
100
AcDbBlockBegin
  2
*B77
 70
     0
 10
0.0
 20
0.0
 30
0.0
  3
*B77
  1

  0
LINE
  5
458
100
AcDbEntity
  8
0
  6
Continuous
 62
     8
100
AcDbLine
 10
227.429498
 20
39.101259
 30
0.0
 11
227.429498
 21
43.100833
 31
0.0
  0
LINE
  5
459
100
AcDbEntity
  8
0
  6
Continuous
 62
     8
100
AcDbLine
 10
227.429498
 20
43.100833
 30
0.0
 11
227.429498
 21
59.606818
 31
0.0
  0
LINE
  5
45A
100
AcDbEntity
  8
0
  6
Continuous
 62
     8
100
AcDbLine
 10
227.429498
 20
65.606479
 30
0.0
 11
227.429498
 21
67.606567
 31
0.0
  0
LINE
  5
45B
100
AcDbEntity
  8
0
  6
Continuous
 62
     8
100
AcDbLine
 10
227.429498
 20
73.606228
 30
0.0
 11
227.429498
 21
90.112213
 31
0.0
  0
LINE
  5
45C
100
AcDbEntity
  8
0
  6
Continuous
 62
     8
100
AcDbLine
 10
227.429498
 20
96.111874
 30
0.0
 11
227.429498
 21
98.11136
 31
0.0
  0
LINE
  5
45D
100
AcDbEntity
  8
0
  6
Continuous
 62
     8
100
AcDbLine
 10
227.429498
 20
104.111021
 30
0.0
 11
227.429498
 21
120.617006
 31
0.0
  0
LINE
  5
45E
100
AcDbEntity
  8
0
  6
Continuous
 62
     8
100
AcDbLine
 10
227.429498
 20
136.616503
 30
0.0
 11
227.429498
 21
143.615907
 31
0.0
  0
ENDBLK
  5
45F
100
AcDbEntity
  8
0
100
AcDbBlockEnd
  0
BLOCK
  5
462
100
AcDbEntity
  8
0
100
AcDbBlockBegin
  2
*B78
 70
     0
 10
0.0
 20
0.0
 30
0.0
  3
*B78
  1

  0
LINE
  5
463
100
AcDbEntity
  8
0
  6
Continuous
 62
     6
100
AcDbLine
 10
329.423133
 20
152.615398
 30
0.0
 11
333.422707
 21
152.615398
 31
0.0
  0
LINE
  5
464
100
AcDbEntity
  8
0
  6
Continuous
 62
     6
100
AcDbLine
 10
331.422619
 20
150.615912
 30
0.0
 11
331.422619
 21
154.615486
 31
0.0
  0
ENDBLK
  5
465
100
AcDbEntity
  8
0
100
AcDbBlockEnd
  0
BLOCK
  5
468
100
AcDbEntity
  8
0
100
AcDbBlockBegin
  2
*B79
 70
     0
 10
0.0
 20
0.0
 30
0.0
  3
*B79
  1

  0
LINE
  5
469
100
AcDbEntity
  8
0
  6
Continuous
 62
     6
100
AcDbLine
 10
267.427038
 20
150.615912
 30
0.0
 11
267.427038
 21
154.615486
 31
0.0
  0
LINE
  5
46A
100
AcDbEntity
  8
0
  6
Continuous
 62
     6
100
AcDbLine
 10
265.42695
 20
152.615398
 30
0.0
 11
269.426524
 21
152.615398
 31
0.0
  0
ENDBLK
  5
46B
100
AcDbEntity
  8
0
100
AcDbBlockEnd
  0
BLOCK
  5
46E
100
AcDbEntity
  8
0
100
AcDbBlockBegin
  2
*B80
 70
     0
 10
0.0
 20
0.0
 30
0.0
  3
*B80
  1

  0
LINE
  5
46F
100
AcDbEntity
  8
0
  6
Continuous
 62
     6
100
AcDbLine
 10
411.417698
 20
126.616667
 30
0.0
 11
411.417698
 21
130.616842
 31
0.0
  0
LINE
  5
470
100
AcDbEntity
  8
0
  6
Continuous
 62
     6
100
AcDbLine
 10
409.418212
 20
128.616755
 30
0.0
 11
413.417785
 21
128.616755
 31
0.0
  0
ENDBLK
  5
471
100
AcDbEntity
  8
0
100
AcDbBlockEnd
  0
BLOCK
  5
474
100
AcDbEntity
  8
0
100
AcDbBlockBegin
  2
*B81
 70
     0
 10
0.0
 20
0.0
 30
0.0
  3
*B81
  1

  0
LINE
  5
475
100
AcDbEntity
  8
0
  6
Continuous
 62
     6
100
AcDbLine
 10
523.411169
 20
150.615912
 30
0.0
 11
523.411169
 21
154.615486
 31
0.0
  0
LINE
  5
476
100
AcDbEntity
  8
0
  6
Continuous
 62
     6
100
AcDbLine
 10
521.411081
 20
152.615398
 30
0.0
 11
525.410655
 21
152.615398
 31
0.0
  0
ENDBLK
  5
477
100
AcDbEntity
  8
0
100
AcDbBlockEnd
  0
BLOCK
  5
47A
100
AcDbEntity
  8
0
100
AcDbBlockBegin
  2
*B82
 70
     0
 10
0.0
 20
0.0
 30
0.0
  3
*B82
  1

  0
LINE
  5
47B
100
AcDbEntity
  8
0
  6
Continuous
 62
     6
100
AcDbLine
 10
457.414898
 20
302.691738
 30
0.0
 11
461.415073
 21
302.691738
 31
0.0
  0
LINE
  5
47C
100
AcDbEntity
  8
0
  6
Continuous
 62
     6
100
AcDbLine
 10
459.414986
 20
300.691651
 30
0.0
 11
459.414986
 21
304.691826
 31
0.0
  0
ENDBLK
  5
47D
100
AcDbEntity
  8
0
100
AcDbBlockEnd
  0
BLOCK
  5
480
100
AcDbEntity
  8
0
100
AcDbBlockBegin
  2
*B83
 70
     0
 10
0.0
 20
0.0
 30
0.0
  3
*B83
  1

  0
LINE
  5
481
100
AcDbEntity
  8
0
  6
Continuous
 62
     6
100
AcDbLine
 10
539.410064
 20
126.616667
 30
0.0
 11
539.410064
 21
130.616842
 31
0.0
  0
LINE
  5
482
100
AcDbEntity
  8
0
  6
Continuous
 62
     6
100
AcDbLine
 10
537.409977
 20
128.616755
 30
0.0
 11
541.40955
 21
128.616755
 31
0.0
  0
ENDBLK
  5
483
100
AcDbEntity
  8
0
100
AcDbBlockEnd
  0
BLOCK
  5
486
100
AcDbEntity
  8
0
100
AcDbBlockBegin
  2
*B84
 70
     0
 10
0.0
 20
0.0
 30
0.0
  3
*B84
  1

  0
LINE
  5
487
100
AcDbEntity
  8
0
  6
Continuous
 62
     6
100
AcDbLine
 10
347.422116
 20
174.614556
 30
0.0
 11
347.422116
 21
178.614731
 31
0.0
  0
LINE
  5
488
100
AcDbEntity
  8
0
  6
Continuous
 62
     6
100
AcDbLine
 10
345.422029
 20
176.614644
 30
0.0
 11
349.421602
 21
176.614644
 31
0.0
  0
ENDBLK
  5
489
100
AcDbEntity
  8
0
100
AcDbBlockEnd
  0
BLOCK
  5
48C
100
AcDbEntity
  8
0
100
AcDbBlockBegin
  2
*B85
 70
     0
 10
0.0
 20
0.0
 30
0.0
  3
*B85
  1

  0
LINE
  5
48D
100
AcDbEntity
  8
0
  6
Continuous
 62
     6
100
AcDbLine
 10
595.406499
 20
174.614556
 30
0.0
 11
595.406499
 21
178.614731
 31
0.0
  0
LINE
  5
48E
100
AcDbEntity
  8
0
  6
Continuous
 62
     6
100
AcDbLine
 10
593.407013
 20
176.614644
 30
0.0
 11
597.406586
 21
176.614644
 31
0.0
  0
ENDBLK
  5
48F
100
AcDbEntity
  8
0
100
AcDbBlockEnd
  0
BLOCK
  5
492
100
AcDbEntity
  8
0
100
AcDbBlockBegin
  2
*B86
 70
     0
 10
0.0
 20
0.0
 30
0.0
  3
*B86
  1

  0
LINE
  5
493
100
AcDbEntity
  8
0
  6
Continuous
 62
     6
100
AcDbLine
 10
281.425846
 20
128.616755
 30
0.0
 11
285.425419
 21
128.616755
 31
0.0
  0
LINE
  5
494
100
AcDbEntity
  8
0
  6
Continuous
 62
     6
100
AcDbLine
 10
283.425933
 20
126.616667
 30
0.0
 11
283.425933
 21
130.616842
 31
0.0
  0
ENDBLK
  5
495
100
AcDbEntity
  8
0
100
AcDbBlockEnd
  0
BLOCK
  5
498
100
AcDbEntity
  8
0
100
AcDbBlockBegin
  2
*B87
 70
     0
 10
0.0
 20
0.0
 30
0.0
  3
*B87
  1

  0
LINE
  5
499
100
AcDbEntity
  8
0
  6
Continuous
 62
     6
100
AcDbLine
 10
393.418715
 20
302.691738
 30
0.0
 11
397.41889
 21
302.691738
 31
0.0
  0
LINE
  5
49A
100
AcDbEntity
  8
0
  6
Continuous
 62
     6
100
AcDbLine
 10
395.418802
 20
300.691651
 30
0.0
 11
395.418802
 21
304.691826
 31
0.0
  0
ENDBLK
  5
49B
100
AcDbEntity
  8
0
100
AcDbBlockEnd
  0
BLOCK
  5
49E
100
AcDbEntity
  8
0
100
AcDbBlockBegin
  2
*B88
 70
     0
 10
0.0
 20
0.0
 30
0.0
  3
*B88
  1

  0
LINE
  5
49F
100
AcDbEntity
  8
0
  6
Continuous
 62
     6
100
AcDbLine
 10
225.429411
 20
128.616755
 30
0.0
 11
229.428984
 21
128.616755
 31
0.0
  0
LINE
  5
4A0
100
AcDbEntity
  8
0
  6
Continuous
 62
     6
100
AcDbLine
 10
227.429498
 20
126.616667
 30
0.0
 11
227.429498
 21
130.616842
 31
0.0
  0
ENDBLK
  5
4A1
100
AcDbEntity
  8
0
100
AcDbBlockEnd
  0
BLOCK
  5
4A4
100
AcDbEntity
  8
0
100
AcDbBlockBegin
  2
*B89
 70
     0
 10
0.0
 20
0.0
 30
0.0
  3
*B89
  1

  0
LINE
  5
4A5
100
AcDbEntity
  8
0
  6
Continuous
 62
     6
100
AcDbLine
 10
515.41142
 20
126.616667
 30
0.0
 11
515.41142
 21
130.616842
 31
0.0
  0
LINE
  5
4A6
100
AcDbEntity
  8
0
  6
Continuous
 62
     6
100
AcDbLine
 10
513.411333
 20
128.616755
 30
0.0
 11
517.411508
 21
128.616755
 31
0.0
  0
ENDBLK
  5
4A7
100
AcDbEntity
  8
0
100
AcDbBlockEnd
  0
BLOCK
  5
4AA
100
AcDbEntity
  8
0
100
AcDbBlockBegin
  2
*B90
 70
     0
 10
0.0
 20
0.0
 30
0.0
  3
*B90
  1

  0
LINE
  5
4AB
100
AcDbEntity
  8
0
  6
Continuous
 62
     6
100
AcDbLine
 10
539.410064
 20
174.614556
 30
0.0
 11
539.410064
 21
178.614731
 31
0.0
  0
LINE
  5
4AC
100
AcDbEntity
  8
0
  6
Continuous
 62
     6
100
AcDbLine
 10
537.409977
 20
176.614644
 30
0.0
 11
541.40955
 21
176.614644
 31
0.0
  0
ENDBLK
  5
4AD
100
AcDbEntity
  8
0
100
AcDbBlockEnd
  0
BLOCK
  5
4B0
100
AcDbEntity
  8
0
100
AcDbBlockBegin
  2
*B91
 70
     0
 10
0.0
 20
0.0
 30
0.0
  3
*B91
  1

  0
LINE
  5
4B1
100
AcDbEntity
  8
0
  6
Continuous
 62
     6
100
AcDbLine
 10
435.416342
 20
174.614556
 30
0.0
 11
435.416342
 21
178.614731
 31
0.0
  0
LINE
  5
4B2
100
AcDbEntity
  8
0
  6
Continuous
 62
     6
100
AcDbLine
 10
433.416254
 20
176.614644
 30
0.0
 11
437.416429
 21
176.614644
 31
0.0
  0
ENDBLK
  5
4B3
100
AcDbEntity
  8
0
100
AcDbBlockEnd
  0
BLOCK
  5
4B6
100
AcDbEntity
  8
0
100
AcDbBlockBegin
  2
*B92
 70
     0
 10
0.0
 20
0.0
 30
0.0
  3
*B92
  1

  0
LINE
  5
4B7
100
AcDbEntity
  8
0
  6
Continuous
 62
     6
100
AcDbLine
 10
475.413881
 20
126.616667
 30
0.0
 11
475.413881
 21
130.616842
 31
0.0
  0
LINE
  5
4B8
100
AcDbEntity
  8
0
  6
Continuous
 62
     6
100
AcDbLine
 10
473.414395
 20
128.616755
 30
0.0
 11
477.413969
 21
128.616755
 31
0.0
  0
ENDBLK
  5
4B9
100
AcDbEntity
  8
0
100
AcDbBlockEnd
  0
BLOCK
  5
4BC
100
AcDbEntity
  8
0
100
AcDbBlockBegin
  2
*B93
 70
     0
 10
0.0
 20
0.0
 30
0.0
  3
*B93
  1

  0
LINE
  5
4BD
100
AcDbEntity
  8
0
  6
Continuous
 62
     6
100
AcDbLine
 10
497.412437
 20
176.614644
 30
0.0
 11
501.412612
 21
176.614644
 31
0.0
  0
LINE
  5
4BE
100
AcDbEntity
  8
0
  6
Continuous
 62
     6
100
AcDbLine
 10
499.412525
 20
174.614556
 30
0.0
 11
499.412525
 21
178.614731
 31
0.0
  0
ENDBLK
  5
4BF
100
AcDbEntity
  8
0
100
AcDbBlockEnd
  0
BLOCK
  5
4C2
100
AcDbEntity
  8
0
100
AcDbBlockBegin
  2
*B94
 70
     0
 10
0.0
 20
0.0
 30
0.0
  3
*B94
  1

  0
LINE
  5
4C3
100
AcDbEntity
  8
0
  6
Continuous
 62
     6
100
AcDbLine
 10
387.419656
 20
126.616667
 30
0.0
 11
387.419656
 21
130.616842
 31
0.0
  0
LINE
  5
4C4
100
AcDbEntity
  8
0
  6
Continuous
 62
     6
100
AcDbLine
 10
385.419568
 20
128.616755
 30
0.0
 11
389.419142
 21
128.616755
 31
0.0
  0
ENDBLK
  5
4C5
100
AcDbEntity
  8
0
100
AcDbBlockEnd
  0
BLOCK
  5
4C8
100
AcDbEntity
  8
0
100
AcDbBlockBegin
  2
*B95
 70
     0
 10
0.0
 20
0.0
 30
0.0
  3
*B95
  1

  0
LINE
  5
4C9
100
AcDbEntity
  8
0
  6
Continuous
 62
     6
100
AcDbLine
 10
475.413881
 20
174.614556
 30
0.0
 11
475.413881
 21
178.614731
 31
0.0
  0
LINE
  5
4CA
100
AcDbEntity
  8
0
  6
Continuous
 62
     6
100
AcDbLine
 10
473.414395
 20
176.614644
 30
0.0
 11
477.413969
 21
176.614644
 31
0.0
  0
ENDBLK
  5
4CB
100
AcDbEntity
  8
0
100
AcDbBlockEnd
  0
BLOCK
  5
4CE
100
AcDbEntity
  8
0
100
AcDbBlockBegin
  2
*B96
 70
     0
 10
0.0
 20
0.0
 30
0.0
  3
*B96
  1

  0
LINE
  5
4CF
100
AcDbEntity
  8
0
  6
Continuous
 62
     6
100
AcDbLine
 10
329.423133
 20
302.691738
 30
0.0
 11
333.422707
 21
302.691738
 31
0.0
  0
LINE
  5
4D0
100
AcDbEntity
  8
0
  6
Continuous
 62
     6
100
AcDbLine
 10
331.422619
 20
300.691651
 30
0.0
 11
331.422619
 21
304.691826
 31
0.0
  0
ENDBLK
  5
4D1
100
AcDbEntity
  8
0
100
AcDbBlockEnd
  0
BLOCK
  5
4D4
100
AcDbEntity
  8
0
100
AcDbBlockBegin
  2
*B97
 70
     0
 10
0.0
 20
0.0
 30
0.0
  3
*B97
  1

  0
LINE
  5
4D5
100
AcDbEntity
  8
0
  6
Continuous
 62
     6
100
AcDbLine
 10
411.417698
 20
174.614556
 30
0.0
 11
411.417698
 21
178.614731
 31
0.0
  0
LINE
  5
4D6
100
AcDbEntity
  8
0
  6
Continuous
 62
     6
100
AcDbLine
 10
409.418212
 20
176.614644
 30
0.0
 11
413.417785
 21
176.614644
 31
0.0
  0
ENDBLK
  5
4D7
100
AcDbEntity
  8
0
100
AcDbBlockEnd
  0
BLOCK
  5
4DA
100
AcDbEntity
  8
0
100
AcDbBlockBegin
  2
*B98
 70
     0
 10
0.0
 20
0.0
 30
0.0
  3
*B98
  1

  0
LINE
  5
4DB
100
AcDbEntity
  8
0
  6
Continuous
 62
     6
100
AcDbLine
 10
305.424489
 20
176.614644
 30
0.0
 11
309.424063
 21
176.614644
 31
0.0
  0
LINE
  5
4DC
100
AcDbEntity
  8
0
  6
Continuous
 62
     6
100
AcDbLine
 10
307.424577
 20
174.614556
 30
0.0
 11
307.424577
 21
178.614731
 31
0.0
  0
ENDBLK
  5
4DD
100
AcDbEntity
  8
0
100
AcDbBlockEnd
  0
BLOCK
  5
4E0
100
AcDbEntity
  8
0
100
AcDbBlockBegin
  2
*B99
 70
     0
 10
0.0
 20
0.0
 30
0.0
  3
*B99
  1

  0
LINE
  5
4E1
100
AcDbEntity
  8
0
  6
Continuous
 62
     6
100
AcDbLine
 10
347.422116
 20
126.616667
 30
0.0
 11
347.422116
 21
130.616842
 31
0.0
  0
LINE
  5
4E2
100
AcDbEntity
  8
0
  6
Continuous
 62
     6
100
AcDbLine
 10
345.422029
 20
128.616755
 30
0.0
 11
349.421602
 21
128.616755
 31
0.0
  0
ENDBLK
  5
4E3
100
AcDbEntity
  8
0
100
AcDbBlockEnd
  0
BLOCK
  5
4E6
100
AcDbEntity
  8
0
100
AcDbBlockBegin
  2
*B100
 70
     0
 10
0.0
 20
0.0
 30
0.0
  3
*B100
  1

  0
LINE
  5
4E7
100
AcDbEntity
  8
0
  6
Continuous
 62
     6
100
AcDbLine
 10
257.427202
 20
128.616755
 30
0.0
 11
261.427377
 21
128.616755
 31
0.0
  0
LINE
  5
4E8
100
AcDbEntity
  8
0
  6
Continuous
 62
     6
100
AcDbLine
 10
259.427289
 20
126.616667
 30
0.0
 11
259.427289
 21
130.616842
 31
0.0
  0
ENDBLK
  5
4E9
100
AcDbEntity
  8
0
100
AcDbBlockEnd
  0
BLOCK
  5
4EC
100
AcDbEntity
  8
0
100
AcDbBlockBegin
  2
*B101
 70
     0
 10
0.0
 20
0.0
 30
0.0
  3
*B101
  1

  0
LINE
  5
4ED
100
AcDbEntity
  8
0
  6
Continuous
 62
     6
100
AcDbLine
 10
563.408708
 20
174.614556
 30
0.0
 11
563.408708
 21
178.614731
 31
0.0
  0
LINE
  5
4EE
100
AcDbEntity
  8
0
  6
Continuous
 62
     6
100
AcDbLine
 10
561.408621
 20
176.614644
 30
0.0
 11
565.408194
 21
176.614644
 31
0.0
  0
ENDBLK
  5
4EF
100
AcDbEntity
  8
0
100
AcDbBlockEnd
  0
BLOCK
  5
4F2
100
AcDbEntity
  8
0
100
AcDbBlockBegin
  2
*B102
 70
     0
 10
0.0
 20
0.0
 30
0.0
  3
*B102
  1

  0
LINE
  5
4F3
100
AcDbEntity
  8
0
  6
Continuous
 62
     6
100
AcDbLine
 10
371.420159
 20
174.614556
 30
0.0
 11
371.420159
 21
178.614731
 31
0.0
  0
LINE
  5
4F4
100
AcDbEntity
  8
0
  6
Continuous
 62
     6
100
AcDbLine
 10
369.420673
 20
176.614644
 30
0.0
 11
373.420246
 21
176.614644
 31
0.0
  0
ENDBLK
  5
4F5
100
AcDbEntity
  8
0
100
AcDbBlockEnd
  0
BLOCK
  5
4F8
100
AcDbEntity
  8
0
100
AcDbBlockBegin
  2
*B103
 70
     0
 10
0.0
 20
0.0
 30
0.0
  3
*B103
  1

  0
LINE
  5
4F9
100
AcDbEntity
  8
0
  6
Continuous
 62
     6
100
AcDbLine
 10
459.414986
 20
150.615912
 30
0.0
 11
459.414986
 21
154.615486
 31
0.0
  0
LINE
  5
4FA
100
AcDbEntity
  8
0
  6
Continuous
 62
     6
100
AcDbLine
 10
457.414898
 20
152.615398
 30
0.0
 11
461.415073
 21
152.615398
 31
0.0
  0
ENDBLK
  5
4FB
100
AcDbEntity
  8
0
100
AcDbBlockEnd
  0
BLOCK
  5
4FE
100
AcDbEntity
  8
0
100
AcDbBlockBegin
  2
*B104
 70
     0
 10
0.0
 20
0.0
 30
0.0
  3
*B104
  1

  0
LINE
  5
4FF
100
AcDbEntity
  8
0
  6
Continuous
 62
     6
100
AcDbLine
 10
265.42695
 20
302.691738
 30
0.0
 11
269.426524
 21
302.691738
 31
0.0
  0
LINE
  5
500
100
AcDbEntity
  8
0
  6
Continuous
 62
     6
100
AcDbLine
 10
267.427038
 20
300.691651
 30
0.0
 11
267.427038
 21
304.691826
 31
0.0
  0
ENDBLK
  5
501
100
AcDbEntity
  8
0
100
AcDbBlockEnd
  0
BLOCK
  5
504
100
AcDbEntity
  8
0
100
AcDbBlockBegin
  2
*B105
 70
     0
 10
0.0
 20
0.0
 30
0.0
  3
*B105
  1

  0
LINE
  5
505
100
AcDbEntity
  8
0
  6
Continuous
 62
     6
100
AcDbLine
 10
451.415237
 20
126.616667
 30
0.0
 11
451.415237
 21
130.616842
 31
0.0
  0
LINE
  5
506
100
AcDbEntity
  8
0
  6
Continuous
 62
     6
100
AcDbLine
 10
449.415751
 20
128.616755
 30
0.0
 11
453.415325
 21
128.616755
 31
0.0
  0
ENDBLK
  5
507
100
AcDbEntity
  8
0
100
AcDbBlockEnd
  0
BLOCK
  5
50A
100
AcDbEntity
  8
0
100
AcDbBlockBegin
  2
*B106
 70
     0
 10
0.0
 20
0.0
 30
0.0
  3
*B106
  1

  0
LINE
  5
50B
100
AcDbEntity
  8
0
  6
Continuous
 62
     6
100
AcDbLine
 10
283.425933
 20
174.614556
 30
0.0
 11
283.425933
 21
178.614731
 31
0.0
  0
LINE
  5
50C
100
AcDbEntity
  8
0
  6
Continuous
 62
     6
100
AcDbLine
 10
281.425846
 20
176.614644
 30
0.0
 11
285.425419
 21
176.614644
 31
0.0
  0
ENDBLK
  5
50D
100
AcDbEntity
  8
0
100
AcDbBlockEnd
  0
BLOCK
  5
510
100
AcDbEntity
  8
0
100
AcDbBlockBegin
  2
*B107
 70
     0
 10
0.0
 20
0.0
 30
0.0
  3
*B107
  1

  0
LINE
  5
511
100
AcDbEntity
  8
0
  6
Continuous
 62
     6
100
AcDbLine
 10
323.423472
 20
126.616667
 30
0.0
 11
323.423472
 21
130.616842
 31
0.0
  0
LINE
  5
512
100
AcDbEntity
  8
0
  6
Continuous
 62
     6
100
AcDbLine
 10
321.423385
 20
128.616755
 30
0.0
 11
325.422958
 21
128.616755
 31
0.0
  0
ENDBLK
  5
513
100
AcDbEntity
  8
0
100
AcDbBlockEnd
  0
BLOCK
  5
516
100
AcDbEntity
  8
0
100
AcDbBlockBegin
  2
*B108
 70
     0
 10
0.0
 20
0.0
 30
0.0
  3
*B108
  1

  0
LINE
  5
517
100
AcDbEntity
  8
0
  6
Continuous
 62
     6
100
AcDbLine
 10
521.411081
 20
302.691738
 30
0.0
 11
525.410655
 21
302.691738
 31
0.0
  0
LINE
  5
518
100
AcDbEntity
  8
0
  6
Continuous
 62
     6
100
AcDbLine
 10
523.411169
 20
300.691651
 30
0.0
 11
523.411169
 21
304.691826
 31
0.0
  0
ENDBLK
  5
519
100
AcDbEntity
  8
0
100
AcDbBlockEnd
  0
BLOCK
  5
51C
100
AcDbEntity
  8
0
100
AcDbBlockBegin
  2
*B109
 70
     0
 10
0.0
 20
0.0
 30
0.0
  3
*B109
  1

  0
LINE
  5
51D
100
AcDbEntity
  8
0
  6
Continuous
 62
     6
100
AcDbLine
 10
395.418802
 20
150.615912
 30
0.0
 11
395.418802
 21
154.615486
 31
0.0
  0
LINE
  5
51E
100
AcDbEntity
  8
0
  6
Continuous
 62
     6
100
AcDbLine
 10
393.418715
 20
152.615398
 30
0.0
 11
397.41889
 21
152.615398
 31
0.0
  0
ENDBLK
  5
51F
100
AcDbEntity
  8
0
100
AcDbBlockEnd
  0
BLOCK
  5
522
100
AcDbEntity
  8
0
100
AcDbBlockBegin
  2
*B110
 70
     0
 10
0.0
 20
0.0
 30
0.0
  3
*B110
  1

  0
LINE
  5
523
100
AcDbEntity
  8
0
  6
Continuous
 62
     0
100
AcDbLine
 10
523.874347
 20
42.350725
 30
0.0
 11
504.408834
 21
42.350725
 31
0.0
  0
LINE
  5
524
100
AcDbEntity
  8
0
  6
Continuous
 62
     0
100
AcDbLine
 10
504.408834
 20
42.350725
 30
0.0
 11
477.325544
 21
122.929889
 31
0.0
  0
SOLID
  5
525
100
AcDbEntity
  8
0
  6
Continuous
 62
     0
100
AcDbTrace
 10
482.406668
 20
114.0886
 30
0.0
 11
477.325544
 21
122.929889
 31
0.0
 12
478.615826
 22
112.813958
 32
0.0
 13
478.615826
 23
112.813958
 33
0.0
  0
ENDBLK
  5
526
100
AcDbEntity
  8
0
100
AcDbBlockEnd
  0
BLOCK
  5
529
100
AcDbEntity
  8
0
100
AcDbBlockBegin
  2
*B111
 70
     0
 10
0.0
 20
0.0
 30
0.0
  3
*B111
  1

  0
LINE
  5
52A
100
AcDbEntity
  8
0
  6
Continuous
 62
     0
100
AcDbLine
 10
156.76355
 20
66.34997
 30
0.0
 11
189.761685
 21
66.34997
 31
0.0
  0
LINE
  5
52B
100
AcDbEntity
  8
0
  6
Continuous
 62
     0
100
AcDbLine
 10
189.761685
 20
66.34997
 30
0.0
 11
256.370313
 21
125.884605
 31
0.0
  0
SOLID
  5
52C
100
AcDbEntity
  8
0
  6
Continuous
 62
     0
100
AcDbTrace
 10
250.433212
 20
117.976891
 30
0.0
 11
256.370313
 21
125.884605
 31
0.0
 12
247.848437
 22
120.868446
 32
0.0
 13
247.848437
 23
120.868446
 33
0.0
  0
ENDBLK
  5
52D
100
AcDbEntity
  8
0
100
AcDbBlockEnd
  0
BLOCK
  5
530
100
AcDbEntity
  8
0
100
AcDbBlockBegin
  2
*B112
 70
     0
 10
0.0
 20
0.0
 30
0.0
  3
*B112
  1

  0
LINE
  5
531
100
AcDbEntity
  8
0
  6
Continuous
 62
     0
100
AcDbLine
 10
670.532192
 20
230.342107
 30
0.0
 11
641.067444
 21
230.342107
 31
0.0
  0
LINE
  5
532
100
AcDbEntity
  8
0
  6
Continuous
 62
     0
100
AcDbLine
 10
641.067444
 20
230.342107
 30
0.0
 11
601.234724
 21
183.472087
 31
0.0
  0
SOLID
  5
533
100
AcDbEntity
  8
0
  6
Continuous
 62
     0
100
AcDbTrace
 10
606.185918
 20
192.386762
 30
0.0
 11
601.234724
 21
183.472087
 31
0.0
 12
609.233871
 22
189.796574
 32
0.0
 13
609.233871
 23
189.796574
 33
0.0
  0
ENDBLK
  5
534
100
AcDbEntity
  8
0
100
AcDbBlockEnd
  0
BLOCK
  5
537
100
AcDbEntity
  8
0
100
AcDbBlockBegin
  2
*B113
 70
     0
 10
0.0
 20
0.0
 30
0.0
  3
*B113
  1

  0
TEXT
  5
538
100
AcDbEntity
  8
TEXT
  6
Continuous
 62
     0
100
AcDbText
 10
507.43975
 20
47.5
 30
0.0
 40
7.0
  1
%%c3
100
AcDbText
  0
ENDBLK
  5
539
100
AcDbEntity
  8
0
100
AcDbBlockEnd
  0
BLOCK
  5
53C
100
AcDbEntity
  8
0
100
AcDbBlockBegin
  2
*B114
 70
     0
 10
0.0
 20
0.0
 30
0.0
  3
*B114
  1

  0
TEXT
  5
53D
100
AcDbEntity
  8
TEXT
  6
Continuous
 62
     0
100
AcDbText
 10
156.773083
 20
71.5
 30
0.0
 40
7.0
  1
M 2,5
100
AcDbText
  0
ENDBLK
  5
53E
100
AcDbEntity
  8
0
100
AcDbBlockEnd
  0
BLOCK
  5
541
100
AcDbEntity
  8
0
100
AcDbBlockBegin
  2
*B115
 70
     0
 10
0.0
 20
0.0
 30
0.0
  3
*B115
  1

  0
TEXT
  5
542
100
AcDbEntity
  8
TEXT
  6
Continuous
 62
     0
100
AcDbText
 10
644.106416
 20
235.5
 30
0.0
 40
7.0
  1
%%c4,5
100
AcDbText
  0
ENDBLK
  5
543
100
AcDbEntity
  8
0
100
AcDbBlockEnd
  0
BLOCK
  5
546
100
AcDbEntity
  8
0
100
AcDbBlockBegin
  2
*B116
 70
     0
 10
0.0
 20
0.0
 30
0.0
  3
*B116
  1

  0
TEXT
  5
547
100
AcDbEntity
  8
TEXT
  6
Continuous
 62
     0
100
AcDbText
 10
668.460583
 20
145.853263
 30
0.0
 40
7.0
  1
30
 50
90.0
100
AcDbText
  0
ENDBLK
  5
548
100
AcDbEntity
  8
0
100
AcDbBlockEnd
  0
BLOCK
  5
54B
100
AcDbEntity
  8
0
100
AcDbBlockBegin
  2
*B117
 70
     0
 10
0.0
 20
0.0
 30
0.0
  3
*B117
  1

  0
TEXT
  5
54C
100
AcDbEntity
  8
TEXT
  6
Continuous
 62
     0
100
AcDbText
 10
668.460583
 20
75.586596
 30
0.0
 40
7.0
  1
6
 50
90.0
100
AcDbText
  0
ENDBLK
  5
54D
100
AcDbEntity
  8
0
100
AcDbBlockEnd
  0
BLOCK
  5
550
100
AcDbEntity
  8
0
100
AcDbBlockBegin
  2
*B118
 70
     0
 10
0.0
 20
0.0
 30
0.0
  3
*B118
  1

  0
TEXT
  5
551
100
AcDbEntity
  8
TEXT
  6
Continuous
 62
     0
100
AcDbText
 10
604.109684
 20
44.5
 30
0.0
 40
7.0
  1
6
100
AcDbText
  0
ENDBLK
  5
552
100
AcDbEntity
  8
0
100
AcDbBlockEnd
  0
BLOCK
  5
555
100
AcDbEntity
  8
0
100
AcDbBlockBegin
  2
*B119
 70
     0
 10
0.0
 20
0.0
 30
0.0
  3
*B119
  1

  0
TEXT
  5
556
100
AcDbEntity
  8
TEXT
  6
Continuous
 62
     0
100
AcDbText
 10
212.109684
 20
44.5
 30
0.0
 40
7.0
  1
6
100
AcDbText
  0
ENDBLK
  5
557
100
AcDbEntity
  8
0
100
AcDbBlockEnd
  0
BLOCK
  5
55A
100
AcDbEntity
  8
0
100
AcDbBlockBegin
  2
*B120
 70
     0
 10
0.0
 20
0.0
 30
0.0
  3
*B120
  1

  0
TEXT
  5
55B
100
AcDbEntity
  8
TEXT
  6
Continuous
 62
     0
100
AcDbText
 10
340.77635
 20
44.5
 30
0.0
 40
7.0
  1
12
100
AcDbText
  0
ENDBLK
  5
55C
100
AcDbEntity
  8
0
100
AcDbBlockEnd
  0
BLOCK
  5
55F
100
AcDbEntity
  8
0
100
AcDbBlockBegin
  2
*B121
 70
     0
 10
0.0
 20
0.0
 30
0.0
  3
*B121
  1

  0
TEXT
  5
560
100
AcDbEntity
  8
TEXT
  6
Continuous
 62
     0
100
AcDbText
 10
421.03975
 20
44.5
 30
0.0
 40
7.0
  1
%%c4
100
AcDbText
  0
ENDBLK
  5
561
100
AcDbEntity
  8
0
100
AcDbBlockEnd
  0
BLOCK
  5
564
100
AcDbEntity
  8
0
100
AcDbBlockBegin
  2
*B122
 70
     0
 10
0.0
 20
0.0
 30
0.0
  3
*B122
  1

  0
TEXT
  5
565
100
AcDbEntity
  8
TEXT
  6
Continuous
 62
     0
100
AcDbText
 10
172.460583
 20
157.353263
 30
0.0
 40
7.0
  1
G 1/8"
 50
90.0
100
AcDbText
  0
ENDBLK
  5
566
100
AcDbEntity
  8
0
100
AcDbBlockEnd
  0
BLOCK
  5
569
100
AcDbEntity
  8
0
100
AcDbBlockBegin
  2
*B123
 70
     0
 10
0.0
 20
0.0
 30
0.0
  3
*B123
  1

  0
TEXT
  5
56A
100
AcDbEntity
  8
TEXT
  6
Continuous
 62
     0
100
AcDbText
 10
236.77635
 20
242.5
 30
0.0
 40
7.0
  1
20
100
AcDbText
  0
ENDBLK
  5
56B
100
AcDbEntity
  8
0
100
AcDbBlockEnd
  0
BLOCK
  5
56E
100
AcDbEntity
  8
0
100
AcDbBlockBegin
  2
*B124
 70
     0
 10
0.0
 20
0.0
 30
0.0
  3
*B124
  1

  0
TEXT
  5
56F
100
AcDbEntity
  8
TEXT
  6
Continuous
 62
     0
100
AcDbText
 10
308.77635
 20
242.5
 30
0.0
 40
7.0
  1
16
100
AcDbText
  0
ENDBLK
  5
570
100
AcDbEntity
  8
0
100
AcDbBlockEnd
  0
BLOCK
  5
573
100
AcDbEntity
  8
0
100
AcDbBlockBegin
  2
*B125
 70
     0
 10
0.0
 20
0.0
 30
0.0
  3
*B125
  1

  0
TEXT
  5
574
100
AcDbEntity
  8
TEXT
  6
Continuous
 62
     0
100
AcDbText
 10
372.77635
 20
242.5
 30
0.0
 40
7.0
  1
16
100
AcDbText
  0
ENDBLK
  5
575
100
AcDbEntity
  8
0
100
AcDbBlockEnd
  0
BLOCK
  5
578
100
AcDbEntity
  8
0
100
AcDbBlockBegin
  2
*B126
 70
     0
 10
0.0
 20
0.0
 30
0.0
  3
*B126
  1

  0
TEXT
  5
579
100
AcDbEntity
  8
TEXT
  6
Continuous
 62
     0
100
AcDbText
 10
644.5
 20
127.853263
 30
0.0
 40
7.0
  1
21
 50
90.0
100
AcDbText
  0
ENDBLK
  5
57A
100
AcDbEntity
  8
0
100
AcDbBlockEnd
  0
BLOCK
  5
57D
100
AcDbEntity
  8
0
100
AcDbBlockBegin
  2
*B127
 70
     0
 10
0.0
 20
0.0
 30
0.0
  3
*B127
  1

  0
TEXT
  5
57E
100
AcDbEntity
  8
TEXT
  6
Continuous
 62
     0
100
AcDbText
 10
142.5
 20
107.186596
 30
0.0
 40
7.0
  1
9
 50
90.0
100
AcDbText
  0
ENDBLK
  5
57F
100
AcDbEntity
  8
0
100
AcDbBlockEnd
  0
BLOCK
  5
582
100
AcDbEntity
  8
0
100
AcDbBlockBegin
  2
*B128
 70
     0
 10
0.0
 20
0.0
 30
0.0
  3
*B128
  1

  0
TEXT
  5
583
100
AcDbEntity
  8
TEXT
  6
Continuous
 62
     0
100
AcDbText
 10
142.5
 20
145.853263
 30
0.0
 40
7.0
  1
12
 50
90.0
100
AcDbText
  0
ENDBLK
  5
584
100
AcDbEntity
  8
0
100
AcDbBlockEnd
  0
BLOCK
  5
587
100
AcDbEntity
  8
0
100
AcDbBlockBegin
  2
*B129
 70
     0
 10
0.0
 20
0.0
 30
0.0
  3
*B129
  1

  0
TEXT
  5
588
100
AcDbEntity
  8
TEXT
  6
Continuous
 62
     0
100
AcDbText
 10
572.77635
 20
242.5
 30
0.0
 40
7.0
  1
20
100
AcDbText
  0
ENDBLK
  5
589
100
AcDbEntity
  8
0
100
AcDbBlockEnd
  0
BLOCK
  5
58C
100
AcDbEntity
  8
0
100
AcDbBlockBegin
  2
*B130
 70
     0
 10
0.0
 20
0.0
 30
0.0
  3
*B130
  1

  0
TEXT
  5
58D
100
AcDbEntity
  8
TEXT
  6
Continuous
 62
     0
100
AcDbText
 10
171.5
 20
415.936274
 30
0.0
 40
7.0
  1
22
 50
90.0
100
AcDbText
  0
ENDBLK
  5
58E
100
AcDbEntity
  8
0
100
AcDbBlockEnd
  0
BLOCK
  5
591
100
AcDbEntity
  8
0
100
AcDbBlockBegin
  2
*B131
 70
     0
 10
0.0
 20
0.0
 30
0.0
  3
*B131
  1

  0
TEXT
  5
592
100
AcDbEntity
  8
TEXT
  6
Continuous
 62
     0
100
AcDbText
 10
436.77635
 20
493.5
 30
0.0
 40
7.0
  1
16
100
AcDbText
  0
ENDBLK
  5
593
100
AcDbEntity
  8
0
100
AcDbBlockEnd
  0
BLOCK
  5
596
100
AcDbEntity
  8
0
100
AcDbBlockBegin
  2
*B132
 70
     0
 10
0.0
 20
0.0
 30
0.0
  3
*B132
  1

  0
TEXT
  5
597
100
AcDbEntity
  8
TEXT
  6
Continuous
 62
     0
100
AcDbText
 10
171.5
 20
321.936274
 30
0.0
 40
7.0
  1
25
 50
90.0
100
AcDbText
  0
ENDBLK
  5
598
100
AcDbEntity
  8
0
100
AcDbBlockEnd
  0
BLOCK
  5
59B
100
AcDbEntity
  8
0
100
AcDbBlockBegin
  2
*B133
 70
     0
 10
0.0
 20
0.0
 30
0.0
  3
*B133
  1

  0
TEXT
  5
59C
100
AcDbEntity
  8
TEXT
  6
Continuous
 62
     0
100
AcDbText
 10
500.77635
 20
242.5
 30
0.0
 40
7.0
  1
16
100
AcDbText
  0
ENDBLK
  5
59D
100
AcDbEntity
  8
0
100
AcDbBlockEnd
  0
BLOCK
  5
5A0
100
AcDbEntity
  8
0
100
AcDbBlockBegin
  2
*B134
 70
     0
 10
0.0
 20
0.0
 30
0.0
  3
*B134
  1

  0
TEXT
  5
5A1
100
AcDbEntity
  8
TEXT
  6
Continuous
 62
     0
100
AcDbText
 10
372.77635
 20
493.5
 30
0.0
 40
7.0
  1
16
100
AcDbText
  0
ENDBLK
  5
5A2
100
AcDbEntity
  8
0
100
AcDbBlockEnd
  0
BLOCK
  5
5A5
100
AcDbEntity
  8
0
100
AcDbBlockBegin
  2
*B135
 70
     0
 10
0.0
 20
0.0
 30
0.0
  3
*B135
  1

  0
TEXT
  5
5A6
100
AcDbEntity
  8
TEXT
  6
Continuous
 62
     0
100
AcDbText
 10
308.77635
 20
493.5
 30
0.0
 40
7.0
  1
16
100
AcDbText
  0
ENDBLK
  5
5A7
100
AcDbEntity
  8
0
100
AcDbBlockEnd
  0
BLOCK
  5
5AA
100
AcDbEntity
  8
0
100
AcDbBlockBegin
  2
*B136
 70
     0
 10
0.0
 20
0.0
 30
0.0
  3
*B136
  1

  0
TEXT
  5
5AB
100
AcDbEntity
  8
TEXT
  6
Continuous
 62
     0
100
AcDbText
 10
436.77635
 20
242.5
 30
0.0
 40
7.0
  1
16
100
AcDbText
  0
ENDBLK
  5
5AC
100
AcDbEntity
  8
0
100
AcDbBlockEnd
  0
BLOCK
  5
5AF
100
AcDbEntity
  8
0
100
AcDbBlockBegin
  2
*B137
 70
     0
 10
0.0
 20
0.0
 30
0.0
  3
*B137
  1

  0
TEXT
  5
5B0
100
AcDbEntity
  8
TEXT
  6
Continuous
 62
     0
100
AcDbText
 10
500.77635
 20
493.5
 30
0.0
 40
7.0
  1
16
100
AcDbText
  0
ENDBLK
  5
5B1
100
AcDbEntity
  8
0
100
AcDbBlockEnd
  0
ENDSEC
  0
SECTION
  2
ENTITIES
  0
INSERT
  5
4A
100
AcDbEntity
  8
0
  6
Continuous
 62
   174
100
AcDbBlockReference
  2
*B2
 10
0.0
 20
0.0
 30
0.0
  0
INSERT
  5
5E
100
AcDbEntity
  8
0
  6
HIDDEN
 62
   172
100
AcDbBlockReference
  2
*B3
 10
0.0
 20
0.0
 30
0.0
  0
INSERT
  5
221
100
AcDbEntity
  8
0
  6
Continuous
 62
   174
100
AcDbBlockReference
  2
*B4
 10
0.0
 20
0.0
 30
0.0
  0
INSERT
  5
228
100
AcDbEntity
  8
0
  6
Continuous
 62
     0
100
AcDbBlockReference
  2
*B5
 10
0.0
 20
0.0
 30
0.0
  0
INSERT
  5
22F
100
AcDbEntity
  8
0
  6
Continuous
 62
     0
100
AcDbBlockReference
  2
*B6
 10
0.0
 20
0.0
 30
0.0
  0
INSERT
  5
236
100
AcDbEntity
  8
0
  6
Continuous
 62
     0
100
AcDbBlockReference
  2
*B7
 10
0.0
 20
0.0
 30
0.0
  0
INSERT
  5
23D
100
AcDbEntity
  8
0
  6
Continuous
 62
     0
100
AcDbBlockReference
  2
*B8
 10
0.0
 20
0.0
 30
0.0
  0
INSERT
  5
244
100
AcDbEntity
  8
0
  6
Continuous
 62
     0
100
AcDbBlockReference
  2
*B9
 10
0.0
 20
0.0
 30
0.0
  0
INSERT
  5
24B
100
AcDbEntity
  8
0
  6
Continuous
 62
     0
100
AcDbBlockReference
  2
*B10
 10
0.0
 20
0.0
 30
0.0
  0
INSERT
  5
252
100
AcDbEntity
  8
0
  6
Continuous
 62
     0
100
AcDbBlockReference
  2
*B11
 10
0.0
 20
0.0
 30
0.0
  0
INSERT
  5
259
100
AcDbEntity
  8
0
  6
Continuous
 62
     0
100
AcDbBlockReference
  2
*B12
 10
0.0
 20
0.0
 30
0.0
  0
INSERT
  5
260
100
AcDbEntity
  8
0
  6
Continuous
 62
     0
100
AcDbBlockReference
  2
*B13
 10
0.0
 20
0.0
 30
0.0
  0
INSERT
  5
267
100
AcDbEntity
  8
0
  6
Continuous
 62
     0
100
AcDbBlockReference
  2
*B14
 10
0.0
 20
0.0
 30
0.0
  0
INSERT
  5
26E
100
AcDbEntity
  8
0
  6
Continuous
 62
     0
100
AcDbBlockReference
  2
*B15
 10
0.0
 20
0.0
 30
0.0
  0
INSERT
  5
275
100
AcDbEntity
  8
0
  6
Continuous
 62
     0
100
AcDbBlockReference
  2
*B16
 10
0.0
 20
0.0
 30
0.0
  0
INSERT
  5
27C
100
AcDbEntity
  8
0
  6
Continuous
 62
     0
100
AcDbBlockReference
  2
*B17
 10
0.0
 20
0.0
 30
0.0
  0
INSERT
  5
283
100
AcDbEntity
  8
0
  6
Continuous
 62
     0
100
AcDbBlockReference
  2
*B18
 10
0.0
 20
0.0
 30
0.0
  0
INSERT
  5
28A
100
AcDbEntity
  8
0
  6
Continuous
 62
     0
100
AcDbBlockReference
  2
*B19
 10
0.0
 20
0.0
 30
0.0
  0
INSERT
  5
291
100
AcDbEntity
  8
0
  6
Continuous
 62
     0
100
AcDbBlockReference
  2
*B20
 10
0.0
 20
0.0
 30
0.0
  0
INSERT
  5
298
100
AcDbEntity
  8
0
  6
Continuous
 62
     0
100
AcDbBlockReference
  2
*B21
 10
0.0
 20
0.0
 30
0.0
  0
INSERT
  5
29F
100
AcDbEntity
  8
0
  6
Continuous
 62
     0
100
AcDbBlockReference
  2
*B22
 10
0.0
 20
0.0
 30
0.0
  0
INSERT
  5
2A6
100
AcDbEntity
  8
0
  6
Continuous
 62
     0
100
AcDbBlockReference
  2
*B23
 10
0.0
 20
0.0
 30
0.0
  0
INSERT
  5
2AD
100
AcDbEntity
  8
0
  6
Continuous
 62
     0
100
AcDbBlockReference
  2
*B24
 10
0.0
 20
0.0
 30
0.0
  0
INSERT
  5
2B4
100
AcDbEntity
  8
0
  6
Continuous
 62
     0
100
AcDbBlockReference
  2
*B25
 10
0.0
 20
0.0
 30
0.0
  0
INSERT
  5
2BB
100
AcDbEntity
  8
0
  6
Continuous
 62
     0
100
AcDbBlockReference
  2
*B26
 10
0.0
 20
0.0
 30
0.0
  0
INSERT
  5
2C4
100
AcDbEntity
  8
0
  6
Continuous
 62
     8
100
AcDbBlockReference
  2
*B27
 10
0.0
 20
0.0
 30
0.0
  0
INSERT
  5
2D0
100
AcDbEntity
  8
0
  6
Continuous
 62
     8
100
AcDbBlockReference
  2
*B28
 10
0.0
 20
0.0
 30
0.0
  0
INSERT
  5
2D9
100
AcDbEntity
  8
0
  6
Continuous
 62
     8
100
AcDbBlockReference
  2
*B29
 10
0.0
 20
0.0
 30
0.0
  0
INSERT
  5
2DF
100
AcDbEntity
  8
0
  6
Continuous
 62
     8
100
AcDbBlockReference
  2
*B30
 10
0.0
 20
0.0
 30
0.0
  0
INSERT
  5
2EB
100
AcDbEntity
  8
0
  6
Continuous
 62
     8
100
AcDbBlockReference
  2
*B31
 10
0.0
 20
0.0
 30
0.0
  0
INSERT
  5
2F1
100
AcDbEntity
  8
0
  6
Continuous
 62
     8
100
AcDbBlockReference
  2
*B32
 10
0.0
 20
0.0
 30
0.0
  0
INSERT
  5
2F7
100
AcDbEntity
  8
0
  6
Continuous
 62
     8
100
AcDbBlockReference
  2
*B33
 10
0.0
 20
0.0
 30
0.0
  0
INSERT
  5
2FD
100
AcDbEntity
  8
0
  6
Continuous
 62
     8
100
AcDbBlockReference
  2
*B34
 10
0.0
 20
0.0
 30
0.0
  0
INSERT
  5
303
100
AcDbEntity
  8
0
  6
Continuous
 62
     8
100
AcDbBlockReference
  2
*B35
 10
0.0
 20
0.0
 30
0.0
  0
INSERT
  5
309
100
AcDbEntity
  8
0
  6
Continuous
 62
     8
100
AcDbBlockReference
  2
*B36
 10
0.0
 20
0.0
 30
0.0
  0
INSERT
  5
321
100
AcDbEntity
  8
0
  6
Continuous
 62
     8
100
AcDbBlockReference
  2
*B37
 10
0.0
 20
0.0
 30
0.0
  0
INSERT
  5
327
100
AcDbEntity
  8
0
  6
Continuous
 62
     8
100
AcDbBlockReference
  2
*B38
 10
0.0
 20
0.0
 30
0.0
  0
INSERT
  5
32C
100
AcDbEntity
  8
0
  6
Continuous
 62
     8
100
AcDbBlockReference
  2
*B39
 10
0.0
 20
0.0
 30
0.0
  0
INSERT
  5
331
100
AcDbEntity
  8
0
  6
Continuous
 62
     8
100
AcDbBlockReference
  2
*B40
 10
0.0
 20
0.0
 30
0.0
  0
INSERT
  5
337
100
AcDbEntity
  8
0
  6
Continuous
 62
     8
100
AcDbBlockReference
  2
*B41
 10
0.0
 20
0.0
 30
0.0
  0
INSERT
  5
33C
100
AcDbEntity
  8
0
  6
Continuous
 62
     8
100
AcDbBlockReference
  2
*B42
 10
0.0
 20
0.0
 30
0.0
  0
INSERT
  5
342
100
AcDbEntity
  8
0
  6
Continuous
 62
     8
100
AcDbBlockReference
  2
*B43
 10
0.0
 20
0.0
 30
0.0
  0
INSERT
  5
348
100
AcDbEntity
  8
0
  6
Continuous
 62
     8
100
AcDbBlockReference
  2
*B44
 10
0.0
 20
0.0
 30
0.0
  0
INSERT
  5
35F
100
AcDbEntity
  8
0
  6
Continuous
 62
     8
100
AcDbBlockReference
  2
*B45
 10
0.0
 20
0.0
 30
0.0
  0
INSERT
  5
364
100
AcDbEntity
  8
0
  6
Continuous
 62
     8
100
AcDbBlockReference
  2
*B46
 10
0.0
 20
0.0
 30
0.0
  0
INSERT
  5
369
100
AcDbEntity
  8
0
  6
Continuous
 62
     8
100
AcDbBlockReference
  2
*B47
 10
0.0
 20
0.0
 30
0.0
  0
INSERT
  5
373
100
AcDbEntity
  8
0
  6
Continuous
 62
     8
100
AcDbBlockReference
  2
*B48
 10
0.0
 20
0.0
 30
0.0
  0
INSERT
  5
378
100
AcDbEntity
  8
0
  6
Continuous
 62
     8
100
AcDbBlockReference
  2
*B49
 10
0.0
 20
0.0
 30
0.0
  0
INSERT
  5
384
100
AcDbEntity
  8
0
  6
Continuous
 62
     8
100
AcDbBlockReference
  2
*B50
 10
0.0
 20
0.0
 30
0.0
  0
INSERT
  5
389
100
AcDbEntity
  8
0
  6
Continuous
 62
     8
100
AcDbBlockReference
  2
*B51
 10
0.0
 20
0.0
 30
0.0
  0
INSERT
  5
38E
100
AcDbEntity
  8
0
  6
Continuous
 62
     8
100
AcDbBlockReference
  2
*B52
 10
0.0
 20
0.0
 30
0.0
  0
INSERT
  5
398
100
AcDbEntity
  8
0
  6
Continuous
 62
     8
100
AcDbBlockReference
  2
*B53
 10
0.0
 20
0.0
 30
0.0
  0
INSERT
  5
3A4
100
AcDbEntity
  8
0
  6
Continuous
 62
     8
100
AcDbBlockReference
  2
*B54
 10
0.0
 20
0.0
 30
0.0
  0
INSERT
  5
3A9
100
AcDbEntity
  8
0
  6
Continuous
 62
     8
100
AcDbBlockReference
  2
*B55
 10
0.0
 20
0.0
 30
0.0
  0
INSERT
  5
3B6
100
AcDbEntity
  8
0
  6
Continuous
 62
     8
100
AcDbBlockReference
  2
*B56
 10
0.0
 20
0.0
 30
0.0
  0
INSERT
  5
3BC
100
AcDbEntity
  8
0
  6
Continuous
 62
     8
100
AcDbBlockReference
  2
*B57
 10
0.0
 20
0.0
 30
0.0
  0
INSERT
  5
3C1
100
AcDbEntity
  8
0
  6
Continuous
 62
     8
100
AcDbBlockReference
  2
*B58
 10
0.0
 20
0.0
 30
0.0
  0
INSERT
  5
3CD
100
AcDbEntity
  8
0
  6
Continuous
 62
     8
100
AcDbBlockReference
  2
*B59
 10
0.0
 20
0.0
 30
0.0
  0
INSERT
  5
3D2
100
AcDbEntity
  8
0
  6
Continuous
 62
     8
100
AcDbBlockReference
  2
*B60
 10
0.0
 20
0.0
 30
0.0
  0
INSERT
  5
3D7
100
AcDbEntity
  8
0
  6
Continuous
 62
     8
100
AcDbBlockReference
  2
*B61
 10
0.0
 20
0.0
 30
0.0
  0
INSERT
  5
3DD
100
AcDbEntity
  8
0
  6
Continuous
 62
     8
100
AcDbBlockReference
  2
*B62
 10
0.0
 20
0.0
 30
0.0
  0
INSERT
  5
3E9
100
AcDbEntity
  8
0
  6
Continuous
 62
     8
100
AcDbBlockReference
  2
*B63
 10
0.0
 20
0.0
 30
0.0
  0
INSERT
  5
3F4
100
AcDbEntity
  8
0
  6
Continuous
 62
     8
100
AcDbBlockReference
  2
*B64
 10
0.0
 20
0.0
 30
0.0
  0
INSERT
  5
3FA
100
AcDbEntity
  8
0
  6
Continuous
 62
     8
100
AcDbBlockReference
  2
*B65
 10
0.0
 20
0.0
 30
0.0
  0
INSERT
  5
3FF
100
AcDbEntity
  8
0
  6
Continuous
 62
     8
100
AcDbBlockReference
  2
*B66
 10
0.0
 20
0.0
 30
0.0
  0
INSERT
  5
40A
100
AcDbEntity
  8
0
  6
Continuous
 62
     8
100
AcDbBlockReference
  2
*B67
 10
0.0
 20
0.0
 30
0.0
  0
INSERT
  5
40F
100
AcDbEntity
  8
0
  6
Continuous
 62
     8
100
AcDbBlockReference
  2
*B68
 10
0.0
 20
0.0
 30
0.0
  0
INSERT
  5
415
100
AcDbEntity
  8
0
  6
Continuous
 62
     8
100
AcDbBlockReference
  2
*B69
 10
0.0
 20
0.0
 30
0.0
  0
INSERT
  5
41F
100
AcDbEntity
  8
0
  6
Continuous
 62
     8
100
AcDbBlockReference
  2
*B70
 10
0.0
 20
0.0
 30
0.0
  0
INSERT
  5
424
100
AcDbEntity
  8
0
  6
Continuous
 62
     8
100
AcDbBlockReference
  2
*B71
 10
0.0
 20
0.0
 30
0.0
  0
INSERT
  5
429
100
AcDbEntity
  8
0
  6
Continuous
 62
     8
100
AcDbBlockReference
  2
*B72
 10
0.0
 20
0.0
 30
0.0
  0
INSERT
  5
42E
100
AcDbEntity
  8
0
  6
Continuous
 62
     8
100
AcDbBlockReference
  2
*B73
 10
0.0
 20
0.0
 30
0.0
  0
INSERT
  5
438
100
AcDbEntity
  8
0
  6
Continuous
 62
     8
100
AcDbBlockReference
  2
*B74
 10
0.0
 20
0.0
 30
0.0
  0
INSERT
  5
450
100
AcDbEntity
  8
0
  6
Continuous
 62
     8
100
AcDbBlockReference
  2
*B75
 10
0.0
 20
0.0
 30
0.0
  0
INSERT
  5
455
100
AcDbEntity
  8
0
  6
Continuous
 62
     8
100
AcDbBlockReference
  2
*B76
 10
0.0
 20
0.0
 30
0.0
  0
INSERT
  5
460
100
AcDbEntity
  8
0
  6
Continuous
 62
     8
100
AcDbBlockReference
  2
*B77
 10
0.0
 20
0.0
 30
0.0
  0
INSERT
  5
466
100
AcDbEntity
  8
0
  6
Continuous
 62
     6
100
AcDbBlockReference
  2
*B78
 10
0.0
 20
0.0
 30
0.0
  0
INSERT
  5
46C
100
AcDbEntity
  8
0
  6
Continuous
 62
     6
100
AcDbBlockReference
  2
*B79
 10
0.0
 20
0.0
 30
0.0
  0
INSERT
  5
472
100
AcDbEntity
  8
0
  6
Continuous
 62
     6
100
AcDbBlockReference
  2
*B80
 10
0.0
 20
0.0
 30
0.0
  0
INSERT
  5
478
100
AcDbEntity
  8
0
  6
Continuous
 62
     6
100
AcDbBlockReference
  2
*B81
 10
0.0
 20
0.0
 30
0.0
  0
INSERT
  5
47E
100
AcDbEntity
  8
0
  6
Continuous
 62
     6
100
AcDbBlockReference
  2
*B82
 10
0.0
 20
0.0
 30
0.0
  0
INSERT
  5
484
100
AcDbEntity
  8
0
  6
Continuous
 62
     6
100
AcDbBlockReference
  2
*B83
 10
0.0
 20
0.0
 30
0.0
  0
INSERT
  5
48A
100
AcDbEntity
  8
0
  6
Continuous
 62
     6
100
AcDbBlockReference
  2
*B84
 10
0.0
 20
0.0
 30
0.0
  0
INSERT
  5
490
100
AcDbEntity
  8
0
  6
Continuous
 62
     6
100
AcDbBlockReference
  2
*B85
 10
0.0
 20
0.0
 30
0.0
  0
INSERT
  5
496
100
AcDbEntity
  8
0
  6
Continuous
 62
     6
100
AcDbBlockReference
  2
*B86
 10
0.0
 20
0.0
 30
0.0
  0
INSERT
  5
49C
100
AcDbEntity
  8
0
  6
Continuous
 62
     6
100
AcDbBlockReference
  2
*B87
 10
0.0
 20
0.0
 30
0.0
  0
INSERT
  5
4A2
100
AcDbEntity
  8
0
  6
Continuous
 62
     6
100
AcDbBlockReference
  2
*B88
 10
0.0
 20
0.0
 30
0.0
  0
INSERT
  5
4A8
100
AcDbEntity
  8
0
  6
Continuous
 62
     6
100
AcDbBlockReference
  2
*B89
 10
0.0
 20
0.0
 30
0.0
  0
INSERT
  5
4AE
100
AcDbEntity
  8
0
  6
Continuous
 62
     6
100
AcDbBlockReference
  2
*B90
 10
0.0
 20
0.0
 30
0.0
  0
INSERT
  5
4B4
100
AcDbEntity
  8
0
  6
Continuous
 62
     6
100
AcDbBlockReference
  2
*B91
 10
0.0
 20
0.0
 30
0.0
  0
INSERT
  5
4BA
100
AcDbEntity
  8
0
  6
Continuous
 62
     6
100
AcDbBlockReference
  2
*B92
 10
0.0
 20
0.0
 30
0.0
  0
INSERT
  5
4C0
100
AcDbEntity
  8
0
  6
Continuous
 62
     6
100
AcDbBlockReference
  2
*B93
 10
0.0
 20
0.0
 30
0.0
  0
INSERT
  5
4C6
100
AcDbEntity
  8
0
  6
Continuous
 62
     6
100
AcDbBlockReference
  2
*B94
 10
0.0
 20
0.0
 30
0.0
  0
INSERT
  5
4CC
100
AcDbEntity
  8
0
  6
Continuous
 62
     6
100
AcDbBlockReference
  2
*B95
 10
0.0
 20
0.0
 30
0.0
  0
INSERT
  5
4D2
100
AcDbEntity
  8
0
  6
Continuous
 62
     6
100
AcDbBlockReference
  2
*B96
 10
0.0
 20
0.0
 30
0.0
  0
INSERT
  5
4D8
100
AcDbEntity
  8
0
  6
Continuous
 62
     6
100
AcDbBlockReference
  2
*B97
 10
0.0
 20
0.0
 30
0.0
  0
INSERT
  5
4DE
100
AcDbEntity
  8
0
  6
Continuous
 62
     6
100
AcDbBlockReference
  2
*B98
 10
0.0
 20
0.0
 30
0.0
  0
INSERT
  5
4E4
100
AcDbEntity
  8
0
  6
Continuous
 62
     6
100
AcDbBlockReference
  2
*B99
 10
0.0
 20
0.0
 30
0.0
  0
INSERT
  5
4EA
100
AcDbEntity
  8
0
  6
Continuous
 62
     6
100
AcDbBlockReference
  2
*B100
 10
0.0
 20
0.0
 30
0.0
  0
INSERT
  5
4F0
100
AcDbEntity
  8
0
  6
Continuous
 62
     6
100
AcDbBlockReference
  2
*B101
 10
0.0
 20
0.0
 30
0.0
  0
INSERT
  5
4F6
100
AcDbEntity
  8
0
  6
Continuous
 62
     6
100
AcDbBlockReference
  2
*B102
 10
0.0
 20
0.0
 30
0.0
  0
INSERT
  5
4FC
100
AcDbEntity
  8
0
  6
Continuous
 62
     6
100
AcDbBlockReference
  2
*B103
 10
0.0
 20
0.0
 30
0.0
  0
INSERT
  5
502
100
AcDbEntity
  8
0
  6
Continuous
 62
     6
100
AcDbBlockReference
  2
*B104
 10
0.0
 20
0.0
 30
0.0
  0
INSERT
  5
508
100
AcDbEntity
  8
0
  6
Continuous
 62
     6
100
AcDbBlockReference
  2
*B105
 10
0.0
 20
0.0
 30
0.0
  0
INSERT
  5
50E
100
AcDbEntity
  8
0
  6
Continuous
 62
     6
100
AcDbBlockReference
  2
*B106
 10
0.0
 20
0.0
 30
0.0
  0
INSERT
  5
514
100
AcDbEntity
  8
0
  6
Continuous
 62
     6
100
AcDbBlockReference
  2
*B107
 10
0.0
 20
0.0
 30
0.0
  0
INSERT
  5
51A
100
AcDbEntity
  8
0
  6
Continuous
 62
     6
100
AcDbBlockReference
  2
*B108
 10
0.0
 20
0.0
 30
0.0
  0
INSERT
  5
520
100
AcDbEntity
  8
0
  6
Continuous
 62
     6
100
AcDbBlockReference
  2
*B109
 10
0.0
 20
0.0
 30
0.0
  0
INSERT
  5
527
100
AcDbEntity
  8
0
  6
Continuous
 62
     0
100
AcDbBlockReference
  2
*B110
 10
0.0
 20
0.0
 30
0.0
  0
INSERT
  5
52E
100
AcDbEntity
  8
0
  6
Continuous
 62
     0
100
AcDbBlockReference
  2
*B111
 10
0.0
 20
0.0
 30
0.0
  0
INSERT
  5
535
100
AcDbEntity
  8
0
  6
Continuous
 62
     0
100
AcDbBlockReference
  2
*B112
 10
0.0
 20
0.0
 30
0.0
  0
INSERT
  5
53A
100
AcDbEntity
  8
TEXT
  6
Continuous
 62
     0
100
AcDbBlockReference
  2
*B113
 10
0.0
 20
0.0
 30
0.0
  0
INSERT
  5
53F
100
AcDbEntity
  8
TEXT
  6
Continuous
 62
     0
100
AcDbBlockReference
  2
*B114
 10
0.0
 20
0.0
 30
0.0
  0
INSERT
  5
544
100
AcDbEntity
  8
TEXT
  6
Continuous
 62
     0
100
AcDbBlockReference
  2
*B115
 10
0.0
 20
0.0
 30
0.0
  0
INSERT
  5
549
100
AcDbEntity
  8
TEXT
  6
Continuous
 62
     0
100
AcDbBlockReference
  2
*B116
 10
0.0
 20
0.0
 30
0.0
  0
INSERT
  5
54E
100
AcDbEntity
  8
TEXT
  6
Continuous
 62
     0
100
AcDbBlockReference
  2
*B117
 10
0.0
 20
0.0
 30
0.0
  0
INSERT
  5
553
100
AcDbEntity
  8
TEXT
  6
Continuous
 62
     0
100
AcDbBlockReference
  2
*B118
 10
0.0
 20
0.0
 30
0.0
  0
INSERT
  5
558
100
AcDbEntity
  8
TEXT
  6
Continuous
 62
     0
100
AcDbBlockReference
  2
*B119
 10
0.0
 20
0.0
 30
0.0
  0
INSERT
  5
55D
100
AcDbEntity
  8
TEXT
  6
Continuous
 62
     0
100
AcDbBlockReference
  2
*B120
 10
0.0
 20
0.0
 30
0.0
  0
INSERT
  5
562
100
AcDbEntity
  8
TEXT
  6
Continuous
 62
     0
100
AcDbBlockReference
  2
*B121
 10
0.0
 20
0.0
 30
0.0
  0
INSERT
  5
567
100
AcDbEntity
  8
TEXT
  6
Continuous
 62
     0
100
AcDbBlockReference
  2
*B122
 10
0.0
 20
0.0
 30
0.0
  0
INSERT
  5
56C
100
AcDbEntity
  8
TEXT
  6
Continuous
 62
     0
100
AcDbBlockReference
  2
*B123
 10
0.0
 20
0.0
 30
0.0
  0
INSERT
  5
571
100
AcDbEntity
  8
TEXT
  6
Continuous
 62
     0
100
AcDbBlockReference
  2
*B124
 10
0.0
 20
0.0
 30
0.0
  0
INSERT
  5
576
100
AcDbEntity
  8
TEXT
  6
Continuous
 62
     0
100
AcDbBlockReference
  2
*B125
 10
0.0
 20
0.0
 30
0.0
  0
INSERT
  5
57B
100
AcDbEntity
  8
TEXT
  6
Continuous
 62
     0
100
AcDbBlockReference
  2
*B126
 10
0.0
 20
0.0
 30
0.0
  0
INSERT
  5
580
100
AcDbEntity
  8
TEXT
  6
Continuous
 62
     0
100
AcDbBlockReference
  2
*B127
 10
0.0
 20
0.0
 30
0.0
  0
INSERT
  5
585
100
AcDbEntity
  8
TEXT
  6
Continuous
 62
     0
100
AcDbBlockReference
  2
*B128
 10
0.0
 20
0.0
 30
0.0
  0
INSERT
  5
58A
100
AcDbEntity
  8
TEXT
  6
Continuous
 62
     0
100
AcDbBlockReference
  2
*B129
 10
0.0
 20
0.0
 30
0.0
  0
INSERT
  5
58F
100
AcDbEntity
  8
TEXT
  6
Continuous
 62
     0
100
AcDbBlockReference
  2
*B130
 10
0.0
 20
0.0
 30
0.0
  0
INSERT
  5
594
100
AcDbEntity
  8
TEXT
  6
Continuous
 62
     0
100
AcDbBlockReference
  2
*B131
 10
0.0
 20
0.0
 30
0.0
  0
INSERT
  5
599
100
AcDbEntity
  8
TEXT
  6
Continuous
 62
     0
100
AcDbBlockReference
  2
*B132
 10
0.0
 20
0.0
 30
0.0
  0
INSERT
  5
59E
100
AcDbEntity
  8
TEXT
  6
Continuous
 62
     0
100
AcDbBlockReference
  2
*B133
 10
0.0
 20
0.0
 30
0.0
  0
INSERT
  5
5A3
100
AcDbEntity
  8
TEXT
  6
Continuous
 62
     0
100
AcDbBlockReference
  2
*B134
 10
0.0
 20
0.0
 30
0.0
  0
INSERT
  5
5A8
100
AcDbEntity
  8
TEXT
  6
Continuous
 62
     0
100
AcDbBlockReference
  2
*B135
 10
0.0
 20
0.0
 30
0.0
  0
INSERT
  5
5AD
100
AcDbEntity
  8
TEXT
  6
Continuous
 62
     0
100
AcDbBlockReference
  2
*B136
 10
0.0
 20
0.0
 30
0.0
  0
INSERT
  5
5B2
100
AcDbEntity
  8
TEXT
  6
Continuous
 62
     0
100
AcDbBlockReference
  2
*B137
 10
0.0
 20
0.0
 30
0.0
  0
ENDSEC
  0
SECTION
  2
OBJECTS
  0
DICTIONARY
  5
19
100
AcDbDictionary
280
     0
281
     1
  3
ACAD_GROUP
350
1A
  3
ACAD_MLINESTYLE
350
1B
  3
ACAD_LAYOUT
350
1E
  3
ACAD_PLOTSETTINGS
350
22
  3
ACAD_PLOTSTYLENAME
350
1F
  3
ACAD_WIPEOUT_VARS
350
23
  0
DICTIONARY
  5
1A
102
{ACAD_REACTORS
330
19
102
}
100
AcDbDictionary
280
     0
281
     1
  0
DICTIONARY
  5
1B
102
{ACAD_REACTORS
330
19
102
}
100
AcDbDictionary
280
     0
281
     1
  3
Standard
350
1C
  0
MLINESTYLE
  5
1C
102
{ACAD_REACTORS
330
1B
102
}
100
AcDbMlineStyle
  2
Standard
 70
     0
  3

 62
     0
 51
90.0
 52
90.0
 71
     2
 49
0.5
 62
   256
  6
BYLAYER
 49
-0.5
 62
   256
  6
BYLAYER
  0
ACDBDICTIONARYWDFLT
  5
1F
102
{ACAD_REACTORS
330
19
102
}
100
AcDbDictionary
281
     1
  3
Normal
350
1D
100
AcDbDictionaryWithDefault
340
1D
  0
ACDBPLACEHOLDER
  5
1D
102
{ACAD_REACTORS
330
1F
102
}
  0
LAYOUT
  5
20
102
{ACAD_REACTORS
330
1E
102
}
100
AcDbPlotSettings
  1

  2

  4

  6

 40
0.0
 41
0.0
 42
0.0
 43
0.0
 44
0.0
 45
0.0
 46
0.0
 47
0.0
 48
0.0
 49
0.0
140
0.0
141
0.0
142
1.0
143
1.0
 70
     0
 72
     0
 73
     0
 74
     0
  7

 75
     0
147
1.0
148
0.0
149
0.0
100
AcDbLayout
  1
Model
 70
     0
 71
     0
 10
0.0
 20
0.0
 11
0.0
 21
0.0
 12
0.0
 22
0.0
 32
0.0
 14
0.0
 24
0.0
 34
0.0
 15
0.0
 25
0.0
 35
0.0
146
0.0
 13
0.0
 23
0.0
 33
0.0
 16
0.0
 26
0.0
 36
0.0
 17
0.0
 27
0.0
 37
0.0
 76
     0
330
A
331
0
345
0
346
0
  0
LAYOUT
  5
21
102
{ACAD_REACTORS
330
1E
102
}
100
AcDbPlotSettings
  1

  2

  4

  6

 40
0.0
 41
0.0
 42
0.0
 43
0.0
 44
0.0
 45
0.0
 46
0.0
 47
0.0
 48
0.0
 49
0.0
140
0.0
141
0.0
142
1.0
143
1.0
 70
     0
 72
     0
 73
     0
 74
     0
  7

 75
     0
147
1.0
148
0.0
149
0.0
100
AcDbLayout
  1
Layout1
 70
     0
 71
     0
 10
0.0
 20
0.0
 11
0.0
 21
0.0
 12
0.0
 22
0.0
 32
0.0
 14
0.0
 24
0.0
 34
0.0
 15
0.0
 25
0.0
 35
0.0
146
0.0
 13
0.0
 23
0.0
 33
0.0
 16
0.0
 26
0.0
 36
0.0
 17
0.0
 27
0.0
 37
0.0
 76
     0
330
B
331
0
345
0
346
0
  0
DICTIONARY
  5
1E
102
{ACAD_REACTORS
330
19
102
}
100
AcDbDictionary
280
     0
281
     1
  3
Layout1
350
21
  3
Model
350
20
  0
DICTIONARY
  5
22
102
{ACAD_REACTORS
330
19
102
}
100
AcDbDictionary
280
     0
281
     1
  0
WIPEOUTVARIABLES
  5
23
100
AcDbWipeoutVariables
 70
     1
  0
ENDSEC
  0
EOF
