  0
SECTION
  2
HEADER
  9
$ACADVER
  1
AC1015
  9
$ACADMAINTVER
 70
     6
  9
$DWGCODEPAGE
  3
DOS850
  9
$INSBASE
 10
0.0
 20
0.0
 30
0.0
  9
$EXTMIN
 10
0.0
 20
0.0
 30
0.0
  9
$EXTMAX
 10
595.0
 20
420.0
 30
0.0
  9
$LIMMIN
 10
0.0
 20
0.0
  9
$LIMMAX
 10
595.0
 20
420.0
  9
$ORTHOMODE
 70
     0
  9
$REGENMODE
 70
     1
  9
$FILLMODE
 70
     1
  9
$QTEXTMODE
 70
     0
  9
$MIRRTEXT
 70
     1
  9
$LTSCALE
 40
25.4
  9
$ATTMODE
 70
     1
  9
$TEXTSIZE
 40
3.5
  9
$TRACEWID
 40
0.05
  9
$TEXTSTYLE
  7
Standard
  9
$CLAYER
  8
0
  9
$CELTYPE
  6
Continuous
  9
$CECOLOR
 62
   256
  9
$CELTSCALE
 40
1.0
  9
$DISPSILH
 70
     0
  9
$DIMSCALE
 40
1.0
  9
$DIMASZ
 40
5.0
  9
$DIMEXO
 40
3.0
  9
$DIMDLI
 40
0.38
  9
$DIMRND
 40
0.0
  9
$DIMDLE
 40
0.0
  9
$DIMEXE
 40
2.0
  9
$DIMTP
 40
0.0
  9
$DIMTM
 40
0.0
  9
$DIMTXT
 40
3.5
  9
$DIMCEN
 40
4.0
  9
$DIMTSZ
 40
0.0
  9
$DIMTOL
 70
     0
  9
$DIMLIM
 70
     0
  9
$DIMTIH
 70
     1
  9
$DIMTOH
 70
     1
  9
$DIMSE1
 70
     0
  9
$DIMSE2
 70
     0
  9
$DIMTAD
 70
     0
  9
$DIMZIN
 70
     0
  9
$DIMBLK
  1

  9
$DIMASO
 70
     1
  9
$DIMSHO
 70
     1
  9
$DIMPOST
  1

  9
$DIMAPOST
  1

  9
$DIMALT
 70
     0
  9
$DIMALTD
 70
     2
  9
$DIMALTF
 40
25.4
  9
$DIMLFAC
 40
1.0
  9
$DIMTOFL
 70
     0
  9
$DIMTVP
 40
0.0
  9
$DIMTIX
 70
     0
  9
$DIMSOXD
 70
     0
  9
$DIMSAH
 70
     0
  9
$DIMBLK1
  1

  9
$DIMBLK2
  1

  9
$DIMSTYLE
  2
Standard
  9
$DIMCLRD
 70
     0
  9
$DIMCLRE
 70
     0
  9
$DIMCLRT
 70
     0
  9
$DIMTFAC
 40
1.0
  9
$DIMGAP
 40
1.0
  9
$DIMJUST
 70
     0
  9
$DIMSD1
 70
     0
  9
$DIMSD2
 70
     0
  9
$DIMTOLJ
 70
     1
  9
$DIMTZIN
 70
     0
  9
$DIMALTZ
 70
     0
  9
$DIMALTTZ
 70
     0
  9
$DIMUPT
 70
     0
  9
$DIMDEC
 70
     4
  9
$DIMTDEC
 70
     4
  9
$DIMALTU
 70
     2
  9
$DIMALTTD
 70
     2
  9
$DIMTXSTY
  7
Standard
  9
$DIMAUNIT
 70
     0
  9
$DIMADEC
 70
     0
  9
$DIMALTRND
 40
0.0
  9
$DIMAZIN
 70
     0
  9
$DIMDSEP
 70
     0
  9
$DIMATFIT
 70
     3
  9
$DIMFRAC
 70
     0
  9
$DIMLDRBLK
  1

  9
$DIMLUNIT
 70
     2
  9
$DIMLWD
 70
     0
  9
$DIMLWE
 70
     0
  9
$DIMTMOVE
 70
     0
  9
$LUNITS
 70
     2
  9
$LUPREC
 70
     4
  9
$SKETCHINC
 40
0.1
  9
$FILLETRAD
 40
0.0
  9
$AUNITS
 70
     0
  9
$AUPREC
 70
     0
  9
$MENU
  1
acad
  9
$ELEVATION
 40
0.0
  9
$PELEVATION
 40
0.0
  9
$THICKNESS
 40
0.0
  9
$LIMCHECK
 70
     0
  9
$CHAMFERA
 40
0.0
  9
$CHAMFERB
 40
0.0
  9
$CHAMFERC
 40
0.0
  9
$CHAMFERD
 40
0.0
  9
$SKPOLY
 70
     0
  9
$TDCREATE
 40
0.000000000
  9
$TDUCREATE
 40
0.000000000
  9
$TDUPDATE
 40
0.000000000
  9
$TDUUPDATE
 40
0.000000000
  9
$TDINDWG
 40
0.0000000000
  9
$TDUSRTIMER
 40
0.0000000000
  9
$USRTIMER
 70
     1
  9
$ANGBASE
 50
0.0
  9
$ANGDIR
 70
     0
  9
$PDMODE
 70
     0
  9
$PDSIZE
 40
0.0
  9
$PLINEWID
 40
0.0
  9
$SPLFRAME
 70
     0
  9
$SPLINETYPE
 70
     6
  9
$SPLINESEGS
 70
     8
  9
$HANDSEED
  5
75B
  9
$SURFTAB1
 70
     6
  9
$SURFTAB2
 70
     6
  9
$SURFTYPE
 70
     6
  9
$SURFU
 70
     6
  9
$SURFV
 70
     6
  9
$UCSBASE
  2

  9
$UCSNAME
  2

  9
$UCSORG
 10
0.0
 20
0.0
 30
0.0
  9
$UCSXDIR
 10
1.0
 20
0.0
 30
0.0
  9
$UCSYDIR
 10
0.0
 20
1.0
 30
0.0
  9
$UCSORTHOREF
  2

  9
$UCSORTHOVIEW
 70
     0
  9
$UCSORGTOP
 10
0.0
 20
0.0
 30
0.0
  9
$UCSORGBOTTOM
 10
0.0
 20
0.0
 30
0.0
  9
$UCSORGLEFT
 10
0.0
 20
0.0
 30
0.0
  9
$UCSORGRIGHT
 10
0.0
 20
0.0
 30
0.0
  9
$UCSORGFRONT
 10
0.0
 20
0.0
 30
0.0
  9
$UCSORGBACK
 10
0.0
 20
0.0
 30
0.0
  9
$PUCSBASE
  2

  9
$PUCSNAME
  2

  9
$PUCSORG
 10
0.0
 20
0.0
 30
0.0
  9
$PUCSXDIR
 10
1.0
 20
0.0
 30
0.0
  9
$PUCSYDIR
 10
0.0
 20
1.0
 30
0.0
  9
$PUCSORTHOREF
  2

  9
$PUCSORTHOVIEW
 70
     0
  9
$PUCSORGTOP
 10
0.0
 20
0.0
 30
0.0
  9
$PUCSORGBOTTOM
 10
0.0
 20
0.0
 30
0.0
  9
$PUCSORGLEFT
 10
0.0
 20
0.0
 30
0.0
  9
$PUCSORGRIGHT
 10
0.0
 20
0.0
 30
0.0
  9
$PUCSORGFRONT
 10
0.0
 20
0.0
 30
0.0
  9
$PUCSORGBACK
 10
0.0
 20
0.0
 30
0.0
  9
$USERI1
 70
     0
  9
$USERI2
 70
     0
  9
$USERI3
 70
     0
  9
$USERI4
 70
     0
  9
$USERI5
 70
     0
  9
$USERR1
 40
0.0
  9
$USERR2
 40
0.0
  9
$USERR3
 40
0.0
  9
$USERR4
 40
0.0
  9
$USERR5
 40
0.0
  9
$WORLDVIEW
 70
     1
  9
$SHADEDGE
 70
     3
  9
$SHADEDIF
 70
    70
  9
$TILEMODE
 70
     1
  9
$MAXACTVP
 70
    16
  9
$PINSBASE
 10
0.0
 20
0.0
 30
0.0
  9
$PLIMCHECK
 70
     0
  9
$PEXTMIN
 10
1.000000E+20
 20
1.000000E+20
 30
1.000000E+20
  9
$PEXTMAX
 10
-1.000000E+20
 20
-1.000000E+20
 30
-1.000000E+20
  9
$PLIMMIN
 10
0.0
 20
0.0
  9
$PLIMMAX
 10
595.0
 20
420.0
  9
$UNITMODE
 70
     0
  9
$VISRETAIN
 70
     0
  9
$PLINEGEN
 70
     1
  9
$PSLTSCALE
 70
     0
  9
$TREEDEPTH
 70
  3020
  9
$CMLSTYLE
  2
Standard
  9
$CMLJUST
 70
     0
  9
$CMLSCALE
 40
1.0
  9
$PROXYGRAPHICS
 70
     0
  9
$MEASUREMENT
 70
     0
  9
$CELWEIGHT
370
     0
  9
$ENDCAPS
280
     0
  9
$JOINSTYLE
280
     0
  9
$LWDISPLAY
290
     0
  9
$INSUNITS
 70
     0
  9
$HYPERLINKBASE
  1

  9
$XEDIT
290
     1
  9
$CEPSNTYPE
380
     0
  9
$PSTYLEMODE
290
     0
  9
$FINGERPRINTGUID
  2

  9
$VERSIONGUID
  2

  9
$EXTNAMES
290
     1
  9
$PSVPSCALE
 40
0.0
  0
ENDSEC
  0
SECTION
  2
CLASSES
  0
CLASS
  1
LWPOLYLINE
  2
AcDbPolyline
  3
"AutoCAD"
 90
        0
280
     0
281
     1
  0
CLASS
  1
IMAGE
  2
AcDbRasterImage
  3
ISM
 90
      127
280
     0
281
     1
  0
CLASS
  1
OLE2FRAME
  2
AcDbOle2Frame
  3
""
 90
        0
280
     0
281
     1
  0
CLASS
  1
HATCH
  2
AcDbHatch
  3
"ACAD_SEDONA"
 90
        0
280
     0
281
     1
  0
CLASS
  1
DICTIONARYVAR
  2
AcDbDictionaryVar
  3
"AutoCAD"
 90
        0
280
     0
281
     0
  0
CLASS
  1
RASTERVARIABLES
  2
AcDbRasterVariables
  3
ISM
 90
        0
280
     0
281
     0
  0
CLASS
  1
IMAGEDEF
  2
AcDbRasterImageDef
  3
ISM
 90
        0
280
     0
281
     0
  0
CLASS
  1
IMAGEDEF_REACTOR
  2
AcDbRasterImageDefReactor
  3
ISM
 90
        1
280
     0
281
     0
  0
CLASS
  1
IDBUFFER
  2
AcDbIdBuffer
  3
"Acad"
 90
        0
280
     0
281
     0
  0
CLASS
  1
SPATIAL_FILTER
  2
AcDbSpatialFilter
  3
"Acad"
 90
        0
280
     0
281
     0
  0
CLASS
  1
XRECORD
  2
AcDbXrecord
  3
"<Built In>"
 90
        0
280
     0
281
     0
  0
CLASS
  1
SORTENTSTABLE
  2
AcDbSortentsTable
  3
"AutoCAD"
 90
        0
280
     0
281
     0
  0
CLASS
  1
LAYER_INDEX
  2
AcDbLayerIndex
  3
"Acad"
 90
        0
280
     0
281
     0
  0
CLASS
  1
SPATIAL_INDEX
  2
AcDbSpatialIndex
  3
"Acad"
 90
        0
280
     0
281
     0
  0
CLASS
  1
OBJECT_PTR
  2
CAseDLPNTableRecord
  3
"ASE-LPNTableRecord"
 90
        1
280
     0
281
     0
  0
CLASS
  1
LAYOUT
  2
AcDbLayout
  3
"AutoCAD 2000"
 90
        1
280
     0
281
     0
  0
CLASS
  1
PLOTSETTINGS
  2
AcDbPlotSettings
  3
"AutoCAD 2000"
 90
        1
280
     0
281
     0
  0
CLASS
  1
ACDBDICTIONARYWDFLT
  2
AcDbDictionaryWithDefault
  3
"AutoCAD 2000"
 90
        1
280
     0
281
     0
  0
CLASS
  1
ACDBPLACEHOLDER
  2
AcDbPlaceHolder
  3
"AutoCAD 2000"
 90
        1
280
     0
281
     0
  0
CLASS
  1
VBA_PROJECT
  2
AcDbVbaProject
  3
"acadvba"
 90
        1
280
     0
281
     0
  0
CLASS
  1
WIPEOUT
  2
AcDbWipeout
  3
WipeOut|AutoCAD Express Tool|expresstools@autodesk.com
 90
      127
280
     0
281
     1
  0
CLASS
  1
WIPEOUTVARIABLES
  2
AcDbWipeoutVariables
  3
WipeOut|AutoCAD Express Tool|expresstools@autodesk.com
 90
        0
280
     0
281
     0
  0
CLASS
  1
RTEXT
  2
RText
  3
RText|AutoCAD Express Tool|expresstools@autodesk.com
 90
        0
280
     0
281
     1
  0
CLASS
  1
ARCALIGNEDTEXT
  2
AcDbArcAlignedText
  3
ATEXT|AutoCAD Express Tool|expresstools@autodesk.com
 90
        0
280
     0
281
     1
  0
ENDSEC
  0
SECTION
  2
TABLES
  0
TABLE
  2
VPORT
  5
7
100
AcDbSymbolTable
 70
     1
  0
VPORT
  5
15
100
AcDbSymbolTableRecord
100
AcDbViewportTableRecord
  2
*ACTIVE
 70
     0
 10
0.0
 20
0.0
 11
1.0
 21
1.0
 12
6.591288
 22
4.579184
 13
0.0
 23
0.0
 14
1.0
 24
1.0
 15
0.0
 25
0.0
 16
0.0
 26
0.0
 36
1.0
 17
0.0
 27
0.0
 37
0.0
 40
9.158369
 41
0.688564
 42
50.0
 43
0.0
 44
0.0
 50
0.0
 51
0.0
 71
     0
 72
   100
 73
     1
 74
     1
 75
     0
 76
     0
 77
     0
 78
     0
281
     0
 65
     0
110
0.0
120
0.0
130
0.0
111
1.0
121
0.0
131
0.0
112
0.0
122
1.0
132
0.0
345
0
346
0
 79
     0
146
0.0
  0
ENDTAB
  0
TABLE
  2
LTYPE
  5
4
100
AcDbSymbolTable
 70
     7
  0
LTYPE
  5
11
100
AcDbSymbolTableRecord
100
AcDbLinetypeTableRecord
  2
ByBlock
 70
    64
  3

 72
    65
 73
     0
 40
0.0
  0
LTYPE
  5
12
100
AcDbSymbolTableRecord
100
AcDbLinetypeTableRecord
  2
ByLayer
 70
    64
  3

 72
    65
 73
     0
 40
0.0
  0
LTYPE
  5
13
100
AcDbSymbolTableRecord
100
AcDbLinetypeTableRecord
  2
Continuous
 70
    64
  3
Solid line
 72
    65
 73
     0
 40
0.0
  0
LTYPE
  5
24
100
AcDbSymbolTableRecord
100
AcDbLinetypeTableRecord
  2
HIDDEN
 70
    64
  3
_ _ _ _ _ _ _ _ _ _ _ _ _ _ _ _ _ _ _ _ _ _ _ _
 72
    65
 73
     2
 40
0.1875
 49
0.125
 74
     0
 49
-0.0625
 74
     0
  0
LTYPE
  5
25
100
AcDbSymbolTableRecord
100
AcDbLinetypeTableRecord
  2
DOTTED
 70
    64
  3
...............................................
 72
    65
 73
     2
 40
0.125
 49
0.0
 74
     0
 49
-0.125
 74
     0
  0
LTYPE
  5
26
100
AcDbSymbolTableRecord
100
AcDbLinetypeTableRecord
  2
CENTER
 70
    64
  3
____ _ ____ _ ____ _ ____ _ ____ _ ____ _ ____ 
 72
    65
 73
     4
 40
1.125
 49
0.75
 74
     0
 49
-0.125
 74
     0
 49
0.125
 74
     0
 49
-0.125
 74
     0
  0
LTYPE
  5
27
100
AcDbSymbolTableRecord
100
AcDbLinetypeTableRecord
  2
PHANTOM
 70
    64
  3
______  __  __  ______  __  __  ______  __  __ 
 72
    65
 73
     6
 40
1.25
 49
0.625
 74
     0
 49
-0.125
 74
     0
 49
0.125
 74
     0
 49
-0.125
 74
     0
 49
0.125
 74
     0
 49
-0.125
 74
     0
  0
ENDTAB
  0
TABLE
  2
LAYER
  5
2
100
AcDbSymbolTable
 70
     2
  0
LAYER
  5
14
100
AcDbSymbolTableRecord
100
AcDbLayerTableRecord
  2
0
 70
     0
 62
     7
  6
Continuous
290
     1
370
    -3
390
1D
  0
LAYER
  5
28
100
AcDbSymbolTableRecord
100
AcDbLayerTableRecord
  2
TEXT
 70
     0
 62
     8
  6
Continuous
290
     1
370
    -3
390
1F
  0
ENDTAB
  0
TABLE
  2
STYLE
  5
3
100
AcDbSymbolTable
 70
     1
  0
STYLE
  5
17
100
AcDbSymbolTableRecord
100
AcDbTextStyleTableRecord
  2
Standard
 70
     0
 40
0.0
 41
1.0
 50
0.0
 71
     0
 42
0.0
  3
txt
  4

  0
ENDTAB
  0
TABLE
  2
VIEW
  5
5
100
AcDbSymbolTable
 70
     0
  0
ENDTAB
  0
TABLE
  2
UCS
  5
6
100
AcDbSymbolTable
 70
     0
  0
ENDTAB
  0
TABLE
  2
APPID
  5
8
100
AcDbSymbolTable
 70
     1
  0
APPID
  5
16
100
AcDbSymbolTableRecord
100
AcDbRegAppTableRecord
  2
ACAD
 70
     0
  0
ENDTAB
  0
TABLE
  2
DIMSTYLE
  5
9
100
AcDbSymbolTable
 70
     1
100
AcDbDimStyleTable
 71
     0
  0
DIMSTYLE
105
18
100
AcDbSymbolTableRecord
100
AcDbDimStyleTableRecord
  2
Standard
 70
     0
  3

  4

 40
1.0
 41
0.18
 42
0.0625
 43
0.38
 44
0.18
 45
0.0
 46
0.0
 47
0.0
 48
0.0
 71
     0
 72
     0
 73
     1
 74
     1
 75
     0
 76
     0
 77
     0
 78
     0
 79
     0
140
0.18
141
0.09
142
0.0
143
25.4
144
1.0
145
0.0
146
1.0
147
0.09
148
0.0
170
     0
171
     2
172
     0
173
     0
174
     0
175
     0
176
     0
177
     0
178
     0
179
     0
271
     4
272
     4
273
     2
274
     2
275
     0
276
     0
277
     2
278
    46
279
     0
280
     0
281
     0
282
     0
283
     1
284
     0
285
     0
286
     0
288
     0
340
17
341
0
342
0
343
0
344
0
371
    -2
372
    -2
  0
ENDTAB
  0
TABLE
  2
BLOCK_RECORD
  5
1
100
AcDbSymbolTable
 70
   215
  0
BLOCK_RECORD
  5
A
100
AcDbSymbolTableRecord
100
AcDbBlockTableRecord
  2
*MODEL_SPACE
340
20
  0
BLOCK_RECORD
  5
B
100
AcDbSymbolTableRecord
100
AcDbBlockTableRecord
  2
*PAPER_SPACE
340
21
  0
BLOCK_RECORD
  5
29
100
AcDbSymbolTableRecord
100
AcDbBlockTableRecord
  2
*B0
340
0
  0
BLOCK_RECORD
  5
2C
100
AcDbSymbolTableRecord
100
AcDbBlockTableRecord
  2
*B1
340
0
  0
BLOCK_RECORD
  5
10D
100
AcDbSymbolTableRecord
100
AcDbBlockTableRecord
  2
*B2
340
0
  0
BLOCK_RECORD
  5
129
100
AcDbSymbolTableRecord
100
AcDbBlockTableRecord
  2
*B3
340
0
  0
BLOCK_RECORD
  5
14B
100
AcDbSymbolTableRecord
100
AcDbBlockTableRecord
  2
*B4
340
0
  0
BLOCK_RECORD
  5
152
100
AcDbSymbolTableRecord
100
AcDbBlockTableRecord
  2
*B5
340
0
  0
BLOCK_RECORD
  5
159
100
AcDbSymbolTableRecord
100
AcDbBlockTableRecord
  2
*B6
340
0
  0
BLOCK_RECORD
  5
160
100
AcDbSymbolTableRecord
100
AcDbBlockTableRecord
  2
*B7
340
0
  0
BLOCK_RECORD
  5
167
100
AcDbSymbolTableRecord
100
AcDbBlockTableRecord
  2
*B8
340
0
  0
BLOCK_RECORD
  5
16E
100
AcDbSymbolTableRecord
100
AcDbBlockTableRecord
  2
*B9
340
0
  0
BLOCK_RECORD
  5
175
100
AcDbSymbolTableRecord
100
AcDbBlockTableRecord
  2
*B10
340
0
  0
BLOCK_RECORD
  5
17C
100
AcDbSymbolTableRecord
100
AcDbBlockTableRecord
  2
*B11
340
0
  0
BLOCK_RECORD
  5
183
100
AcDbSymbolTableRecord
100
AcDbBlockTableRecord
  2
*B12
340
0
  0
BLOCK_RECORD
  5
18A
100
AcDbSymbolTableRecord
100
AcDbBlockTableRecord
  2
*B13
340
0
  0
BLOCK_RECORD
  5
191
100
AcDbSymbolTableRecord
100
AcDbBlockTableRecord
  2
*B14
340
0
  0
BLOCK_RECORD
  5
198
100
AcDbSymbolTableRecord
100
AcDbBlockTableRecord
  2
*B15
340
0
  0
BLOCK_RECORD
  5
19F
100
AcDbSymbolTableRecord
100
AcDbBlockTableRecord
  2
*B16
340
0
  0
BLOCK_RECORD
  5
1A6
100
AcDbSymbolTableRecord
100
AcDbBlockTableRecord
  2
*B17
340
0
  0
BLOCK_RECORD
  5
1AD
100
AcDbSymbolTableRecord
100
AcDbBlockTableRecord
  2
*B18
340
0
  0
BLOCK_RECORD
  5
1B4
100
AcDbSymbolTableRecord
100
AcDbBlockTableRecord
  2
*B19
340
0
  0
BLOCK_RECORD
  5
1BB
100
AcDbSymbolTableRecord
100
AcDbBlockTableRecord
  2
*B20
340
0
  0
BLOCK_RECORD
  5
1C2
100
AcDbSymbolTableRecord
100
AcDbBlockTableRecord
  2
*B21
340
0
  0
BLOCK_RECORD
  5
1C9
100
AcDbSymbolTableRecord
100
AcDbBlockTableRecord
  2
*B22
340
0
  0
BLOCK_RECORD
  5
1D0
100
AcDbSymbolTableRecord
100
AcDbBlockTableRecord
  2
*B23
340
0
  0
BLOCK_RECORD
  5
1D7
100
AcDbSymbolTableRecord
100
AcDbBlockTableRecord
  2
*B24
340
0
  0
BLOCK_RECORD
  5
1DE
100
AcDbSymbolTableRecord
100
AcDbBlockTableRecord
  2
*B25
340
0
  0
BLOCK_RECORD
  5
1E5
100
AcDbSymbolTableRecord
100
AcDbBlockTableRecord
  2
*B26
340
0
  0
BLOCK_RECORD
  5
1EC
100
AcDbSymbolTableRecord
100
AcDbBlockTableRecord
  2
*B27
340
0
  0
BLOCK_RECORD
  5
212
100
AcDbSymbolTableRecord
100
AcDbBlockTableRecord
  2
*B28
340
0
  0
BLOCK_RECORD
  5
221
100
AcDbSymbolTableRecord
100
AcDbBlockTableRecord
  2
*B29
340
0
  0
BLOCK_RECORD
  5
226
100
AcDbSymbolTableRecord
100
AcDbBlockTableRecord
  2
*B30
340
0
  0
BLOCK_RECORD
  5
22C
100
AcDbSymbolTableRecord
100
AcDbBlockTableRecord
  2
*B31
340
0
  0
BLOCK_RECORD
  5
231
100
AcDbSymbolTableRecord
100
AcDbBlockTableRecord
  2
*B32
340
0
  0
BLOCK_RECORD
  5
237
100
AcDbSymbolTableRecord
100
AcDbBlockTableRecord
  2
*B33
340
0
  0
BLOCK_RECORD
  5
23D
100
AcDbSymbolTableRecord
100
AcDbBlockTableRecord
  2
*B34
340
0
  0
BLOCK_RECORD
  5
243
100
AcDbSymbolTableRecord
100
AcDbBlockTableRecord
  2
*B35
340
0
  0
BLOCK_RECORD
  5
24A
100
AcDbSymbolTableRecord
100
AcDbBlockTableRecord
  2
*B36
340
0
  0
BLOCK_RECORD
  5
250
100
AcDbSymbolTableRecord
100
AcDbBlockTableRecord
  2
*B37
340
0
  0
BLOCK_RECORD
  5
255
100
AcDbSymbolTableRecord
100
AcDbBlockTableRecord
  2
*B38
340
0
  0
BLOCK_RECORD
  5
25B
100
AcDbSymbolTableRecord
100
AcDbBlockTableRecord
  2
*B39
340
0
  0
BLOCK_RECORD
  5
270
100
AcDbSymbolTableRecord
100
AcDbBlockTableRecord
  2
*B40
340
0
  0
BLOCK_RECORD
  5
27E
100
AcDbSymbolTableRecord
100
AcDbBlockTableRecord
  2
*B41
340
0
  0
BLOCK_RECORD
  5
284
100
AcDbSymbolTableRecord
100
AcDbBlockTableRecord
  2
*B42
340
0
  0
BLOCK_RECORD
  5
2AA
100
AcDbSymbolTableRecord
100
AcDbBlockTableRecord
  2
*B43
340
0
  0
BLOCK_RECORD
  5
2B8
100
AcDbSymbolTableRecord
100
AcDbBlockTableRecord
  2
*B44
340
0
  0
BLOCK_RECORD
  5
2BE
100
AcDbSymbolTableRecord
100
AcDbBlockTableRecord
  2
*B45
340
0
  0
BLOCK_RECORD
  5
2C4
100
AcDbSymbolTableRecord
100
AcDbBlockTableRecord
  2
*B46
340
0
  0
BLOCK_RECORD
  5
2CA
100
AcDbSymbolTableRecord
100
AcDbBlockTableRecord
  2
*B47
340
0
  0
BLOCK_RECORD
  5
2CF
100
AcDbSymbolTableRecord
100
AcDbBlockTableRecord
  2
*B48
340
0
  0
BLOCK_RECORD
  5
2D5
100
AcDbSymbolTableRecord
100
AcDbBlockTableRecord
  2
*B49
340
0
  0
BLOCK_RECORD
  5
2DB
100
AcDbSymbolTableRecord
100
AcDbBlockTableRecord
  2
*B50
340
0
  0
BLOCK_RECORD
  5
2E1
100
AcDbSymbolTableRecord
100
AcDbBlockTableRecord
  2
*B51
340
0
  0
BLOCK_RECORD
  5
2E7
100
AcDbSymbolTableRecord
100
AcDbBlockTableRecord
  2
*B52
340
0
  0
BLOCK_RECORD
  5
2EE
100
AcDbSymbolTableRecord
100
AcDbBlockTableRecord
  2
*B53
340
0
  0
BLOCK_RECORD
  5
300
100
AcDbSymbolTableRecord
100
AcDbBlockTableRecord
  2
*B54
340
0
  0
BLOCK_RECORD
  5
307
100
AcDbSymbolTableRecord
100
AcDbBlockTableRecord
  2
*B55
340
0
  0
BLOCK_RECORD
  5
30D
100
AcDbSymbolTableRecord
100
AcDbBlockTableRecord
  2
*B56
340
0
  0
BLOCK_RECORD
  5
313
100
AcDbSymbolTableRecord
100
AcDbBlockTableRecord
  2
*B57
340
0
  0
BLOCK_RECORD
  5
319
100
AcDbSymbolTableRecord
100
AcDbBlockTableRecord
  2
*B58
340
0
  0
BLOCK_RECORD
  5
31F
100
AcDbSymbolTableRecord
100
AcDbBlockTableRecord
  2
*B59
340
0
  0
BLOCK_RECORD
  5
325
100
AcDbSymbolTableRecord
100
AcDbBlockTableRecord
  2
*B60
340
0
  0
BLOCK_RECORD
  5
32B
100
AcDbSymbolTableRecord
100
AcDbBlockTableRecord
  2
*B61
340
0
  0
BLOCK_RECORD
  5
332
100
AcDbSymbolTableRecord
100
AcDbBlockTableRecord
  2
*B62
340
0
  0
BLOCK_RECORD
  5
338
100
AcDbSymbolTableRecord
100
AcDbBlockTableRecord
  2
*B63
340
0
  0
BLOCK_RECORD
  5
33E
100
AcDbSymbolTableRecord
100
AcDbBlockTableRecord
  2
*B64
340
0
  0
BLOCK_RECORD
  5
344
100
AcDbSymbolTableRecord
100
AcDbBlockTableRecord
  2
*B65
340
0
  0
BLOCK_RECORD
  5
353
100
AcDbSymbolTableRecord
100
AcDbBlockTableRecord
  2
*B66
340
0
  0
BLOCK_RECORD
  5
362
100
AcDbSymbolTableRecord
100
AcDbBlockTableRecord
  2
*B67
340
0
  0
BLOCK_RECORD
  5
368
100
AcDbSymbolTableRecord
100
AcDbBlockTableRecord
  2
*B68
340
0
  0
BLOCK_RECORD
  5
36E
100
AcDbSymbolTableRecord
100
AcDbBlockTableRecord
  2
*B69
340
0
  0
BLOCK_RECORD
  5
374
100
AcDbSymbolTableRecord
100
AcDbBlockTableRecord
  2
*B70
340
0
  0
BLOCK_RECORD
  5
37A
100
AcDbSymbolTableRecord
100
AcDbBlockTableRecord
  2
*B71
340
0
  0
BLOCK_RECORD
  5
37F
100
AcDbSymbolTableRecord
100
AcDbBlockTableRecord
  2
*B72
340
0
  0
BLOCK_RECORD
  5
392
100
AcDbSymbolTableRecord
100
AcDbBlockTableRecord
  2
*B73
340
0
  0
BLOCK_RECORD
  5
397
100
AcDbSymbolTableRecord
100
AcDbBlockTableRecord
  2
*B74
340
0
  0
BLOCK_RECORD
  5
3A4
100
AcDbSymbolTableRecord
100
AcDbBlockTableRecord
  2
*B75
340
0
  0
BLOCK_RECORD
  5
3AA
100
AcDbSymbolTableRecord
100
AcDbBlockTableRecord
  2
*B76
340
0
  0
BLOCK_RECORD
  5
3B0
100
AcDbSymbolTableRecord
100
AcDbBlockTableRecord
  2
*B77
340
0
  0
BLOCK_RECORD
  5
3B5
100
AcDbSymbolTableRecord
100
AcDbBlockTableRecord
  2
*B78
340
0
  0
BLOCK_RECORD
  5
3BB
100
AcDbSymbolTableRecord
100
AcDbBlockTableRecord
  2
*B79
340
0
  0
BLOCK_RECORD
  5
3C1
100
AcDbSymbolTableRecord
100
AcDbBlockTableRecord
  2
*B80
340
0
  0
BLOCK_RECORD
  5
3CE
100
AcDbSymbolTableRecord
100
AcDbBlockTableRecord
  2
*B81
340
0
  0
BLOCK_RECORD
  5
3D4
100
AcDbSymbolTableRecord
100
AcDbBlockTableRecord
  2
*B82
340
0
  0
BLOCK_RECORD
  5
3DA
100
AcDbSymbolTableRecord
100
AcDbBlockTableRecord
  2
*B83
340
0
  0
BLOCK_RECORD
  5
3E0
100
AcDbSymbolTableRecord
100
AcDbBlockTableRecord
  2
*B84
340
0
  0
BLOCK_RECORD
  5
3E6
100
AcDbSymbolTableRecord
100
AcDbBlockTableRecord
  2
*B85
340
0
  0
BLOCK_RECORD
  5
3EC
100
AcDbSymbolTableRecord
100
AcDbBlockTableRecord
  2
*B86
340
0
  0
BLOCK_RECORD
  5
3F2
100
AcDbSymbolTableRecord
100
AcDbBlockTableRecord
  2
*B87
340
0
  0
BLOCK_RECORD
  5
404
100
AcDbSymbolTableRecord
100
AcDbBlockTableRecord
  2
*B88
340
0
  0
BLOCK_RECORD
  5
412
100
AcDbSymbolTableRecord
100
AcDbBlockTableRecord
  2
*B89
340
0
  0
BLOCK_RECORD
  5
418
100
AcDbSymbolTableRecord
100
AcDbBlockTableRecord
  2
*B90
340
0
  0
BLOCK_RECORD
  5
41F
100
AcDbSymbolTableRecord
100
AcDbBlockTableRecord
  2
*B91
340
0
  0
BLOCK_RECORD
  5
425
100
AcDbSymbolTableRecord
100
AcDbBlockTableRecord
  2
*B92
340
0
  0
BLOCK_RECORD
  5
42B
100
AcDbSymbolTableRecord
100
AcDbBlockTableRecord
  2
*B93
340
0
  0
BLOCK_RECORD
  5
439
100
AcDbSymbolTableRecord
100
AcDbBlockTableRecord
  2
*B94
340
0
  0
BLOCK_RECORD
  5
43F
100
AcDbSymbolTableRecord
100
AcDbBlockTableRecord
  2
*B95
340
0
  0
BLOCK_RECORD
  5
445
100
AcDbSymbolTableRecord
100
AcDbBlockTableRecord
  2
*B96
340
0
  0
BLOCK_RECORD
  5
454
100
AcDbSymbolTableRecord
100
AcDbBlockTableRecord
  2
*B97
340
0
  0
BLOCK_RECORD
  5
465
100
AcDbSymbolTableRecord
100
AcDbBlockTableRecord
  2
*B98
340
0
  0
BLOCK_RECORD
  5
46B
100
AcDbSymbolTableRecord
100
AcDbBlockTableRecord
  2
*B99
340
0
  0
BLOCK_RECORD
  5
478
100
AcDbSymbolTableRecord
100
AcDbBlockTableRecord
  2
*B100
340
0
  0
BLOCK_RECORD
  5
47D
100
AcDbSymbolTableRecord
100
AcDbBlockTableRecord
  2
*B101
340
0
  0
BLOCK_RECORD
  5
48C
100
AcDbSymbolTableRecord
100
AcDbBlockTableRecord
  2
*B102
340
0
  0
BLOCK_RECORD
  5
492
100
AcDbSymbolTableRecord
100
AcDbBlockTableRecord
  2
*B103
340
0
  0
BLOCK_RECORD
  5
498
100
AcDbSymbolTableRecord
100
AcDbBlockTableRecord
  2
*B104
340
0
  0
BLOCK_RECORD
  5
49D
100
AcDbSymbolTableRecord
100
AcDbBlockTableRecord
  2
*B105
340
0
  0
BLOCK_RECORD
  5
4A3
100
AcDbSymbolTableRecord
100
AcDbBlockTableRecord
  2
*B106
340
0
  0
BLOCK_RECORD
  5
4A9
100
AcDbSymbolTableRecord
100
AcDbBlockTableRecord
  2
*B107
340
0
  0
BLOCK_RECORD
  5
4B6
100
AcDbSymbolTableRecord
100
AcDbBlockTableRecord
  2
*B108
340
0
  0
BLOCK_RECORD
  5
4BC
100
AcDbSymbolTableRecord
100
AcDbBlockTableRecord
  2
*B109
340
0
  0
BLOCK_RECORD
  5
4C2
100
AcDbSymbolTableRecord
100
AcDbBlockTableRecord
  2
*B110
340
0
  0
BLOCK_RECORD
  5
4C8
100
AcDbSymbolTableRecord
100
AcDbBlockTableRecord
  2
*B111
340
0
  0
BLOCK_RECORD
  5
4CE
100
AcDbSymbolTableRecord
100
AcDbBlockTableRecord
  2
*B112
340
0
  0
BLOCK_RECORD
  5
4D4
100
AcDbSymbolTableRecord
100
AcDbBlockTableRecord
  2
*B113
340
0
  0
BLOCK_RECORD
  5
4DB
100
AcDbSymbolTableRecord
100
AcDbBlockTableRecord
  2
*B114
340
0
  0
BLOCK_RECORD
  5
4E1
100
AcDbSymbolTableRecord
100
AcDbBlockTableRecord
  2
*B115
340
0
  0
BLOCK_RECORD
  5
4E7
100
AcDbSymbolTableRecord
100
AcDbBlockTableRecord
  2
*B116
340
0
  0
BLOCK_RECORD
  5
4ED
100
AcDbSymbolTableRecord
100
AcDbBlockTableRecord
  2
*B117
340
0
  0
BLOCK_RECORD
  5
4F3
100
AcDbSymbolTableRecord
100
AcDbBlockTableRecord
  2
*B118
340
0
  0
BLOCK_RECORD
  5
4F9
100
AcDbSymbolTableRecord
100
AcDbBlockTableRecord
  2
*B119
340
0
  0
BLOCK_RECORD
  5
4FF
100
AcDbSymbolTableRecord
100
AcDbBlockTableRecord
  2
*B120
340
0
  0
BLOCK_RECORD
  5
50E
100
AcDbSymbolTableRecord
100
AcDbBlockTableRecord
  2
*B121
340
0
  0
BLOCK_RECORD
  5
513
100
AcDbSymbolTableRecord
100
AcDbBlockTableRecord
  2
*B122
340
0
  0
BLOCK_RECORD
  5
519
100
AcDbSymbolTableRecord
100
AcDbBlockTableRecord
  2
*B123
340
0
  0
BLOCK_RECORD
  5
51F
100
AcDbSymbolTableRecord
100
AcDbBlockTableRecord
  2
*B124
340
0
  0
BLOCK_RECORD
  5
525
100
AcDbSymbolTableRecord
100
AcDbBlockTableRecord
  2
*B125
340
0
  0
BLOCK_RECORD
  5
543
100
AcDbSymbolTableRecord
100
AcDbBlockTableRecord
  2
*B126
340
0
  0
BLOCK_RECORD
  5
549
100
AcDbSymbolTableRecord
100
AcDbBlockTableRecord
  2
*B127
340
0
  0
BLOCK_RECORD
  5
54F
100
AcDbSymbolTableRecord
100
AcDbBlockTableRecord
  2
*B128
340
0
  0
BLOCK_RECORD
  5
555
100
AcDbSymbolTableRecord
100
AcDbBlockTableRecord
  2
*B129
340
0
  0
BLOCK_RECORD
  5
55B
100
AcDbSymbolTableRecord
100
AcDbBlockTableRecord
  2
*B130
340
0
  0
BLOCK_RECORD
  5
56A
100
AcDbSymbolTableRecord
100
AcDbBlockTableRecord
  2
*B131
340
0
  0
BLOCK_RECORD
  5
578
100
AcDbSymbolTableRecord
100
AcDbBlockTableRecord
  2
*B132
340
0
  0
BLOCK_RECORD
  5
57D
100
AcDbSymbolTableRecord
100
AcDbBlockTableRecord
  2
*B133
340
0
  0
BLOCK_RECORD
  5
583
100
AcDbSymbolTableRecord
100
AcDbBlockTableRecord
  2
*B134
340
0
  0
BLOCK_RECORD
  5
589
100
AcDbSymbolTableRecord
100
AcDbBlockTableRecord
  2
*B135
340
0
  0
BLOCK_RECORD
  5
598
100
AcDbSymbolTableRecord
100
AcDbBlockTableRecord
  2
*B136
340
0
  0
BLOCK_RECORD
  5
59E
100
AcDbSymbolTableRecord
100
AcDbBlockTableRecord
  2
*B137
340
0
  0
BLOCK_RECORD
  5
5A4
100
AcDbSymbolTableRecord
100
AcDbBlockTableRecord
  2
*B138
340
0
  0
BLOCK_RECORD
  5
5AA
100
AcDbSymbolTableRecord
100
AcDbBlockTableRecord
  2
*B139
340
0
  0
BLOCK_RECORD
  5
5B0
100
AcDbSymbolTableRecord
100
AcDbBlockTableRecord
  2
*B140
340
0
  0
BLOCK_RECORD
  5
5B6
100
AcDbSymbolTableRecord
100
AcDbBlockTableRecord
  2
*B141
340
0
  0
BLOCK_RECORD
  5
5BC
100
AcDbSymbolTableRecord
100
AcDbBlockTableRecord
  2
*B142
340
0
  0
BLOCK_RECORD
  5
5C2
100
AcDbSymbolTableRecord
100
AcDbBlockTableRecord
  2
*B143
340
0
  0
BLOCK_RECORD
  5
5C8
100
AcDbSymbolTableRecord
100
AcDbBlockTableRecord
  2
*B144
340
0
  0
BLOCK_RECORD
  5
5CE
100
AcDbSymbolTableRecord
100
AcDbBlockTableRecord
  2
*B145
340
0
  0
BLOCK_RECORD
  5
5D4
100
AcDbSymbolTableRecord
100
AcDbBlockTableRecord
  2
*B146
340
0
  0
BLOCK_RECORD
  5
5DA
100
AcDbSymbolTableRecord
100
AcDbBlockTableRecord
  2
*B147
340
0
  0
BLOCK_RECORD
  5
5E0
100
AcDbSymbolTableRecord
100
AcDbBlockTableRecord
  2
*B148
340
0
  0
BLOCK_RECORD
  5
5E6
100
AcDbSymbolTableRecord
100
AcDbBlockTableRecord
  2
*B149
340
0
  0
BLOCK_RECORD
  5
5EC
100
AcDbSymbolTableRecord
100
AcDbBlockTableRecord
  2
*B150
340
0
  0
BLOCK_RECORD
  5
5F2
100
AcDbSymbolTableRecord
100
AcDbBlockTableRecord
  2
*B151
340
0
  0
BLOCK_RECORD
  5
5F8
100
AcDbSymbolTableRecord
100
AcDbBlockTableRecord
  2
*B152
340
0
  0
BLOCK_RECORD
  5
5FE
100
AcDbSymbolTableRecord
100
AcDbBlockTableRecord
  2
*B153
340
0
  0
BLOCK_RECORD
  5
604
100
AcDbSymbolTableRecord
100
AcDbBlockTableRecord
  2
*B154
340
0
  0
BLOCK_RECORD
  5
60A
100
AcDbSymbolTableRecord
100
AcDbBlockTableRecord
  2
*B155
340
0
  0
BLOCK_RECORD
  5
610
100
AcDbSymbolTableRecord
100
AcDbBlockTableRecord
  2
*B156
340
0
  0
BLOCK_RECORD
  5
616
100
AcDbSymbolTableRecord
100
AcDbBlockTableRecord
  2
*B157
340
0
  0
BLOCK_RECORD
  5
61C
100
AcDbSymbolTableRecord
100
AcDbBlockTableRecord
  2
*B158
340
0
  0
BLOCK_RECORD
  5
622
100
AcDbSymbolTableRecord
100
AcDbBlockTableRecord
  2
*B159
340
0
  0
BLOCK_RECORD
  5
628
100
AcDbSymbolTableRecord
100
AcDbBlockTableRecord
  2
*B160
340
0
  0
BLOCK_RECORD
  5
62E
100
AcDbSymbolTableRecord
100
AcDbBlockTableRecord
  2
*B161
340
0
  0
BLOCK_RECORD
  5
634
100
AcDbSymbolTableRecord
100
AcDbBlockTableRecord
  2
*B162
340
0
  0
BLOCK_RECORD
  5
63A
100
AcDbSymbolTableRecord
100
AcDbBlockTableRecord
  2
*B163
340
0
  0
BLOCK_RECORD
  5
640
100
AcDbSymbolTableRecord
100
AcDbBlockTableRecord
  2
*B164
340
0
  0
BLOCK_RECORD
  5
646
100
AcDbSymbolTableRecord
100
AcDbBlockTableRecord
  2
*B165
340
0
  0
BLOCK_RECORD
  5
64C
100
AcDbSymbolTableRecord
100
AcDbBlockTableRecord
  2
*B166
340
0
  0
BLOCK_RECORD
  5
652
100
AcDbSymbolTableRecord
100
AcDbBlockTableRecord
  2
*B167
340
0
  0
BLOCK_RECORD
  5
658
100
AcDbSymbolTableRecord
100
AcDbBlockTableRecord
  2
*B168
340
0
  0
BLOCK_RECORD
  5
65E
100
AcDbSymbolTableRecord
100
AcDbBlockTableRecord
  2
*B169
340
0
  0
BLOCK_RECORD
  5
664
100
AcDbSymbolTableRecord
100
AcDbBlockTableRecord
  2
*B170
340
0
  0
BLOCK_RECORD
  5
66A
100
AcDbSymbolTableRecord
100
AcDbBlockTableRecord
  2
*B171
340
0
  0
BLOCK_RECORD
  5
670
100
AcDbSymbolTableRecord
100
AcDbBlockTableRecord
  2
*B172
340
0
  0
BLOCK_RECORD
  5
676
100
AcDbSymbolTableRecord
100
AcDbBlockTableRecord
  2
*B173
340
0
  0
BLOCK_RECORD
  5
67C
100
AcDbSymbolTableRecord
100
AcDbBlockTableRecord
  2
*B174
340
0
  0
BLOCK_RECORD
  5
682
100
AcDbSymbolTableRecord
100
AcDbBlockTableRecord
  2
*B175
340
0
  0
BLOCK_RECORD
  5
688
100
AcDbSymbolTableRecord
100
AcDbBlockTableRecord
  2
*B176
340
0
  0
BLOCK_RECORD
  5
68E
100
AcDbSymbolTableRecord
100
AcDbBlockTableRecord
  2
*B177
340
0
  0
BLOCK_RECORD
  5
694
100
AcDbSymbolTableRecord
100
AcDbBlockTableRecord
  2
*B178
340
0
  0
BLOCK_RECORD
  5
69A
100
AcDbSymbolTableRecord
100
AcDbBlockTableRecord
  2
*B179
340
0
  0
BLOCK_RECORD
  5
6A0
100
AcDbSymbolTableRecord
100
AcDbBlockTableRecord
  2
*B180
340
0
  0
BLOCK_RECORD
  5
6A6
100
AcDbSymbolTableRecord
100
AcDbBlockTableRecord
  2
*B181
340
0
  0
BLOCK_RECORD
  5
6AC
100
AcDbSymbolTableRecord
100
AcDbBlockTableRecord
  2
*B182
340
0
  0
BLOCK_RECORD
  5
6B2
100
AcDbSymbolTableRecord
100
AcDbBlockTableRecord
  2
*B183
340
0
  0
BLOCK_RECORD
  5
6B8
100
AcDbSymbolTableRecord
100
AcDbBlockTableRecord
  2
*B184
340
0
  0
BLOCK_RECORD
  5
6BE
100
AcDbSymbolTableRecord
100
AcDbBlockTableRecord
  2
*B185
340
0
  0
BLOCK_RECORD
  5
6C4
100
AcDbSymbolTableRecord
100
AcDbBlockTableRecord
  2
*B186
340
0
  0
BLOCK_RECORD
  5
6CB
100
AcDbSymbolTableRecord
100
AcDbBlockTableRecord
  2
*B187
340
0
  0
BLOCK_RECORD
  5
6D2
100
AcDbSymbolTableRecord
100
AcDbBlockTableRecord
  2
*B188
340
0
  0
BLOCK_RECORD
  5
6D9
100
AcDbSymbolTableRecord
100
AcDbBlockTableRecord
  2
*B189
340
0
  0
BLOCK_RECORD
  5
6DE
100
AcDbSymbolTableRecord
100
AcDbBlockTableRecord
  2
*B190
340
0
  0
BLOCK_RECORD
  5
6E3
100
AcDbSymbolTableRecord
100
AcDbBlockTableRecord
  2
*B191
340
0
  0
BLOCK_RECORD
  5
6E8
100
AcDbSymbolTableRecord
100
AcDbBlockTableRecord
  2
*B192
340
0
  0
BLOCK_RECORD
  5
6ED
100
AcDbSymbolTableRecord
100
AcDbBlockTableRecord
  2
*B193
340
0
  0
BLOCK_RECORD
  5
6F2
100
AcDbSymbolTableRecord
100
AcDbBlockTableRecord
  2
*B194
340
0
  0
BLOCK_RECORD
  5
6F7
100
AcDbSymbolTableRecord
100
AcDbBlockTableRecord
  2
*B195
340
0
  0
BLOCK_RECORD
  5
6FC
100
AcDbSymbolTableRecord
100
AcDbBlockTableRecord
  2
*B196
340
0
  0
BLOCK_RECORD
  5
701
100
AcDbSymbolTableRecord
100
AcDbBlockTableRecord
  2
*B197
340
0
  0
BLOCK_RECORD
  5
706
100
AcDbSymbolTableRecord
100
AcDbBlockTableRecord
  2
*B198
340
0
  0
BLOCK_RECORD
  5
70B
100
AcDbSymbolTableRecord
100
AcDbBlockTableRecord
  2
*B199
340
0
  0
BLOCK_RECORD
  5
710
100
AcDbSymbolTableRecord
100
AcDbBlockTableRecord
  2
*B200
340
0
  0
BLOCK_RECORD
  5
715
100
AcDbSymbolTableRecord
100
AcDbBlockTableRecord
  2
*B201
340
0
  0
BLOCK_RECORD
  5
71A
100
AcDbSymbolTableRecord
100
AcDbBlockTableRecord
  2
*B202
340
0
  0
BLOCK_RECORD
  5
71F
100
AcDbSymbolTableRecord
100
AcDbBlockTableRecord
  2
*B203
340
0
  0
BLOCK_RECORD
  5
724
100
AcDbSymbolTableRecord
100
AcDbBlockTableRecord
  2
*B204
340
0
  0
BLOCK_RECORD
  5
729
100
AcDbSymbolTableRecord
100
AcDbBlockTableRecord
  2
*B205
340
0
  0
BLOCK_RECORD
  5
72E
100
AcDbSymbolTableRecord
100
AcDbBlockTableRecord
  2
*B206
340
0
  0
BLOCK_RECORD
  5
733
100
AcDbSymbolTableRecord
100
AcDbBlockTableRecord
  2
*B207
340
0
  0
BLOCK_RECORD
  5
738
100
AcDbSymbolTableRecord
100
AcDbBlockTableRecord
  2
*B208
340
0
  0
BLOCK_RECORD
  5
73D
100
AcDbSymbolTableRecord
100
AcDbBlockTableRecord
  2
*B209
340
0
  0
BLOCK_RECORD
  5
742
100
AcDbSymbolTableRecord
100
AcDbBlockTableRecord
  2
*B210
340
0
  0
BLOCK_RECORD
  5
747
100
AcDbSymbolTableRecord
100
AcDbBlockTableRecord
  2
*B211
340
0
  0
BLOCK_RECORD
  5
74C
100
AcDbSymbolTableRecord
100
AcDbBlockTableRecord
  2
*B212
340
0
  0
BLOCK_RECORD
  5
751
100
AcDbSymbolTableRecord
100
AcDbBlockTableRecord
  2
*B213
340
0
  0
BLOCK_RECORD
  5
756
100
AcDbSymbolTableRecord
100
AcDbBlockTableRecord
  2
*B214
340
0
  0
ENDTAB
  0
ENDSEC
  0
SECTION
  2
BLOCKS
  0
BLOCK
  5
D
100
AcDbEntity
  8
0
100
AcDbBlockBegin
  2
*MODEL_SPACE
 70
     0
 10
0.0
 20
0.0
 30
0.0
  3
*MODEL_SPACE
  1

  0
ENDBLK
  5
E
100
AcDbEntity
  8
0
100
AcDbBlockEnd
  0
BLOCK
  5
F
100
AcDbEntity
 67
     1
  8
0
100
AcDbBlockBegin
  2
*PAPER_SPACE
 70
     0
 10
0.0
 20
0.0
 30
0.0
  3
*PAPER_SPACE
  1

  0
ENDBLK
  5
10
100
AcDbEntity
 67
     1
  8
0
100
AcDbBlockEnd
  0
BLOCK
  5
2A
100
AcDbEntity
  8
0
100
AcDbBlockBegin
  2
*B0
 70
     0
 10
0.0
 20
0.0
 30
0.0
  3
*B0
  1

  0
ENDBLK
  5
2B
100
AcDbEntity
  8
0
100
AcDbBlockEnd
  0
BLOCK
  5
2D
100
AcDbEntity
  8
0
100
AcDbBlockBegin
  2
*B1
 70
     0
 10
0.0
 20
0.0
 30
0.0
  3
*B1
  1

  0
CIRCLE
  5
2E
100
AcDbEntity
  8
0
  6
Continuous
 62
   174
100
AcDbCircle
 10
411.907705
 20
178.50959
 30
0.0
 40
6.0
  0
LINE
  5
2F
100
AcDbEntity
  8
0
  6
HIDDEN
 62
   174
100
AcDbLine
 10
378.907705
 20
34.50959
 30
0.0
 11
378.907705
 21
43.50959
 31
0.0
  0
LINE
  5
30
100
AcDbEntity
  8
0
  6
HIDDEN
 62
   174
100
AcDbLine
 10
360.907705
 20
43.50959
 30
0.0
 11
360.907705
 21
34.50959
 31
0.0
  0
LINE
  5
31
100
AcDbEntity
  8
0
  6
HIDDEN
 62
   174
100
AcDbLine
 10
330.907705
 20
34.50959
 30
0.0
 11
330.907705
 21
43.50959
 31
0.0
  0
LINE
  5
32
100
AcDbEntity
  8
0
  6
HIDDEN
 62
   174
100
AcDbLine
 10
312.907705
 20
43.50959
 30
0.0
 11
312.907705
 21
34.50959
 31
0.0
  0
LINE
  5
33
100
AcDbEntity
  8
0
  6
HIDDEN
 62
   174
100
AcDbLine
 10
282.907705
 20
34.50959
 30
0.0
 11
282.907705
 21
43.50959
 31
0.0
  0
LINE
  5
34
100
AcDbEntity
  8
0
  6
HIDDEN
 62
   174
100
AcDbLine
 10
264.907705
 20
43.50959
 30
0.0
 11
264.907705
 21
34.50959
 31
0.0
  0
LINE
  5
35
100
AcDbEntity
  8
0
  6
HIDDEN
 62
   174
100
AcDbLine
 10
234.907705
 20
34.50959
 30
0.0
 11
234.907705
 21
43.50959
 31
0.0
  0
LINE
  5
36
100
AcDbEntity
  8
0
  6
HIDDEN
 62
   174
100
AcDbLine
 10
216.907705
 20
43.50959
 30
0.0
 11
216.907705
 21
34.50959
 31
0.0
  0
LINE
  5
37
100
AcDbEntity
  8
0
  6
HIDDEN
 62
   174
100
AcDbLine
 10
426.907705
 20
34.50959
 30
0.0
 11
426.907705
 21
43.50959
 31
0.0
  0
LINE
  5
38
100
AcDbEntity
  8
0
  6
HIDDEN
 62
   174
100
AcDbLine
 10
408.907705
 20
43.50959
 30
0.0
 11
408.907705
 21
34.50959
 31
0.0
  0
LINE
  5
39
100
AcDbEntity
  8
0
  6
HIDDEN
 62
   174
100
AcDbLine
 10
210.907705
 20
34.50959
 30
0.0
 11
210.907705
 21
43.50959
 31
0.0
  0
LINE
  5
3A
100
AcDbEntity
  8
0
  6
HIDDEN
 62
   174
100
AcDbLine
 10
192.907705
 20
43.50959
 30
0.0
 11
192.907705
 21
34.50959
 31
0.0
  0
CIRCLE
  5
3B
100
AcDbEntity
  8
0
  6
Continuous
 62
   174
100
AcDbCircle
 10
363.907705
 20
178.50959
 30
0.0
 40
6.0
  0
LINE
  5
3C
100
AcDbEntity
  8
0
  6
HIDDEN
 62
   174
100
AcDbLine
 10
357.118119
 20
79.50959
 30
0.0
 11
394.692094
 21
79.50959
 31
0.0
  0
CIRCLE
  5
3D
100
AcDbEntity
  8
0
  6
Continuous
 62
   174
100
AcDbCircle
 10
243.907705
 20
94.50959
 30
0.0
 40
3.075
  0
LINE
  5
3E
100
AcDbEntity
  8
0
  6
Continuous
 62
   174
100
AcDbLine
 10
141.907705
 20
55.50959
 30
0.0
 11
477.907705
 21
55.50959
 31
0.0
  0
LINE
  5
3F
100
AcDbEntity
  8
0
  6
HIDDEN
 62
   174
100
AcDbLine
 10
262.640881
 20
181.38371
 30
0.0
 11
262.711553
 21
181.50959
 31
0.0
  0
LWPOLYLINE
  5
40
100
AcDbEntity
  8
0
  6
HIDDEN
 62
   174
100
AcDbPolyline
 90
        3
 70
   128
 10
346.711553
 20
79.50959
 10
346.699158
 20
79.531162
 10
346.640881
 20
79.635471
  0
LINE
  5
41
100
AcDbEntity
  8
0
  6
Continuous
 62
   174
100
AcDbLine
 10
369.174529
 20
181.38371
 30
0.0
 11
358.640881
 21
181.38371
 31
0.0
  0
CIRCLE
  5
42
100
AcDbEntity
  8
0
  6
Continuous
 62
   174
100
AcDbCircle
 10
273.907705
 20
106.50959
 30
0.0
 40
6.0
  0
LINE
  5
43
100
AcDbEntity
  8
0
  6
Continuous
 62
   174
100
AcDbLine
 10
339.907705
 20
43.50959
 30
0.0
 11
339.907705
 21
55.50959
 31
0.0
  0
LINE
  5
44
100
AcDbEntity
  8
0
  6
Continuous
 62
   174
100
AcDbLine
 10
291.907705
 20
43.50959
 30
0.0
 11
291.907705
 21
55.50959
 31
0.0
  0
LINE
  5
45
100
AcDbEntity
  8
0
  6
HIDDEN
 62
   174
100
AcDbLine
 10
196.711553
 20
88.50959
 30
0.0
 11
201.907705
 21
79.50959
 31
0.0
  0
LINE
  5
46
100
AcDbEntity
  8
0
  6
HIDDEN
 62
   174
100
AcDbLine
 10
261.118119
 20
79.50959
 30
0.0
 11
298.692094
 21
79.50959
 31
0.0
  0
LINE
  5
47
100
AcDbEntity
  8
0
  6
HIDDEN
 62
   174
100
AcDbLine
 10
214.697291
 20
181.50959
 30
0.0
 11
201.907705
 21
181.50959
 31
0.0
  0
LINE
  5
48
100
AcDbEntity
  8
0
  6
HIDDEN
 62
   174
100
AcDbLine
 10
433.928059
 20
97.50824
 30
0.0
 11
433.928059
 21
88.508134
 31
0.0
  0
ARC
  5
49
100
AcDbEntity
  8
0
  6
Continuous
 62
   174
100
AcDbCircle
 10
339.907705
 20
94.50959
 30
0.0
 40
3.75
100
AcDbArc
 50
-15.0
 51
285.0
  0
ARC
  5
4A
100
AcDbEntity
  8
0
  6
Continuous
 62
   174
100
AcDbCircle
 10
387.907705
 20
94.50959
 30
0.0
 40
3.75
100
AcDbArc
 50
-15.0
 51
285.0
  0
CIRCLE
  5
4B
100
AcDbEntity
  8
0
  6
Continuous
 62
   174
100
AcDbCircle
 10
375.907705
 20
166.50959
 30
0.0
 40
3.075
  0
CIRCLE
  5
4C
100
AcDbEntity
  8
0
  6
Continuous
 62
   174
100
AcDbCircle
 10
339.907705
 20
94.50959
 30
0.0
 40
3.075
  0
CIRCLE
  5
4D
100
AcDbEntity
  8
0
  6
Continuous
 62
   174
100
AcDbCircle
 10
453.907705
 20
130.50959
 30
0.0
 40
6.75
  0
LINE
  5
4E
100
AcDbEntity
  8
0
  6
HIDDEN
 62
   174
100
AcDbLine
 10
405.174529
 20
79.635471
 30
0.0
 11
405.103858
 21
79.50959
 31
0.0
  0
LWPOLYLINE
  5
4F
100
AcDbEntity
  8
0
  6
HIDDEN
 62
   174
100
AcDbPolyline
 90
        3
 70
   128
 10
273.103857
 20
181.50959
 10
273.116253
 20
181.488018
 10
273.174529
 20
181.38371
  0
LINE
  5
50
100
AcDbEntity
  8
0
  6
HIDDEN
 62
   174
100
AcDbLine
 10
309.174529
 20
79.635471
 30
0.0
 11
309.103858
 21
79.50959
 31
0.0
  0
LINE
  5
51
100
AcDbEntity
  8
0
  6
Continuous
 62
   174
100
AcDbLine
 10
225.174529
 20
181.38371
 30
0.0
 11
214.640881
 21
181.38371
 31
0.0
  0
LINE
  5
52
100
AcDbEntity
  8
0
  6
Continuous
 62
   174
100
AcDbLine
 10
387.907705
 20
43.50959
 30
0.0
 11
387.907705
 21
55.50959
 31
0.0
  0
LINE
  5
53
100
AcDbEntity
  8
0
  6
HIDDEN
 62
   174
100
AcDbLine
 10
201.907705
 20
181.50959
 30
0.0
 11
196.711553
 21
172.50959
 31
0.0
  0
LINE
  5
54
100
AcDbEntity
  8
0
  6
HIDDEN
 62
   174
100
AcDbLine
 10
438.907705
 20
106.13459
 30
0.0
 11
433.928059
 21
97.50959
 31
0.0
  0
LINE
  5
55
100
AcDbEntity
  8
0
  6
HIDDEN
 62
   174
100
AcDbLine
 10
201.907705
 20
79.50959
 30
0.0
 11
202.692094
 21
79.50959
 31
0.0
  0
LINE
  5
56
100
AcDbEntity
  8
0
  6
HIDDEN
 62
   174
100
AcDbLine
 10
310.697291
 20
181.50959
 30
0.0
 11
273.123316
 21
181.50959
 31
0.0
  0
CIRCLE
  5
57
100
AcDbEntity
  8
0
  6
Continuous
 62
   174
100
AcDbCircle
 10
279.907705
 20
166.50959
 30
0.0
 40
3.075
  0
CIRCLE
  5
58
100
AcDbEntity
  8
0
  6
Continuous
 62
   174
100
AcDbCircle
 10
165.907705
 20
172.50959
 30
0.0
 40
6.75
  0
LINE
  5
59
100
AcDbEntity
  8
0
  6
HIDDEN
 62
   174
100
AcDbLine
 10
261.174529
 20
79.635471
 30
0.0
 11
261.103858
 21
79.50959
 31
0.0
  0
LINE
  5
5A
100
AcDbEntity
  8
0
  6
HIDDEN
 62
   174
100
AcDbLine
 10
357.174529
 20
79.635471
 30
0.0
 11
357.103858
 21
79.50959
 31
0.0
  0
LWPOLYLINE
  5
5B
100
AcDbEntity
  8
0
  6
HIDDEN
 62
   174
100
AcDbPolyline
 90
        3
 70
   128
 10
225.103857
 20
181.50959
 10
225.116253
 20
181.488018
 10
225.174529
 20
181.38371
  0
LWPOLYLINE
  5
5C
100
AcDbEntity
  8
0
  6
HIDDEN
 62
   174
100
AcDbPolyline
 90
        3
 70
   128
 10
202.711553
 20
79.50959
 10
202.699158
 20
79.531162
 10
202.640881
 20
79.635471
  0
ARC
  5
5D
100
AcDbEntity
  8
0
  6
Continuous
 62
   174
100
AcDbCircle
 10
195.907705
 20
94.50959
 30
0.0
 40
3.75
100
AcDbArc
 50
-15.0
 51
285.0
  0
CIRCLE
  5
5E
100
AcDbEntity
  8
0
  6
Continuous
 62
   174
100
AcDbCircle
 10
303.907705
 20
82.50959
 30
0.0
 40
6.0
  0
LINE
  5
5F
100
AcDbEntity
  8
0
  6
HIDDEN
 62
   174
100
AcDbLine
 10
438.907705
 20
190.13459
 30
0.0
 11
433.928059
 21
181.50959
 31
0.0
  0
LINE
  5
60
100
AcDbEntity
  8
0
  6
HIDDEN
 62
   174
100
AcDbLine
 10
406.697291
 20
181.50959
 30
0.0
 11
369.123316
 21
181.50959
 31
0.0
  0
CIRCLE
  5
61
100
AcDbEntity
  8
0
  6
Continuous
 62
   174
100
AcDbCircle
 10
195.907705
 20
94.50959
 30
0.0
 40
3.075
  0
LINE
  5
62
100
AcDbEntity
  8
0
  6
Continuous
 62
   174
100
AcDbLine
 10
477.907705
 20
55.50959
 30
0.0
 11
477.907705
 21
205.50959
 31
0.0
  0
LINE
  5
63
100
AcDbEntity
  8
0
  6
Continuous
 62
   174
100
AcDbLine
 10
202.640881
 20
79.635471
 30
0.0
 11
213.174529
 21
79.635471
 31
0.0
  0
LINE
  5
64
100
AcDbEntity
  8
0
  6
Continuous
 62
   174
100
AcDbLine
 10
321.174529
 20
181.38371
 30
0.0
 11
310.640881
 21
181.38371
 31
0.0
  0
LINE
  5
65
100
AcDbEntity
  8
0
  6
HIDDEN
 62
   174
100
AcDbLine
 10
406.640881
 20
181.38371
 30
0.0
 11
406.711553
 21
181.50959
 31
0.0
  0
LWPOLYLINE
  5
66
100
AcDbEntity
  8
0
  6
HIDDEN
 62
   174
100
AcDbPolyline
 90
        3
 70
   128
 10
321.103857
 20
181.50959
 10
321.116253
 20
181.488018
 10
321.174529
 20
181.38371
  0
LINE
  5
67
100
AcDbEntity
  8
0
  6
HIDDEN
 62
   174
100
AcDbLine
 10
213.174529
 20
79.635471
 30
0.0
 11
213.103858
 21
79.50959
 31
0.0
  0
LINE
  5
68
100
AcDbEntity
  8
0
  6
Continuous
 62
   174
100
AcDbLine
 10
399.907705
 20
55.50959
 30
0.0
 11
399.907705
 21
43.50959
 31
0.0
  0
LINE
  5
69
100
AcDbEntity
  8
0
  6
HIDDEN
 62
   174
100
AcDbLine
 10
201.907705
 20
181.506958
 30
0.0
 11
201.907705
 21
163.507172
 31
0.0
  0
LINE
  5
6A
100
AcDbEntity
  8
0
  6
HIDDEN
 62
   174
100
AcDbLine
 10
201.907705
 20
97.50959
 30
0.0
 11
196.711553
 21
88.50959
 31
0.0
  0
ARC
  5
6B
100
AcDbEntity
  8
0
  6
Continuous
 62
   174
100
AcDbCircle
 10
291.907705
 20
94.50959
 30
0.0
 40
3.75
100
AcDbArc
 50
-15.0
 51
285.0
  0
LINE
  5
6C
100
AcDbEntity
  8
0
  6
HIDDEN
 62
   174
100
AcDbLine
 10
405.118119
 20
79.50959
 30
0.0
 11
433.928059
 21
79.50959
 31
0.0
  0
LINE
  5
6D
100
AcDbEntity
  8
0
  6
HIDDEN
 62
   174
100
AcDbLine
 10
201.907705
 20
163.50959
 30
0.0
 11
433.928059
 21
163.50959
 31
0.0
  0
LINE
  5
6E
100
AcDbEntity
  8
0
  6
HIDDEN
 62
   174
100
AcDbLine
 10
433.928059
 20
172.506852
 30
0.0
 11
433.928059
 21
163.507172
 31
0.0
  0
LINE
  5
6F
100
AcDbEntity
  8
0
  6
HIDDEN
 62
   174
100
AcDbLine
 10
433.928059
 20
181.506958
 30
0.0
 11
433.928059
 21
172.506852
 31
0.0
  0
LINE
  5
70
100
AcDbEntity
  8
0
  6
HIDDEN
 62
   174
100
AcDbLine
 10
433.928059
 20
88.508134
 30
0.0
 11
433.928059
 21
79.508454
 31
0.0
  0
CIRCLE
  5
71
100
AcDbEntity
  8
0
  6
Continuous
 62
   174
100
AcDbCircle
 10
423.907705
 20
166.50959
 30
0.0
 40
3.075
  0
CIRCLE
  5
72
100
AcDbEntity
  8
0
  6
Continuous
 62
   174
100
AcDbCircle
 10
291.907705
 20
94.50959
 30
0.0
 40
3.075
  0
LINE
  5
73
100
AcDbEntity
  8
0
  6
Continuous
 62
   174
100
AcDbLine
 10
141.907705
 20
205.50959
 30
0.0
 11
141.907705
 21
55.50959
 31
0.0
  0
LINE
  5
74
100
AcDbEntity
  8
0
  6
Continuous
 62
   174
100
AcDbLine
 10
273.174529
 20
181.38371
 30
0.0
 11
262.640881
 21
181.38371
 31
0.0
  0
LWPOLYLINE
  5
75
100
AcDbEntity
  8
0
  6
HIDDEN
 62
   174
100
AcDbPolyline
 90
        3
 70
   128
 10
417.103857
 20
181.50959
 10
417.116253
 20
181.488018
 10
417.174529
 20
181.38371
  0
LINE
  5
76
100
AcDbEntity
  8
0
  6
HIDDEN
 62
   174
100
AcDbLine
 10
358.640881
 20
181.38371
 30
0.0
 11
358.711553
 21
181.50959
 31
0.0
  0
CIRCLE
  5
77
100
AcDbEntity
  8
0
  6
Continuous
 62
   174
100
AcDbCircle
 10
261.907705
 20
130.50959
 30
0.0
 40
6.0
  0
LINE
  5
78
100
AcDbEntity
  8
0
  6
Continuous
 62
   174
100
AcDbLine
 10
207.907705
 20
55.50959
 30
0.0
 11
207.907705
 21
43.50959
 31
0.0
  0
ARC
  5
79
100
AcDbEntity
  8
0
  6
Continuous
 62
   174
100
AcDbCircle
 10
243.907705
 20
94.50959
 30
0.0
 40
3.75
100
AcDbArc
 50
-15.0
 51
285.0
  0
LINE
  5
7A
100
AcDbEntity
  8
0
  6
HIDDEN
 62
   174
100
AcDbLine
 10
201.907705
 20
82.508347
 30
0.0
 11
201.907705
 21
79.508454
 31
0.0
  0
LINE
  5
7B
100
AcDbEntity
  8
0
  6
HIDDEN
 62
   174
100
AcDbLine
 10
201.907705
 20
97.50824
 30
0.0
 11
201.907705
 21
82.508347
 31
0.0
  0
LINE
  5
7C
100
AcDbEntity
  8
0
  6
HIDDEN
 62
   174
100
AcDbLine
 10
309.118119
 20
79.50959
 30
0.0
 11
346.692094
 21
79.50959
 31
0.0
  0
LINE
  5
7D
100
AcDbEntity
  8
0
  6
HIDDEN
 62
   174
100
AcDbLine
 10
262.697291
 20
181.50959
 30
0.0
 11
225.123316
 21
181.50959
 31
0.0
  0
CIRCLE
  5
7E
100
AcDbEntity
  8
0
  6
Continuous
 62
   174
100
AcDbCircle
 10
387.907705
 20
94.50959
 30
0.0
 40
3.075
  0
LINE
  5
7F
100
AcDbEntity
  8
0
  6
Continuous
 62
   174
100
AcDbLine
 10
394.640881
 20
79.635471
 30
0.0
 11
405.174529
 21
79.635471
 31
0.0
  0
LWPOLYLINE
  5
80
100
AcDbEntity
  8
0
  6
HIDDEN
 62
   174
100
AcDbPolyline
 90
        3
 70
   128
 10
250.711553
 20
79.50959
 10
250.699158
 20
79.531162
 10
250.640881
 20
79.635471
  0
LINE
  5
81
100
AcDbEntity
  8
0
  6
Continuous
 62
   174
100
AcDbLine
 10
298.640881
 20
79.635471
 30
0.0
 11
309.174529
 21
79.635471
 31
0.0
  0
LINE
  5
82
100
AcDbEntity
  8
0
  6
HIDDEN
 62
   174
100
AcDbLine
 10
214.640881
 20
181.38371
 30
0.0
 11
214.711553
 21
181.50959
 31
0.0
  0
LINE
  5
83
100
AcDbEntity
  8
0
  6
Continuous
 62
   174
100
AcDbLine
 10
303.907705
 20
55.50959
 30
0.0
 11
303.907705
 21
43.50959
 31
0.0
  0
LINE
  5
84
100
AcDbEntity
  8
0
  6
Continuous
 62
   174
100
AcDbLine
 10
255.907705
 20
55.50959
 30
0.0
 11
255.907705
 21
43.50959
 31
0.0
  0
LINE
  5
85
100
AcDbEntity
  8
0
  6
HIDDEN
 62
   174
100
AcDbLine
 10
219.907705
 20
43.50959
 30
0.0
 11
219.907705
 21
55.50959
 31
0.0
  0
CIRCLE
  5
86
100
AcDbEntity
  8
0
  6
Continuous
 62
   174
100
AcDbCircle
 10
315.907705
 20
178.50959
 30
0.0
 40
6.0
  0
LINE
  5
87
100
AcDbEntity
  8
0
  6
HIDDEN
 62
   174
100
AcDbLine
 10
196.711553
 20
172.50959
 30
0.0
 11
201.907705
 21
163.50959
 31
0.0
  0
LINE
  5
88
100
AcDbEntity
  8
0
  6
HIDDEN
 62
   174
100
AcDbLine
 10
433.928059
 20
79.50959
 30
0.0
 11
438.907705
 21
70.88459
 31
0.0
  0
LINE
  5
89
100
AcDbEntity
  8
0
  6
HIDDEN
 62
   174
100
AcDbLine
 10
213.118119
 20
79.50959
 30
0.0
 11
250.692094
 21
79.50959
 31
0.0
  0
LINE
  5
8A
100
AcDbEntity
  8
0
  6
HIDDEN
 62
   174
100
AcDbLine
 10
358.697291
 20
181.50959
 30
0.0
 11
321.123316
 21
181.50959
 31
0.0
  0
CIRCLE
  5
8B
100
AcDbEntity
  8
0
  6
Continuous
 62
   174
100
AcDbCircle
 10
327.907705
 20
166.50959
 30
0.0
 40
3.075
  0
CIRCLE
  5
8C
100
AcDbEntity
  8
0
  6
Continuous
 62
   174
100
AcDbCircle
 10
165.907705
 20
88.50959
 30
0.0
 40
6.75
  0
LWPOLYLINE
  5
8D
100
AcDbEntity
  8
0
  6
HIDDEN
 62
   174
100
AcDbPolyline
 90
        3
 70
   128
 10
394.711553
 20
79.50959
 10
394.699158
 20
79.531162
 10
394.640881
 20
79.635471
  0
LINE
  5
8E
100
AcDbEntity
  8
0
  6
Continuous
 62
   174
100
AcDbLine
 10
250.640881
 20
79.635471
 30
0.0
 11
261.174529
 21
79.635471
 31
0.0
  0
LINE
  5
8F
100
AcDbEntity
  8
0
  6
Continuous
 62
   174
100
AcDbLine
 10
346.640881
 20
79.635471
 30
0.0
 11
357.174529
 21
79.635471
 31
0.0
  0
LWPOLYLINE
  5
90
100
AcDbEntity
  8
0
  6
HIDDEN
 62
   174
100
AcDbPolyline
 90
        3
 70
   128
 10
369.103857
 20
181.50959
 10
369.116253
 20
181.488018
 10
369.174529
 20
181.38371
  0
LINE
  5
91
100
AcDbEntity
  8
0
  6
Continuous
 62
   174
100
AcDbLine
 10
351.907705
 20
55.50959
 30
0.0
 11
351.907705
 21
43.50959
 31
0.0
  0
LINE
  5
92
100
AcDbEntity
  8
0
  6
Continuous
 62
   174
100
AcDbLine
 10
435.907705
 20
43.50959
 30
0.0
 11
435.907705
 21
55.50959
 31
0.0
  0
LINE
  5
93
100
AcDbEntity
  8
0
  6
HIDDEN
 62
   174
100
AcDbLine
 10
433.928059
 20
163.50959
 30
0.0
 11
438.907705
 21
154.88459
 31
0.0
  0
LINE
  5
94
100
AcDbEntity
  8
0
  6
HIDDEN
 62
   174
100
AcDbLine
 10
433.928059
 20
97.50959
 30
0.0
 11
201.907705
 21
97.50959
 31
0.0
  0
LINE
  5
95
100
AcDbEntity
  8
0
  6
HIDDEN
 62
   174
100
AcDbLine
 10
433.928059
 20
181.50959
 30
0.0
 11
417.123316
 21
181.50959
 31
0.0
  0
CIRCLE
  5
96
100
AcDbEntity
  8
0
  6
Continuous
 62
   174
100
AcDbCircle
 10
231.907705
 20
166.50959
 30
0.0
 40
3.075
  0
LINE
  5
97
100
AcDbEntity
  8
0
  6
Continuous
 62
   174
100
AcDbLine
 10
477.907705
 20
205.50959
 30
0.0
 11
141.907705
 21
205.50959
 31
0.0
  0
LWPOLYLINE
  5
98
100
AcDbEntity
  8
0
  6
HIDDEN
 62
   174
100
AcDbPolyline
 90
        3
 70
   128
 10
298.711553
 20
79.50959
 10
298.699158
 20
79.531162
 10
298.640881
 20
79.635471
  0
LINE
  5
99
100
AcDbEntity
  8
0
  6
Continuous
 62
   174
100
AcDbLine
 10
417.174529
 20
181.38371
 30
0.0
 11
406.640881
 21
181.38371
 31
0.0
  0
LINE
  5
9A
100
AcDbEntity
  8
0
  6
HIDDEN
 62
   174
100
AcDbLine
 10
310.640881
 20
181.38371
 30
0.0
 11
310.711553
 21
181.50959
 31
0.0
  0
LINE
  5
9B
100
AcDbEntity
  8
0
  6
Continuous
 62
   174
100
AcDbLine
 10
243.907705
 20
43.50959
 30
0.0
 11
243.907705
 21
55.50959
 31
0.0
  0
CIRCLE
  5
9C
100
AcDbEntity
  8
0
  6
Continuous
 62
   174
100
AcDbCircle
 10
219.907705
 20
178.50959
 30
0.0
 40
6.0
  0
LINE
  5
9D
100
AcDbEntity
  8
0
  6
Continuous
 62
   174
100
AcDbLine
 10
255.944234
 20
39.60959
 30
0.0
 11
291.944232
 21
39.60959
 31
0.0
  0
CIRCLE
  5
9E
100
AcDbEntity
  8
0
  6
Continuous
 62
   174
100
AcDbCircle
 10
249.907705
 20
154.50959
 30
0.0
 40
6.0
  0
CIRCLE
  5
9F
100
AcDbEntity
  8
0
  6
Continuous
 62
   174
100
AcDbCircle
 10
309.907705
 20
130.50959
 30
0.0
 40
6.0
  0
LINE
  5
A0
100
AcDbEntity
  8
0
  6
Continuous
 62
   174
100
AcDbLine
 10
255.907705
 20
39.60959
 30
0.0
 11
255.907705
 21
34.50959
 31
0.0
  0
LINE
  5
A1
100
AcDbEntity
  8
0
  6
Continuous
 62
   174
100
AcDbLine
 10
261.907705
 20
43.50959
 30
0.0
 11
261.907705
 21
39.60959
 31
0.0
  0
LINE
  5
A2
100
AcDbEntity
  8
0
  6
HIDDEN
 62
   174
100
AcDbLine
 10
180.907705
 20
112.88459
 30
0.0
 11
185.887351
 21
121.50959
 31
0.0
  0
CIRCLE
  5
A3
100
AcDbEntity
  8
0
  6
Continuous
 62
   174
100
AcDbCircle
 10
225.907705
 20
106.50959
 30
0.0
 40
6.0
  0
LINE
  5
A4
100
AcDbEntity
  8
0
  6
HIDDEN
 62
   174
100
AcDbLine
 10
477.907705
 20
108.24959
 30
0.0
 11
444.907705
 21
108.24959
 31
0.0
  0
LINE
  5
A5
100
AcDbEntity
  8
0
  6
HIDDEN
 62
   174
100
AcDbLine
 10
282.907705
 20
43.50959
 30
0.0
 11
282.907705
 21
55.50959
 31
0.0
  0
LINE
  5
A6
100
AcDbEntity
  8
0
  6
Continuous
 62
   174
100
AcDbLine
 10
207.944237
 20
34.50959
 30
0.0
 11
243.944235
 21
34.50959
 31
0.0
  0
CIRCLE
  5
A7
100
AcDbEntity
  8
0
  6
Continuous
 62
   174
100
AcDbCircle
 10
201.907705
 20
154.50959
 30
0.0
 40
6.0
  0
LINE
  5
A8
100
AcDbEntity
  8
0
  6
HIDDEN
 62
   174
100
AcDbLine
 10
185.887351
 20
139.50959
 30
0.0
 11
180.907705
 21
148.13459
 31
0.0
  0
LINE
  5
A9
100
AcDbEntity
  8
0
  6
HIDDEN
 62
   174
100
AcDbLine
 10
264.907705
 20
55.50959
 30
0.0
 11
264.907705
 21
43.50959
 31
0.0
  0
LINE
  5
AA
100
AcDbEntity
  8
0
  6
Continuous
 62
   174
100
AcDbLine
 10
333.907705
 20
39.60959
 30
0.0
 11
333.907705
 21
43.50959
 31
0.0
  0
LINE
  5
AB
100
AcDbEntity
  8
0
  6
Continuous
 62
   174
100
AcDbLine
 10
303.943806
 20
39.60959
 30
0.0
 11
339.943804
 21
39.60959
 31
0.0
  0
LINE
  5
AC
100
AcDbEntity
  8
0
  6
HIDDEN
 62
   174
100
AcDbLine
 10
444.907705
 20
68.76959
 30
0.0
 11
477.907705
 21
68.76959
 31
0.0
  0
LINE
  5
AD
100
AcDbEntity
  8
0
  6
Continuous
 62
   174
100
AcDbLine
 10
399.9438
 20
43.50959
 30
0.0
 11
417.944012
 21
43.50959
 31
0.0
  0
LINE
  5
AE
100
AcDbEntity
  8
0
  6
Continuous
 62
   174
100
AcDbLine
 10
183.907705
 20
55.50959
 30
0.0
 11
183.907705
 21
43.50959
 31
0.0
  0
CIRCLE
  5
AF
100
AcDbEntity
  8
0
  6
Continuous
 62
   174
100
AcDbCircle
 10
321.907705
 20
106.50959
 30
0.0
 40
6.0
  0
ARC
  5
B0
100
AcDbEntity
  8
0
  6
Continuous
 62
   174
100
AcDbCircle
 10
231.907705
 20
166.50959
 30
0.0
 40
3.75
100
AcDbArc
 50
-15.0
 51
285.0
  0
ARC
  5
B1
100
AcDbEntity
  8
0
  6
Continuous
 62
   174
100
AcDbCircle
 10
423.907705
 20
166.50959
 30
0.0
 40
3.75
100
AcDbArc
 50
-15.0
 51
285.0
  0
LINE
  5
B2
100
AcDbEntity
  8
0
  6
Continuous
 62
   174
100
AcDbLine
 10
309.907705
 20
43.50959
 30
0.0
 11
309.907705
 21
39.60959
 31
0.0
  0
LINE
  5
B3
100
AcDbEntity
  8
0
  6
HIDDEN
 62
   174
100
AcDbLine
 10
444.907705
 20
68.768588
 30
0.0
 11
444.907705
 21
108.248105
 31
0.0
  0
LINE
  5
B4
100
AcDbEntity
  8
0
  6
HIDDEN
 62
   174
100
AcDbLine
 10
330.907705
 20
43.50959
 30
0.0
 11
330.907705
 21
55.50959
 31
0.0
  0
LINE
  5
B5
100
AcDbEntity
  8
0
  6
Continuous
 62
   174
100
AcDbLine
 10
339.907705
 20
34.50959
 30
0.0
 11
339.907705
 21
39.60959
 31
0.0
  0
LINE
  5
B6
100
AcDbEntity
  8
0
  6
HIDDEN
 62
   174
100
AcDbLine
 10
141.907705
 20
110.76959
 30
0.0
 11
174.907705
 21
110.76959
 31
0.0
  0
LINE
  5
B7
100
AcDbEntity
  8
0
  6
Continuous
 62
   174
100
AcDbLine
 10
255.944234
 20
34.50959
 30
0.0
 11
291.944232
 21
34.50959
 31
0.0
  0
CIRCLE
  5
B8
100
AcDbEntity
  8
0
  6
Continuous
 62
   174
100
AcDbCircle
 10
357.907705
 20
130.50959
 30
0.0
 40
6.0
  0
LINE
  5
B9
100
AcDbEntity
  8
0
  6
Continuous
 62
   174
100
AcDbLine
 10
351.943803
 20
39.60959
 30
0.0
 11
387.943801
 21
39.60959
 31
0.0
  0
LINE
  5
BA
100
AcDbEntity
  8
0
  6
Continuous
 62
   174
100
AcDbLine
 10
225.944023
 20
43.50959
 30
0.0
 11
243.944235
 21
43.50959
 31
0.0
  0
LINE
  5
BB
100
AcDbEntity
  8
0
  6
HIDDEN
 62
   174
100
AcDbLine
 10
312.907705
 20
55.50959
 30
0.0
 11
312.907705
 21
43.50959
 31
0.0
  0
LINE
  5
BC
100
AcDbEntity
  8
0
  6
Continuous
 62
   174
100
AcDbLine
 10
381.907705
 20
39.60959
 30
0.0
 11
381.907705
 21
43.50959
 31
0.0
  0
LINE
  5
BD
100
AcDbEntity
  8
0
  6
Continuous
 62
   174
100
AcDbLine
 10
303.907705
 20
39.60959
 30
0.0
 11
303.907705
 21
34.50959
 31
0.0
  0
LINE
  5
BE
100
AcDbEntity
  8
0
  6
HIDDEN
 62
   174
100
AcDbLine
 10
174.907705
 20
150.24959
 30
0.0
 11
141.907705
 21
150.24959
 31
0.0
  0
CIRCLE
  5
BF
100
AcDbEntity
  8
0
  6
Continuous
 62
   174
100
AcDbCircle
 10
345.907705
 20
154.50959
 30
0.0
 40
6.0
  0
LINE
  5
C0
100
AcDbEntity
  8
0
  6
HIDDEN
 62
   174
100
AcDbLine
 10
411.907705
 20
139.50959
 30
0.0
 11
185.887351
 21
139.50959
 31
0.0
  0
LINE
  5
C1
100
AcDbEntity
  8
0
  6
HIDDEN
 62
   174
100
AcDbLine
 10
210.907705
 20
43.50959
 30
0.0
 11
210.907705
 21
55.50959
 31
0.0
  0
ARC
  5
C2
100
AcDbEntity
  8
0
  6
Continuous
 62
   174
100
AcDbCircle
 10
279.907705
 20
166.50959
 30
0.0
 40
3.75
100
AcDbArc
 50
-15.0
 51
285.0
  0
LINE
  5
C3
100
AcDbEntity
  8
0
  6
Continuous
 62
   174
100
AcDbLine
 10
357.907705
 20
43.50959
 30
0.0
 11
357.907705
 21
39.60959
 31
0.0
  0
LINE
  5
C4
100
AcDbEntity
  8
0
  6
Continuous
 62
   174
100
AcDbLine
 10
303.943806
 20
34.50959
 30
0.0
 11
339.943804
 21
34.50959
 31
0.0
  0
LINE
  5
C5
100
AcDbEntity
  8
0
  6
HIDDEN
 62
   174
100
AcDbLine
 10
378.907705
 20
43.50959
 30
0.0
 11
378.907705
 21
55.50959
 31
0.0
  0
LINE
  5
C6
100
AcDbEntity
  8
0
  6
Continuous
 62
   174
100
AcDbLine
 10
387.907705
 20
34.50959
 30
0.0
 11
387.907705
 21
39.60959
 31
0.0
  0
LINE
  5
C7
100
AcDbEntity
  8
0
  6
HIDDEN
 62
   174
100
AcDbLine
 10
174.907705
 20
150.247464
 30
0.0
 11
174.907705
 21
110.767947
 31
0.0
  0
LINE
  5
C8
100
AcDbEntity
  8
0
  6
Continuous
 62
   174
100
AcDbLine
 10
201.944025
 20
43.50959
 30
0.0
 11
207.944237
 21
43.50959
 31
0.0
  0
LINE
  5
C9
100
AcDbEntity
  8
0
  6
HIDDEN
 62
   174
100
AcDbLine
 10
438.907705
 20
70.88459
 30
0.0
 11
477.907705
 21
70.88459
 31
0.0
  0
LINE
  5
CA
100
AcDbEntity
  8
0
  6
HIDDEN
 62
   174
100
AcDbLine
 10
185.887351
 20
121.50959
 30
0.0
 11
411.907705
 21
121.50959
 31
0.0
  0
LINE
  5
CB
100
AcDbEntity
  8
0
  6
Continuous
 62
   174
100
AcDbLine
 10
207.944237
 20
43.50959
 30
0.0
 11
225.944023
 21
43.50959
 31
0.0
  0
LINE
  5
CC
100
AcDbEntity
  8
0
  6
HIDDEN
 62
   174
100
AcDbLine
 10
360.907705
 20
55.50959
 30
0.0
 11
360.907705
 21
43.50959
 31
0.0
  0
CIRCLE
  5
CD
100
AcDbEntity
  8
0
  6
Continuous
 62
   174
100
AcDbCircle
 10
351.907705
 20
82.50959
 30
0.0
 40
6.0
  0
LINE
  5
CE
100
AcDbEntity
  8
0
  6
Continuous
 62
   174
100
AcDbLine
 10
351.907705
 20
39.60959
 30
0.0
 11
351.907705
 21
34.50959
 31
0.0
  0
LINE
  5
CF
100
AcDbEntity
  8
0
  6
Continuous
 62
   174
100
AcDbLine
 10
369.944015
 20
43.50959
 30
0.0
 11
387.943801
 21
43.50959
 31
0.0
  0
LINE
  5
D0
100
AcDbEntity
  8
0
  6
HIDDEN
 62
   174
100
AcDbLine
 10
411.907705
 20
121.50959
 30
0.0
 11
417.103857
 21
130.50959
 31
0.0
  0
CIRCLE
  5
D1
100
AcDbEntity
  8
0
  6
Continuous
 62
   174
100
AcDbCircle
 10
207.907705
 20
82.50959
 30
0.0
 40
6.0
  0
LINE
  5
D2
100
AcDbEntity
  8
0
  6
Continuous
 62
   174
100
AcDbLine
 10
351.943803
 20
34.50959
 30
0.0
 11
387.943801
 21
34.50959
 31
0.0
  0
CIRCLE
  5
D3
100
AcDbEntity
  8
0
  6
Continuous
 62
   174
100
AcDbCircle
 10
267.907705
 20
178.50959
 30
0.0
 40
6.0
  0
LINE
  5
D4
100
AcDbEntity
  8
0
  6
HIDDEN
 62
   174
100
AcDbLine
 10
438.907705
 20
154.88459
 30
0.0
 11
477.907705
 21
154.88459
 31
0.0
  0
LINE
  5
D5
100
AcDbEntity
  8
0
  6
HIDDEN
 62
   174
100
AcDbLine
 10
180.907705
 20
148.13459
 30
0.0
 11
141.907705
 21
148.13459
 31
0.0
  0
ARC
  5
D6
100
AcDbEntity
  8
0
  6
Continuous
 62
   174
100
AcDbCircle
 10
375.907705
 20
166.50959
 30
0.0
 40
3.75
100
AcDbArc
 50
-15.0
 51
285.0
  0
LINE
  5
D7
100
AcDbEntity
  8
0
  6
Continuous
 62
   174
100
AcDbLine
 10
183.944238
 20
43.50959
 30
0.0
 11
201.944025
 21
43.50959
 31
0.0
  0
ARC
  5
D8
100
AcDbEntity
  8
0
  6
Continuous
 62
   174
100
AcDbCircle
 10
327.907705
 20
166.50959
 30
0.0
 40
3.75
100
AcDbArc
 50
-15.0
 51
285.0
  0
LINE
  5
D9
100
AcDbEntity
  8
0
  6
Continuous
 62
   174
100
AcDbLine
 10
273.94402
 20
43.50959
 30
0.0
 11
291.944232
 21
43.50959
 31
0.0
  0
LINE
  5
DA
100
AcDbEntity
  8
0
  6
HIDDEN
 62
   174
100
AcDbLine
 10
417.103857
 20
130.50959
 30
0.0
 11
411.907705
 21
139.50959
 31
0.0
  0
LINE
  5
DB
100
AcDbEntity
  8
0
  6
HIDDEN
 62
   174
100
AcDbLine
 10
185.887351
 20
121.507813
 30
0.0
 11
185.887351
 21
139.507599
 31
0.0
  0
LINE
  5
DC
100
AcDbEntity
  8
0
  6
HIDDEN
 62
   174
100
AcDbLine
 10
219.907705
 20
34.50959
 30
0.0
 11
219.907705
 21
39.60959
 31
0.0
  0
LINE
  5
DD
100
AcDbEntity
  8
0
  6
HIDDEN
 62
   174
100
AcDbLine
 10
141.907705
 20
112.88459
 30
0.0
 11
180.907705
 21
112.88459
 31
0.0
  0
LINE
  5
DE
100
AcDbEntity
  8
0
  6
HIDDEN
 62
   174
100
AcDbLine
 10
477.907705
 20
190.13459
 30
0.0
 11
438.907705
 21
190.13459
 31
0.0
  0
LINE
  5
DF
100
AcDbEntity
  8
0
  6
Continuous
 62
   174
100
AcDbLine
 10
351.943803
 20
43.50959
 30
0.0
 11
369.944015
 21
43.50959
 31
0.0
  0
CIRCLE
  5
E0
100
AcDbEntity
  8
0
  6
Continuous
 62
   174
100
AcDbCircle
 10
399.907705
 20
82.50959
 30
0.0
 40
6.0
  0
LINE
  5
E1
100
AcDbEntity
  8
0
  6
HIDDEN
 62
   174
100
AcDbLine
 10
438.907705
 20
106.132987
 30
0.0
 11
438.907705
 21
70.883707
 31
0.0
  0
LINE
  5
E2
100
AcDbEntity
  8
0
  6
Continuous
 62
   174
100
AcDbLine
 10
183.907705
 20
39.60959
 30
0.0
 11
183.907705
 21
34.50959
 31
0.0
  0
LINE
  5
E3
100
AcDbEntity
  8
0
  6
Continuous
 62
   174
100
AcDbLine
 10
189.907705
 20
43.50959
 30
0.0
 11
189.907705
 21
39.60959
 31
0.0
  0
LINE
  5
E4
100
AcDbEntity
  8
0
  6
HIDDEN
 62
   174
100
AcDbLine
 10
477.907705
 20
192.24959
 30
0.0
 11
444.907705
 21
192.24959
 31
0.0
  0
LINE
  5
E5
100
AcDbEntity
  8
0
  6
Continuous
 62
   174
100
AcDbLine
 10
417.944012
 20
43.50959
 30
0.0
 11
435.943798
 21
43.50959
 31
0.0
  0
LINE
  5
E6
100
AcDbEntity
  8
0
  6
Continuous
 62
   174
100
AcDbLine
 10
183.944238
 20
39.60959
 30
0.0
 11
207.944237
 21
39.60959
 31
0.0
  0
LINE
  5
E7
100
AcDbEntity
  8
0
  6
Continuous
 62
   174
100
AcDbLine
 10
255.944234
 20
43.50959
 30
0.0
 11
273.94402
 21
43.50959
 31
0.0
  0
CIRCLE
  5
E8
100
AcDbEntity
  8
0
  6
Continuous
 62
   174
100
AcDbCircle
 10
297.907705
 20
154.50959
 30
0.0
 40
6.0
  0
LINE
  5
E9
100
AcDbEntity
  8
0
  6
Continuous
 62
   174
100
AcDbLine
 10
435.907705
 20
34.50959
 30
0.0
 11
435.907705
 21
39.60959
 31
0.0
  0
LINE
  5
EA
100
AcDbEntity
  8
0
  6
Continuous
 62
   174
100
AcDbLine
 10
429.907705
 20
39.60959
 30
0.0
 11
429.907705
 21
43.50959
 31
0.0
  0
LINE
  5
EB
100
AcDbEntity
  8
0
  6
HIDDEN
 62
   174
100
AcDbLine
 10
444.907705
 20
152.76959
 30
0.0
 11
477.907705
 21
152.76959
 31
0.0
  0
LINE
  5
EC
100
AcDbEntity
  8
0
  6
HIDDEN
 62
   174
100
AcDbLine
 10
192.907705
 20
55.50959
 30
0.0
 11
192.907705
 21
43.50959
 31
0.0
  0
LINE
  5
ED
100
AcDbEntity
  8
0
  6
HIDDEN
 62
   174
100
AcDbLine
 10
438.907705
 20
190.131705
 30
0.0
 11
438.907705
 21
154.882425
 31
0.0
  0
CIRCLE
  5
EE
100
AcDbEntity
  8
0
  6
Continuous
 62
   174
100
AcDbCircle
 10
255.907705
 20
82.50959
 30
0.0
 40
6.0
  0
CIRCLE
  5
EF
100
AcDbEntity
  8
0
  6
Continuous
 62
   174
100
AcDbCircle
 10
417.907705
 20
106.50959
 30
0.0
 40
6.0
  0
LINE
  5
F0
100
AcDbEntity
  8
0
  6
Continuous
 62
   174
100
AcDbLine
 10
399.907705
 20
39.60959
 30
0.0
 11
399.907705
 21
34.50959
 31
0.0
  0
LINE
  5
F1
100
AcDbEntity
  8
0
  6
Continuous
 62
   174
100
AcDbLine
 10
405.907705
 20
43.50959
 30
0.0
 11
405.907705
 21
39.60959
 31
0.0
  0
LINE
  5
F2
100
AcDbEntity
  8
0
  6
HIDDEN
 62
   174
100
AcDbLine
 10
444.907705
 20
152.767307
 30
0.0
 11
444.907705
 21
192.246823
 31
0.0
  0
LINE
  5
F3
100
AcDbEntity
  8
0
  6
Continuous
 62
   174
100
AcDbLine
 10
399.9438
 20
39.60959
 30
0.0
 11
435.943798
 21
39.60959
 31
0.0
  0
LINE
  5
F4
100
AcDbEntity
  8
0
  6
Continuous
 62
   174
100
AcDbLine
 10
321.944017
 20
43.50959
 30
0.0
 11
339.943804
 21
43.50959
 31
0.0
  0
CIRCLE
  5
F5
100
AcDbEntity
  8
0
  6
Continuous
 62
   174
100
AcDbCircle
 10
405.907705
 20
130.50959
 30
0.0
 40
6.0
  0
LINE
  5
F6
100
AcDbEntity
  8
0
  6
HIDDEN
 62
   174
100
AcDbLine
 10
426.907705
 20
43.50959
 30
0.0
 11
426.907705
 21
55.50959
 31
0.0
  0
LINE
  5
F7
100
AcDbEntity
  8
0
  6
HIDDEN
 62
   174
100
AcDbLine
 10
411.907705
 20
130.507493
 30
0.0
 11
411.907705
 21
139.507599
 31
0.0
  0
CIRCLE
  5
F8
100
AcDbEntity
  8
0
  6
Continuous
 62
   174
100
AcDbCircle
 10
369.907705
 20
106.50959
 30
0.0
 40
6.0
  0
LINE
  5
F9
100
AcDbEntity
  8
0
  6
Continuous
 62
   174
100
AcDbLine
 10
243.907705
 20
34.50959
 30
0.0
 11
243.907705
 21
39.60959
 31
0.0
  0
LINE
  5
FA
100
AcDbEntity
  8
0
  6
Continuous
 62
   174
100
AcDbLine
 10
237.907705
 20
39.60959
 30
0.0
 11
237.907705
 21
43.50959
 31
0.0
  0
LINE
  5
FB
100
AcDbEntity
  8
0
  6
Continuous
 62
   174
100
AcDbLine
 10
183.944238
 20
34.50959
 30
0.0
 11
207.944237
 21
34.50959
 31
0.0
  0
LINE
  5
FC
100
AcDbEntity
  8
0
  6
HIDDEN
 62
   174
100
AcDbLine
 10
408.907705
 20
55.50959
 30
0.0
 11
408.907705
 21
43.50959
 31
0.0
  0
LINE
  5
FD
100
AcDbEntity
  8
0
  6
HIDDEN
 62
   174
100
AcDbLine
 10
180.907705
 20
112.883066
 30
0.0
 11
180.907705
 21
148.132346
 31
0.0
  0
LINE
  5
FE
100
AcDbEntity
  8
0
  6
Continuous
 62
   174
100
AcDbLine
 10
207.944237
 20
39.60959
 30
0.0
 11
243.944235
 21
39.60959
 31
0.0
  0
LINE
  5
FF
100
AcDbEntity
  8
0
  6
Continuous
 62
   174
100
AcDbLine
 10
303.943806
 20
43.50959
 30
0.0
 11
321.944017
 21
43.50959
 31
0.0
  0
LINE
  5
100
100
AcDbEntity
  8
0
  6
Continuous
 62
   174
100
AcDbLine
 10
207.907705
 20
39.60959
 30
0.0
 11
207.907705
 21
34.50959
 31
0.0
  0
LINE
  5
101
100
AcDbEntity
  8
0
  6
Continuous
 62
   174
100
AcDbLine
 10
213.907705
 20
43.50959
 30
0.0
 11
213.907705
 21
39.60959
 31
0.0
  0
CIRCLE
  5
102
100
AcDbEntity
  8
0
  6
Continuous
 62
   174
100
AcDbCircle
 10
393.907705
 20
154.50959
 30
0.0
 40
6.0
  0
LINE
  5
103
100
AcDbEntity
  8
0
  6
HIDDEN
 62
   174
100
AcDbLine
 10
411.907705
 20
121.507813
 30
0.0
 11
411.907705
 21
130.507493
 31
0.0
  0
LINE
  5
104
100
AcDbEntity
  8
0
  6
HIDDEN
 62
   174
100
AcDbLine
 10
234.907705
 20
43.50959
 30
0.0
 11
234.907705
 21
55.50959
 31
0.0
  0
LINE
  5
105
100
AcDbEntity
  8
0
  6
Continuous
 62
   174
100
AcDbLine
 10
399.9438
 20
34.50959
 30
0.0
 11
435.943798
 21
34.50959
 31
0.0
  0
CIRCLE
  5
106
100
AcDbEntity
  8
0
  6
Continuous
 62
   174
100
AcDbCircle
 10
213.907705
 20
130.50959
 30
0.0
 40
6.0
  0
LINE
  5
107
100
AcDbEntity
  8
0
  6
Continuous
 62
   174
100
AcDbLine
 10
291.907705
 20
34.50959
 30
0.0
 11
291.907705
 21
39.60959
 31
0.0
  0
LINE
  5
108
100
AcDbEntity
  8
0
  6
Continuous
 62
   174
100
AcDbLine
 10
285.907705
 20
39.60959
 30
0.0
 11
285.907705
 21
43.50959
 31
0.0
  0
LINE
  5
109
100
AcDbEntity
  8
0
  6
HIDDEN
 62
   174
100
AcDbLine
 10
216.907705
 20
55.50959
 30
0.0
 11
216.907705
 21
43.50959
 31
0.0
  0
LINE
  5
10A
100
AcDbEntity
  8
0
  6
HIDDEN
 62
   174
100
AcDbLine
 10
477.907705
 20
106.13459
 30
0.0
 11
438.907705
 21
106.13459
 31
0.0
  0
ENDBLK
  5
10B
100
AcDbEntity
  8
0
100
AcDbBlockEnd
  0
BLOCK
  5
10E
100
AcDbEntity
  8
0
100
AcDbBlockBegin
  2
*B2
 70
     0
 10
0.0
 20
0.0
 30
0.0
  3
*B2
  1

  0
CIRCLE
  5
10F
100
AcDbEntity
  8
0
  6
Continuous
 62
   174
100
AcDbCircle
 10
369.516999
 20
302.390496
 30
0.0
 40
9.0
  0
CIRCLE
  5
110
100
AcDbEntity
  8
0
  6
Continuous
 62
   174
100
AcDbCircle
 10
321.516999
 20
302.390496
 30
0.0
 40
9.0
  0
CIRCLE
  5
111
100
AcDbEntity
  8
0
  6
Continuous
 62
   174
100
AcDbCircle
 10
273.516999
 20
302.390496
 30
0.0
 40
9.0
  0
CIRCLE
  5
112
100
AcDbEntity
  8
0
  6
Continuous
 62
   174
100
AcDbCircle
 10
225.516999
 20
302.390496
 30
0.0
 40
9.0
  0
CIRCLE
  5
113
100
AcDbEntity
  8
0
  6
Continuous
 62
   174
100
AcDbCircle
 10
393.516999
 20
266.390496
 30
0.0
 40
9.0
  0
CIRCLE
  5
114
100
AcDbEntity
  8
0
  6
Continuous
 62
   174
100
AcDbCircle
 10
345.516999
 20
266.390496
 30
0.0
 40
9.0
  0
CIRCLE
  5
115
100
AcDbEntity
  8
0
  6
Continuous
 62
   174
100
AcDbCircle
 10
297.516999
 20
266.390496
 30
0.0
 40
9.0
  0
CIRCLE
  5
116
100
AcDbEntity
  8
0
  6
Continuous
 62
   174
100
AcDbCircle
 10
417.516999
 20
302.390496
 30
0.0
 40
9.0
  0
CIRCLE
  5
117
100
AcDbEntity
  8
0
  6
Continuous
 62
   174
100
AcDbCircle
 10
249.516999
 20
266.390496
 30
0.0
 40
9.0
  0
CIRCLE
  5
118
100
AcDbEntity
  8
0
  6
Continuous
 62
   174
100
AcDbCircle
 10
201.516999
 20
266.390496
 30
0.0
 40
9.0
  0
LINE
  5
119
100
AcDbEntity
  8
0
  6
Continuous
 62
   174
100
AcDbLine
 10
141.516999
 20
321.890496
 30
0.0
 11
141.516999
 21
246.890496
 31
0.0
  0
LINE
  5
11A
100
AcDbEntity
  8
0
  6
Continuous
 62
   174
100
AcDbLine
 10
477.516999
 20
321.890496
 30
0.0
 11
477.516999
 21
246.890496
 31
0.0
  0
LINE
  5
11B
100
AcDbEntity
  8
0
  6
Continuous
 62
   174
100
AcDbLine
 10
141.516999
 20
321.890496
 30
0.0
 11
477.516999
 21
321.890496
 31
0.0
  0
CIRCLE
  5
11C
100
AcDbEntity
  8
0
  6
Continuous
 62
   174
100
AcDbCircle
 10
225.516999
 20
302.390496
 30
0.0
 40
18.0
  0
CIRCLE
  5
11D
100
AcDbEntity
  8
0
  6
Continuous
 62
   174
100
AcDbCircle
 10
321.516999
 20
302.390496
 30
0.0
 40
18.0
  0
CIRCLE
  5
11E
100
AcDbEntity
  8
0
  6
Continuous
 62
   174
100
AcDbCircle
 10
249.516999
 20
266.390496
 30
0.0
 40
18.0
  0
CIRCLE
  5
11F
100
AcDbEntity
  8
0
  6
Continuous
 62
   174
100
AcDbCircle
 10
297.516999
 20
266.390496
 30
0.0
 40
18.0
  0
CIRCLE
  5
120
100
AcDbEntity
  8
0
  6
Continuous
 62
   174
100
AcDbCircle
 10
393.516999
 20
266.390496
 30
0.0
 40
18.0
  0
LINE
  5
121
100
AcDbEntity
  8
0
  6
Continuous
 62
   174
100
AcDbLine
 10
141.516999
 20
246.890496
 30
0.0
 11
477.516999
 21
246.890496
 31
0.0
  0
CIRCLE
  5
122
100
AcDbEntity
  8
0
  6
Continuous
 62
   174
100
AcDbCircle
 10
273.516999
 20
302.390496
 30
0.0
 40
18.0
  0
CIRCLE
  5
123
100
AcDbEntity
  8
0
  6
Continuous
 62
   174
100
AcDbCircle
 10
369.516999
 20
302.390496
 30
0.0
 40
18.0
  0
CIRCLE
  5
124
100
AcDbEntity
  8
0
  6
Continuous
 62
   174
100
AcDbCircle
 10
201.516999
 20
266.390496
 30
0.0
 40
18.0
  0
CIRCLE
  5
125
100
AcDbEntity
  8
0
  6
Continuous
 62
   174
100
AcDbCircle
 10
417.516999
 20
302.390496
 30
0.0
 40
18.0
  0
CIRCLE
  5
126
100
AcDbEntity
  8
0
  6
Continuous
 62
   174
100
AcDbCircle
 10
345.516999
 20
266.390496
 30
0.0
 40
18.0
  0
ENDBLK
  5
127
100
AcDbEntity
  8
0
100
AcDbBlockEnd
  0
BLOCK
  5
12A
100
AcDbEntity
  8
0
100
AcDbBlockBegin
  2
*B3
 70
     0
 10
0.0
 20
0.0
 30
0.0
  3
*B3
  1

  0
LINE
  5
12B
100
AcDbEntity
  8
0
  6
HIDDEN
 62
   174
100
AcDbLine
 10
262.627072
 20
321.888354
 30
0.0
 11
238.627074
 21
321.888354
 31
0.0
  0
LINE
  5
12C
100
AcDbEntity
  8
0
  6
HIDDEN
 62
   174
100
AcDbLine
 10
286.627071
 20
321.888354
 30
0.0
 11
262.627072
 21
321.888354
 31
0.0
  0
LINE
  5
12D
100
AcDbEntity
  8
0
  6
HIDDEN
 62
   174
100
AcDbLine
 10
334.590705
 20
321.888354
 30
0.0
 11
334.590705
 21
387.888354
 31
0.0
  0
LINE
  5
12E
100
AcDbEntity
  8
0
  6
HIDDEN
 62
   174
100
AcDbLine
 10
286.590705
 20
387.888354
 30
0.0
 11
286.590705
 21
321.888354
 31
0.0
  0
LINE
  5
12F
100
AcDbEntity
  8
0
  6
HIDDEN
 62
   174
100
AcDbLine
 10
310.627069
 20
387.888354
 30
0.0
 11
286.627071
 21
387.888354
 31
0.0
  0
LINE
  5
130
100
AcDbEntity
  8
0
  6
HIDDEN
 62
   174
100
AcDbLine
 10
334.627068
 20
387.888354
 30
0.0
 11
310.627069
 21
387.888354
 31
0.0
  0
LINE
  5
131
100
AcDbEntity
  8
0
  6
HIDDEN
 62
   174
100
AcDbLine
 10
310.627069
 20
321.888354
 30
0.0
 11
286.627071
 21
321.888354
 31
0.0
  0
LINE
  5
132
100
AcDbEntity
  8
0
  6
HIDDEN
 62
   174
100
AcDbLine
 10
334.627068
 20
321.888354
 30
0.0
 11
310.627069
 21
321.888354
 31
0.0
  0
LINE
  5
133
100
AcDbEntity
  8
0
  6
HIDDEN
 62
   174
100
AcDbLine
 10
382.590705
 20
321.888354
 30
0.0
 11
382.590705
 21
387.888354
 31
0.0
  0
LINE
  5
134
100
AcDbEntity
  8
0
  6
HIDDEN
 62
   174
100
AcDbLine
 10
334.590705
 20
387.888354
 30
0.0
 11
334.590705
 21
321.888354
 31
0.0
  0
LINE
  5
135
100
AcDbEntity
  8
0
  6
HIDDEN
 62
   174
100
AcDbLine
 10
358.627067
 20
387.888354
 30
0.0
 11
334.627068
 21
387.888354
 31
0.0
  0
LINE
  5
136
100
AcDbEntity
  8
0
  6
HIDDEN
 62
   174
100
AcDbLine
 10
382.627065
 20
387.888354
 30
0.0
 11
358.627067
 21
387.888354
 31
0.0
  0
LINE
  5
137
100
AcDbEntity
  8
0
  6
HIDDEN
 62
   174
100
AcDbLine
 10
358.627067
 20
321.888354
 30
0.0
 11
334.627068
 21
321.888354
 31
0.0
  0
LINE
  5
138
100
AcDbEntity
  8
0
  6
HIDDEN
 62
   174
100
AcDbLine
 10
238.627074
 20
321.888354
 30
0.0
 11
214.627075
 21
321.888354
 31
0.0
  0
LINE
  5
139
100
AcDbEntity
  8
0
  6
HIDDEN
 62
   174
100
AcDbLine
 10
262.627072
 20
387.888354
 30
0.0
 11
238.627074
 21
387.888354
 31
0.0
  0
LINE
  5
13A
100
AcDbEntity
  8
0
  6
HIDDEN
 62
   174
100
AcDbLine
 10
286.627071
 20
387.888354
 30
0.0
 11
262.627072
 21
387.888354
 31
0.0
  0
LINE
  5
13B
100
AcDbEntity
  8
0
  6
HIDDEN
 62
   174
100
AcDbLine
 10
430.590705
 20
321.888354
 30
0.0
 11
430.590705
 21
387.888354
 31
0.0
  0
LINE
  5
13C
100
AcDbEntity
  8
0
  6
HIDDEN
 62
   174
100
AcDbLine
 10
190.590705
 20
387.888354
 30
0.0
 11
190.590705
 21
321.888354
 31
0.0
  0
LINE
  5
13D
100
AcDbEntity
  8
0
  6
HIDDEN
 62
   174
100
AcDbLine
 10
382.627065
 20
321.888354
 30
0.0
 11
358.627067
 21
321.888354
 31
0.0
  0
LINE
  5
13E
100
AcDbEntity
  8
0
  6
HIDDEN
 62
   174
100
AcDbLine
 10
238.590705
 20
321.888354
 30
0.0
 11
238.590705
 21
387.888354
 31
0.0
  0
LINE
  5
13F
100
AcDbEntity
  8
0
  6
HIDDEN
 62
   174
100
AcDbLine
 10
238.590705
 20
387.888354
 30
0.0
 11
238.590705
 21
321.888354
 31
0.0
  0
LINE
  5
140
100
AcDbEntity
  8
0
  6
HIDDEN
 62
   174
100
AcDbLine
 10
382.590705
 20
387.888354
 30
0.0
 11
382.590705
 21
321.888354
 31
0.0
  0
LINE
  5
141
100
AcDbEntity
  8
0
  6
HIDDEN
 62
   174
100
AcDbLine
 10
406.627064
 20
387.888354
 30
0.0
 11
382.627065
 21
387.888354
 31
0.0
  0
LINE
  5
142
100
AcDbEntity
  8
0
  6
HIDDEN
 62
   174
100
AcDbLine
 10
430.627062
 20
387.888354
 30
0.0
 11
406.627064
 21
387.888354
 31
0.0
  0
LINE
  5
143
100
AcDbEntity
  8
0
  6
HIDDEN
 62
   174
100
AcDbLine
 10
406.627064
 20
321.888354
 30
0.0
 11
382.627065
 21
321.888354
 31
0.0
  0
LINE
  5
144
100
AcDbEntity
  8
0
  6
HIDDEN
 62
   174
100
AcDbLine
 10
430.627062
 20
321.888354
 30
0.0
 11
406.627064
 21
321.888354
 31
0.0
  0
LINE
  5
145
100
AcDbEntity
  8
0
  6
HIDDEN
 62
   174
100
AcDbLine
 10
214.627075
 20
387.888354
 30
0.0
 11
190.627077
 21
387.888354
 31
0.0
  0
LINE
  5
146
100
AcDbEntity
  8
0
  6
HIDDEN
 62
   174
100
AcDbLine
 10
238.627074
 20
387.888354
 30
0.0
 11
214.627075
 21
387.888354
 31
0.0
  0
LINE
  5
147
100
AcDbEntity
  8
0
  6
HIDDEN
 62
   174
100
AcDbLine
 10
214.627075
 20
321.888354
 30
0.0
 11
190.627077
 21
321.888354
 31
0.0
  0
LINE
  5
148
100
AcDbEntity
  8
0
  6
HIDDEN
 62
   174
100
AcDbLine
 10
286.590705
 20
321.888354
 30
0.0
 11
286.590705
 21
387.888354
 31
0.0
  0
ENDBLK
  5
149
100
AcDbEntity
  8
0
100
AcDbBlockEnd
  0
BLOCK
  5
14C
100
AcDbEntity
  8
0
100
AcDbBlockBegin
  2
*B4
 70
     0
 10
0.0
 20
0.0
 30
0.0
  3
*B4
  1

  0
LINE
  5
14D
100
AcDbEntity
  8
0
  6
Continuous
 62
     0
100
AcDbLine
 10
292.943913
 20
11.999999
 30
0.0
 11
362.71431
 21
11.999999
 31
0.0
  0
SOLID
  5
14E
100
AcDbEntity
  8
0
  6
Continuous
 62
     0
100
AcDbTrace
 10
302.944125
 20
9.999787
 30
0.0
 11
312.943912
 21
11.999999
 31
0.0
 12
302.944125
 22
13.999786
 32
0.0
 13
302.944125
 23
13.999786
 33
0.0
  0
SOLID
  5
14F
100
AcDbEntity
  8
0
  6
Continuous
 62
     0
100
AcDbTrace
 10
340.94391
 20
13.999786
 30
0.0
 11
330.944123
 21
11.999999
 31
0.0
 12
340.94391
 22
9.999787
 32
0.0
 13
340.94391
 23
9.999787
 33
0.0
  0
ENDBLK
  5
150
100
AcDbEntity
  8
0
100
AcDbBlockEnd
  0
BLOCK
  5
153
100
AcDbEntity
  8
0
100
AcDbBlockBegin
  2
*B5
 70
     0
 10
0.0
 20
0.0
 30
0.0
  3
*B5
  1

  0
LINE
  5
154
100
AcDbEntity
  8
0
  6
Continuous
 62
     0
100
AcDbLine
 10
213.944024
 20
219.996582
 30
0.0
 11
141.944028
 21
219.996582
 31
0.0
  0
SOLID
  5
155
100
AcDbEntity
  8
0
  6
Continuous
 62
     0
100
AcDbTrace
 10
203.944237
 20
217.996795
 30
0.0
 11
213.944024
 21
219.996582
 31
0.0
 12
203.944237
 22
221.996795
 32
0.0
 13
203.944237
 23
221.996795
 33
0.0
  0
SOLID
  5
156
100
AcDbEntity
  8
0
  6
Continuous
 62
     0
100
AcDbTrace
 10
151.94424
 20
221.996795
 30
0.0
 11
141.944028
 21
219.996582
 31
0.0
 12
151.94424
 22
217.996795
 32
0.0
 13
151.94424
 23
217.996795
 33
0.0
  0
ENDBLK
  5
157
100
AcDbEntity
  8
0
100
AcDbBlockEnd
  0
BLOCK
  5
15A
100
AcDbEntity
  8
0
100
AcDbBlockBegin
  2
*B6
 70
     0
 10
0.0
 20
0.0
 30
0.0
  3
*B6
  1

  0
LINE
  5
15B
100
AcDbEntity
  8
0
  6
Continuous
 62
     0
100
AcDbLine
 10
261.944021
 20
219.996582
 30
0.0
 11
213.944024
 21
219.996582
 31
0.0
  0
SOLID
  5
15C
100
AcDbEntity
  8
0
  6
Continuous
 62
     0
100
AcDbTrace
 10
251.944234
 20
217.996795
 30
0.0
 11
261.944021
 21
219.996582
 31
0.0
 12
251.944234
 22
221.996795
 32
0.0
 13
251.944234
 23
221.996795
 33
0.0
  0
SOLID
  5
15D
100
AcDbEntity
  8
0
  6
Continuous
 62
     0
100
AcDbTrace
 10
223.944236
 20
221.996795
 30
0.0
 11
213.944024
 21
219.996582
 31
0.0
 12
223.944236
 22
217.996795
 32
0.0
 13
223.944236
 23
217.996795
 33
0.0
  0
ENDBLK
  5
15E
100
AcDbEntity
  8
0
100
AcDbBlockEnd
  0
BLOCK
  5
161
100
AcDbEntity
  8
0
100
AcDbBlockBegin
  2
*B7
 70
     0
 10
0.0
 20
0.0
 30
0.0
  3
*B7
  1

  0
LINE
  5
162
100
AcDbEntity
  8
0
  6
Continuous
 62
     0
100
AcDbLine
 10
116.036593
 20
387.882092
 30
0.0
 11
116.036593
 21
321.883585
 31
0.0
  0
SOLID
  5
163
100
AcDbEntity
  8
0
  6
Continuous
 62
     0
100
AcDbTrace
 10
118.03638
 20
377.882305
 30
0.0
 11
116.036593
 21
387.882092
 31
0.0
 12
114.03638
 22
377.882305
 32
0.0
 13
114.03638
 23
377.882305
 33
0.0
  0
SOLID
  5
164
100
AcDbEntity
  8
0
  6
Continuous
 62
     0
100
AcDbTrace
 10
114.03638
 20
331.883372
 30
0.0
 11
116.036593
 21
321.883585
 31
0.0
 12
118.03638
 22
331.883372
 32
0.0
 13
118.03638
 23
331.883372
 33
0.0
  0
ENDBLK
  5
165
100
AcDbEntity
  8
0
100
AcDbBlockEnd
  0
BLOCK
  5
168
100
AcDbEntity
  8
0
100
AcDbBlockBegin
  2
*B8
 70
     0
 10
0.0
 20
0.0
 30
0.0
  3
*B8
  1

  0
LINE
  5
169
100
AcDbEntity
  8
0
  6
Continuous
 62
     0
100
AcDbLine
 10
116.036593
 20
321.885713
 30
0.0
 11
116.036593
 21
246.886675
 31
0.0
  0
SOLID
  5
16A
100
AcDbEntity
  8
0
  6
Continuous
 62
     0
100
AcDbTrace
 10
118.03638
 20
311.885501
 30
0.0
 11
116.036593
 21
321.885713
 31
0.0
 12
114.03638
 22
311.885501
 32
0.0
 13
114.03638
 23
311.885501
 33
0.0
  0
SOLID
  5
16B
100
AcDbEntity
  8
0
  6
Continuous
 62
     0
100
AcDbTrace
 10
114.03638
 20
256.886462
 30
0.0
 11
116.036593
 21
246.886675
 31
0.0
 12
118.03638
 22
256.886462
 32
0.0
 13
118.03638
 23
256.886462
 33
0.0
  0
ENDBLK
  5
16C
100
AcDbEntity
  8
0
100
AcDbBlockEnd
  0
BLOCK
  5
16F
100
AcDbEntity
  8
0
100
AcDbBlockBegin
  2
*B9
 70
     0
 10
0.0
 20
0.0
 30
0.0
  3
*B9
  1

  0
LINE
  5
170
100
AcDbEntity
  8
0
  6
Continuous
 62
     0
100
AcDbLine
 10
262.627072
 20
403.993592
 30
0.0
 11
214.627075
 21
403.993592
 31
0.0
  0
SOLID
  5
171
100
AcDbEntity
  8
0
  6
Continuous
 62
     0
100
AcDbTrace
 10
252.62686
 20
401.993805
 30
0.0
 11
262.627072
 21
403.993592
 31
0.0
 12
252.62686
 22
405.993805
 32
0.0
 13
252.62686
 23
405.993805
 33
0.0
  0
SOLID
  5
172
100
AcDbEntity
  8
0
  6
Continuous
 62
     0
100
AcDbTrace
 10
224.626862
 20
405.993805
 30
0.0
 11
214.627075
 21
403.993592
 31
0.0
 12
224.626862
 22
401.993805
 32
0.0
 13
224.626862
 23
401.993805
 33
0.0
  0
ENDBLK
  5
173
100
AcDbEntity
  8
0
100
AcDbBlockEnd
  0
BLOCK
  5
176
100
AcDbEntity
  8
0
100
AcDbBlockBegin
  2
*B10
 70
     0
 10
0.0
 20
0.0
 30
0.0
  3
*B10
  1

  0
LINE
  5
177
100
AcDbEntity
  8
0
  6
Continuous
 62
     0
100
AcDbLine
 10
310.627069
 20
403.993592
 30
0.0
 11
262.627072
 21
403.993592
 31
0.0
  0
SOLID
  5
178
100
AcDbEntity
  8
0
  6
Continuous
 62
     0
100
AcDbTrace
 10
300.626857
 20
401.993805
 30
0.0
 11
310.627069
 21
403.993592
 31
0.0
 12
300.626857
 22
405.993805
 32
0.0
 13
300.626857
 23
405.993805
 33
0.0
  0
SOLID
  5
179
100
AcDbEntity
  8
0
  6
Continuous
 62
     0
100
AcDbTrace
 10
272.626859
 20
405.993805
 30
0.0
 11
262.627072
 21
403.993592
 31
0.0
 12
272.626859
 22
401.993805
 32
0.0
 13
272.626859
 23
401.993805
 33
0.0
  0
ENDBLK
  5
17A
100
AcDbEntity
  8
0
100
AcDbBlockEnd
  0
BLOCK
  5
17D
100
AcDbEntity
  8
0
100
AcDbBlockBegin
  2
*B11
 70
     0
 10
0.0
 20
0.0
 30
0.0
  3
*B11
  1

  0
LINE
  5
17E
100
AcDbEntity
  8
0
  6
Continuous
 62
     0
100
AcDbLine
 10
358.627067
 20
403.993592
 30
0.0
 11
310.627069
 21
403.993592
 31
0.0
  0
SOLID
  5
17F
100
AcDbEntity
  8
0
  6
Continuous
 62
     0
100
AcDbTrace
 10
348.626854
 20
401.993805
 30
0.0
 11
358.627067
 21
403.993592
 31
0.0
 12
348.626854
 22
405.993805
 32
0.0
 13
348.626854
 23
405.993805
 33
0.0
  0
SOLID
  5
180
100
AcDbEntity
  8
0
  6
Continuous
 62
     0
100
AcDbTrace
 10
320.626856
 20
405.993805
 30
0.0
 11
310.627069
 21
403.993592
 31
0.0
 12
320.626856
 22
401.993805
 32
0.0
 13
320.626856
 23
401.993805
 33
0.0
  0
ENDBLK
  5
181
100
AcDbEntity
  8
0
100
AcDbBlockEnd
  0
BLOCK
  5
184
100
AcDbEntity
  8
0
100
AcDbBlockBegin
  2
*B12
 70
     0
 10
0.0
 20
0.0
 30
0.0
  3
*B12
  1

  0
LINE
  5
185
100
AcDbEntity
  8
0
  6
Continuous
 62
     0
100
AcDbLine
 10
406.627064
 20
403.993592
 30
0.0
 11
358.627067
 21
403.993592
 31
0.0
  0
SOLID
  5
186
100
AcDbEntity
  8
0
  6
Continuous
 62
     0
100
AcDbTrace
 10
396.626852
 20
401.993805
 30
0.0
 11
406.627064
 21
403.993592
 31
0.0
 12
396.626852
 22
405.993805
 32
0.0
 13
396.626852
 23
405.993805
 33
0.0
  0
SOLID
  5
187
100
AcDbEntity
  8
0
  6
Continuous
 62
     0
100
AcDbTrace
 10
368.626853
 20
405.993805
 30
0.0
 11
358.627067
 21
403.993592
 31
0.0
 12
368.626853
 22
401.993805
 32
0.0
 13
368.626853
 23
401.993805
 33
0.0
  0
ENDBLK
  5
188
100
AcDbEntity
  8
0
100
AcDbBlockEnd
  0
BLOCK
  5
18B
100
AcDbEntity
  8
0
100
AcDbBlockBegin
  2
*B13
 70
     0
 10
0.0
 20
0.0
 30
0.0
  3
*B13
  1

  0
LINE
  5
18C
100
AcDbEntity
  8
0
  6
Continuous
 62
     0
100
AcDbLine
 10
261.944021
 20
219.996582
 30
0.0
 11
309.944018
 21
219.996582
 31
0.0
  0
SOLID
  5
18D
100
AcDbEntity
  8
0
  6
Continuous
 62
     0
100
AcDbTrace
 10
271.944233
 20
221.996795
 30
0.0
 11
261.944021
 21
219.996582
 31
0.0
 12
271.944233
 22
217.996795
 32
0.0
 13
271.944233
 23
217.996795
 33
0.0
  0
SOLID
  5
18E
100
AcDbEntity
  8
0
  6
Continuous
 62
     0
100
AcDbTrace
 10
299.944232
 20
217.996795
 30
0.0
 11
309.944018
 21
219.996582
 31
0.0
 12
299.944232
 22
221.996795
 32
0.0
 13
299.944232
 23
221.996795
 33
0.0
  0
ENDBLK
  5
18F
100
AcDbEntity
  8
0
100
AcDbBlockEnd
  0
BLOCK
  5
192
100
AcDbEntity
  8
0
100
AcDbBlockBegin
  2
*B14
 70
     0
 10
0.0
 20
0.0
 30
0.0
  3
*B14
  1

  0
LINE
  5
193
100
AcDbEntity
  8
0
  6
Continuous
 62
     0
100
AcDbLine
 10
309.944018
 20
219.996582
 30
0.0
 11
357.944015
 21
219.996582
 31
0.0
  0
SOLID
  5
194
100
AcDbEntity
  8
0
  6
Continuous
 62
     0
100
AcDbTrace
 10
319.943805
 20
221.996795
 30
0.0
 11
309.944018
 21
219.996582
 31
0.0
 12
319.943805
 22
217.996795
 32
0.0
 13
319.943805
 23
217.996795
 33
0.0
  0
SOLID
  5
195
100
AcDbEntity
  8
0
  6
Continuous
 62
     0
100
AcDbTrace
 10
347.943803
 20
217.996795
 30
0.0
 11
357.944015
 21
219.996582
 31
0.0
 12
347.943803
 22
221.996795
 32
0.0
 13
347.943803
 23
221.996795
 33
0.0
  0
ENDBLK
  5
196
100
AcDbEntity
  8
0
100
AcDbBlockEnd
  0
BLOCK
  5
199
100
AcDbEntity
  8
0
100
AcDbBlockBegin
  2
*B15
 70
     0
 10
0.0
 20
0.0
 30
0.0
  3
*B15
  1

  0
LINE
  5
19A
100
AcDbEntity
  8
0
  6
Continuous
 62
     0
100
AcDbLine
 10
357.944015
 20
219.996582
 30
0.0
 11
405.944012
 21
219.996582
 31
0.0
  0
SOLID
  5
19B
100
AcDbEntity
  8
0
  6
Continuous
 62
     0
100
AcDbTrace
 10
367.943802
 20
221.996795
 30
0.0
 11
357.944015
 21
219.996582
 31
0.0
 12
367.943802
 22
217.996795
 32
0.0
 13
367.943802
 23
217.996795
 33
0.0
  0
SOLID
  5
19C
100
AcDbEntity
  8
0
  6
Continuous
 62
     0
100
AcDbTrace
 10
395.9438
 20
217.996795
 30
0.0
 11
405.944012
 21
219.996582
 31
0.0
 12
395.9438
 22
221.996795
 32
0.0
 13
395.9438
 23
221.996795
 33
0.0
  0
ENDBLK
  5
19D
100
AcDbEntity
  8
0
100
AcDbBlockEnd
  0
BLOCK
  5
1A0
100
AcDbEntity
  8
0
100
AcDbBlockBegin
  2
*B16
 70
     0
 10
0.0
 20
0.0
 30
0.0
  3
*B16
  1

  0
LINE
  5
1A1
100
AcDbEntity
  8
0
  6
Continuous
 62
     0
100
AcDbLine
 10
405.944012
 20
219.996582
 30
0.0
 11
477.944008
 21
219.996582
 31
0.0
  0
SOLID
  5
1A2
100
AcDbEntity
  8
0
  6
Continuous
 62
     0
100
AcDbTrace
 10
415.943799
 20
221.996795
 30
0.0
 11
405.944012
 21
219.996582
 31
0.0
 12
415.943799
 22
217.996795
 32
0.0
 13
415.943799
 23
217.996795
 33
0.0
  0
SOLID
  5
1A3
100
AcDbEntity
  8
0
  6
Continuous
 62
     0
100
AcDbTrace
 10
467.943796
 20
217.996795
 30
0.0
 11
477.944008
 21
219.996582
 31
0.0
 12
467.943796
 22
221.996795
 32
0.0
 13
467.943796
 23
221.996795
 33
0.0
  0
ENDBLK
  5
1A4
100
AcDbEntity
  8
0
100
AcDbBlockEnd
  0
BLOCK
  5
1A7
100
AcDbEntity
  8
0
100
AcDbBlockBegin
  2
*B17
 70
     0
 10
0.0
 20
0.0
 30
0.0
  3
*B17
  1

  0
LINE
  5
1A8
100
AcDbEntity
  8
0
  6
Continuous
 62
     0
100
AcDbLine
 10
231.944236
 20
11.999999
 30
0.0
 11
195.944238
 21
11.999999
 31
0.0
  0
SOLID
  5
1A9
100
AcDbEntity
  8
0
  6
Continuous
 62
     0
100
AcDbTrace
 10
221.944023
 20
9.999787
 30
0.0
 11
231.944236
 21
11.999999
 31
0.0
 12
221.944023
 22
13.999786
 32
0.0
 13
221.944023
 23
13.999786
 33
0.0
  0
SOLID
  5
1AA
100
AcDbEntity
  8
0
  6
Continuous
 62
     0
100
AcDbTrace
 10
205.944024
 20
13.999786
 30
0.0
 11
195.944238
 21
11.999999
 31
0.0
 12
205.944024
 22
9.999787
 32
0.0
 13
205.944024
 23
9.999787
 33
0.0
  0
ENDBLK
  5
1AB
100
AcDbEntity
  8
0
100
AcDbBlockEnd
  0
BLOCK
  5
1AE
100
AcDbEntity
  8
0
100
AcDbBlockBegin
  2
*B18
 70
     0
 10
0.0
 20
0.0
 30
0.0
  3
*B18
  1

  0
LINE
  5
1AF
100
AcDbEntity
  8
0
  6
Continuous
 62
     0
100
AcDbLine
 10
96.036594
 20
166.507065
 30
0.0
 11
96.036594
 21
94.508346
 31
0.0
  0
SOLID
  5
1B0
100
AcDbEntity
  8
0
  6
Continuous
 62
     0
100
AcDbTrace
 10
98.036381
 20
156.507279
 30
0.0
 11
96.036594
 21
166.507065
 31
0.0
 12
94.036381
 22
156.507279
 32
0.0
 13
94.036381
 23
156.507279
 33
0.0
  0
SOLID
  5
1B1
100
AcDbEntity
  8
0
  6
Continuous
 62
     0
100
AcDbTrace
 10
94.036381
 20
104.508133
 30
0.0
 11
96.036594
 21
94.508346
 31
0.0
 12
98.036381
 22
104.508133
 32
0.0
 13
98.036381
 23
104.508133
 33
0.0
  0
ENDBLK
  5
1B2
100
AcDbEntity
  8
0
100
AcDbBlockEnd
  0
BLOCK
  5
1B5
100
AcDbEntity
  8
0
100
AcDbBlockBegin
  2
*B19
 70
     0
 10
0.0
 20
0.0
 30
0.0
  3
*B19
  1

  0
LINE
  5
1B6
100
AcDbEntity
  8
0
  6
Continuous
 62
     0
100
AcDbLine
 10
528.036143
 20
75.508454
 30
0.0
 11
528.036143
 21
14.509628
 31
0.0
  0
SOLID
  5
1B7
100
AcDbEntity
  8
0
  6
Continuous
 62
     0
100
AcDbTrace
 10
526.036355
 20
65.508667
 30
0.0
 11
528.036143
 21
55.508881
 31
0.0
 12
530.036355
 22
65.508667
 32
0.0
 13
530.036355
 23
65.508667
 33
0.0
  0
SOLID
  5
1B8
100
AcDbEntity
  8
0
  6
Continuous
 62
     0
100
AcDbTrace
 10
530.036355
 20
24.509414
 30
0.0
 11
528.036143
 21
34.509201
 31
0.0
 12
526.036355
 22
24.509414
 32
0.0
 13
526.036355
 23
24.509414
 33
0.0
  0
ENDBLK
  5
1B9
100
AcDbEntity
  8
0
100
AcDbBlockEnd
  0
BLOCK
  5
1BC
100
AcDbEntity
  8
0
100
AcDbBlockBegin
  2
*B20
 70
     0
 10
0.0
 20
0.0
 30
0.0
  3
*B20
  1

  0
LINE
  5
1BD
100
AcDbEntity
  8
0
  6
Continuous
 62
     0
100
AcDbLine
 10
528.036143
 20
55.508881
 30
0.0
 11
528.036143
 21
205.506531
 31
0.0
  0
SOLID
  5
1BE
100
AcDbEntity
  8
0
  6
Continuous
 62
     0
100
AcDbTrace
 10
526.036355
 20
65.508667
 30
0.0
 11
528.036143
 21
55.508881
 31
0.0
 12
530.036355
 22
65.508667
 32
0.0
 13
530.036355
 23
65.508667
 33
0.0
  0
SOLID
  5
1BF
100
AcDbEntity
  8
0
  6
Continuous
 62
     0
100
AcDbTrace
 10
530.036355
 20
195.506744
 30
0.0
 11
528.036143
 21
205.506531
 31
0.0
 12
526.036355
 22
195.506744
 32
0.0
 13
526.036355
 23
195.506744
 33
0.0
  0
ENDBLK
  5
1C0
100
AcDbEntity
  8
0
100
AcDbBlockEnd
  0
BLOCK
  5
1C3
100
AcDbEntity
  8
0
100
AcDbBlockBegin
  2
*B21
 70
     0
 10
0.0
 20
0.0
 30
0.0
  3
*B21
  1

  0
LINE
  5
1C4
100
AcDbEntity
  8
0
  6
Continuous
 62
     0
100
AcDbLine
 10
504.036144
 20
130.507493
 30
0.0
 11
504.036144
 21
172.506852
 31
0.0
  0
SOLID
  5
1C5
100
AcDbEntity
  8
0
  6
Continuous
 62
     0
100
AcDbTrace
 10
502.036357
 20
140.507705
 30
0.0
 11
504.036144
 21
130.507493
 31
0.0
 12
506.036357
 22
140.507705
 32
0.0
 13
506.036357
 23
140.507705
 33
0.0
  0
SOLID
  5
1C6
100
AcDbEntity
  8
0
  6
Continuous
 62
     0
100
AcDbTrace
 10
506.036357
 20
162.507066
 30
0.0
 11
504.036144
 21
172.506852
 31
0.0
 12
502.036357
 22
162.507066
 32
0.0
 13
502.036357
 23
162.507066
 33
0.0
  0
ENDBLK
  5
1C7
100
AcDbEntity
  8
0
100
AcDbBlockEnd
  0
BLOCK
  5
1CA
100
AcDbEntity
  8
0
100
AcDbBlockBegin
  2
*B22
 70
     0
 10
0.0
 20
0.0
 30
0.0
  3
*B22
  1

  0
LINE
  5
1CB
100
AcDbEntity
  8
0
  6
Continuous
 62
     0
100
AcDbLine
 10
120.036592
 20
92.883067
 30
0.0
 11
120.036592
 21
168.131919
 31
0.0
  0
SOLID
  5
1CC
100
AcDbEntity
  8
0
  6
Continuous
 62
     0
100
AcDbTrace
 10
122.03638
 20
102.883279
 30
0.0
 11
120.036592
 21
112.883066
 31
0.0
 12
118.03638
 22
102.883279
 32
0.0
 13
118.03638
 23
102.883279
 33
0.0
  0
SOLID
  5
1CD
100
AcDbEntity
  8
0
  6
Continuous
 62
     0
100
AcDbTrace
 10
118.03638
 20
158.132132
 30
0.0
 11
120.036592
 21
148.132346
 31
0.0
 12
122.03638
 22
158.132132
 32
0.0
 13
122.03638
 23
158.132132
 33
0.0
  0
ENDBLK
  5
1CE
100
AcDbEntity
  8
0
100
AcDbBlockEnd
  0
BLOCK
  5
1D1
100
AcDbEntity
  8
0
100
AcDbBlockBegin
  2
*B23
 70
     0
 10
0.0
 20
0.0
 30
0.0
  3
*B23
  1

  0
LINE
  5
1D2
100
AcDbEntity
  8
0
  6
Continuous
 62
     0
100
AcDbLine
 10
433.944011
 20
13.999786
 30
0.0
 11
497.944007
 21
13.999786
 31
0.0
  0
SOLID
  5
1D3
100
AcDbEntity
  8
0
  6
Continuous
 62
     0
100
AcDbTrace
 10
443.943797
 20
11.999999
 30
0.0
 11
453.94401
 21
13.999786
 31
0.0
 12
443.943797
 22
15.999999
 32
0.0
 13
443.943797
 23
15.999999
 33
0.0
  0
SOLID
  5
1D4
100
AcDbEntity
  8
0
  6
Continuous
 62
     0
100
AcDbTrace
 10
487.943795
 20
15.999999
 30
0.0
 11
477.944008
 21
13.999786
 31
0.0
 12
487.943795
 22
11.999999
 32
0.0
 13
487.943795
 23
11.999999
 33
0.0
  0
ENDBLK
  5
1D5
100
AcDbEntity
  8
0
100
AcDbBlockEnd
  0
BLOCK
  5
1D8
100
AcDbEntity
  8
0
100
AcDbBlockBegin
  2
*B24
 70
     0
 10
0.0
 20
0.0
 30
0.0
  3
*B24
  1

  0
LINE
  5
1D9
100
AcDbEntity
  8
0
  6
Continuous
 62
     0
100
AcDbLine
 10
185.944026
 20
11.999999
 30
0.0
 11
121.944029
 21
11.999999
 31
0.0
  0
SOLID
  5
1DA
100
AcDbEntity
  8
0
  6
Continuous
 62
     0
100
AcDbTrace
 10
175.944239
 20
13.999786
 30
0.0
 11
165.944027
 21
11.999999
 31
0.0
 12
175.944239
 22
9.999787
 32
0.0
 13
175.944239
 23
9.999787
 33
0.0
  0
SOLID
  5
1DB
100
AcDbEntity
  8
0
  6
Continuous
 62
     0
100
AcDbTrace
 10
131.944242
 20
9.999787
 30
0.0
 11
141.944028
 21
11.999999
 31
0.0
 12
131.944242
 22
13.999786
 32
0.0
 13
131.944242
 23
13.999786
 33
0.0
  0
ENDBLK
  5
1DC
100
AcDbEntity
  8
0
100
AcDbBlockEnd
  0
BLOCK
  5
1DF
100
AcDbEntity
  8
0
100
AcDbBlockBegin
  2
*B25
 70
     0
 10
0.0
 20
0.0
 30
0.0
  3
*B25
  1

  0
LINE
  5
1E0
100
AcDbEntity
  8
0
  6
Continuous
 62
     0
100
AcDbLine
 10
504.036144
 20
130.507493
 30
0.0
 11
504.036144
 21
88.508134
 31
0.0
  0
SOLID
  5
1E1
100
AcDbEntity
  8
0
  6
Continuous
 62
     0
100
AcDbTrace
 10
506.036357
 20
120.507706
 30
0.0
 11
504.036144
 21
130.507493
 31
0.0
 12
502.036357
 22
120.507706
 32
0.0
 13
502.036357
 23
120.507706
 33
0.0
  0
SOLID
  5
1E2
100
AcDbEntity
  8
0
  6
Continuous
 62
     0
100
AcDbTrace
 10
502.036357
 20
98.508346
 30
0.0
 11
504.036144
 21
88.508134
 31
0.0
 12
506.036357
 22
98.508346
 32
0.0
 13
506.036357
 23
98.508346
 33
0.0
  0
ENDBLK
  5
1E3
100
AcDbEntity
  8
0
100
AcDbBlockEnd
  0
BLOCK
  5
1E6
100
AcDbEntity
  8
0
100
AcDbBlockBegin
  2
*B26
 70
     0
 10
0.0
 20
0.0
 30
0.0
  3
*B26
  1

  0
LINE
  5
1E7
100
AcDbEntity
  8
0
  6
Continuous
 62
     0
100
AcDbLine
 10
72.036595
 20
172.506852
 30
0.0
 11
72.036595
 21
88.508134
 31
0.0
  0
SOLID
  5
1E8
100
AcDbEntity
  8
0
  6
Continuous
 62
     0
100
AcDbTrace
 10
74.036382
 20
162.507066
 30
0.0
 11
72.036595
 21
172.506852
 31
0.0
 12
70.036383
 22
162.507066
 32
0.0
 13
70.036383
 23
162.507066
 33
0.0
  0
SOLID
  5
1E9
100
AcDbEntity
  8
0
  6
Continuous
 62
     0
100
AcDbTrace
 10
70.036383
 20
98.508346
 30
0.0
 11
72.036595
 21
88.508134
 31
0.0
 12
74.036382
 22
98.508346
 32
0.0
 13
74.036382
 23
98.508346
 33
0.0
  0
ENDBLK
  5
1EA
100
AcDbEntity
  8
0
100
AcDbBlockEnd
  0
BLOCK
  5
1ED
100
AcDbEntity
  8
0
100
AcDbBlockBegin
  2
*B27
 70
     0
 10
0.0
 20
0.0
 30
0.0
  3
*B27
  1

  0
LINE
  5
1EE
100
AcDbEntity
  8
0
  6
Continuous
 62
     8
100
AcDbLine
 10
502.036357
 20
172.506852
 30
0.0
 11
506.036357
 21
172.506852
 31
0.0
  0
LINE
  5
1EF
100
AcDbEntity
  8
0
  6
Continuous
 62
     8
100
AcDbLine
 10
190.747941
 20
172.506852
 30
0.0
 11
201.529512
 21
172.506852
 31
0.0
  0
LINE
  5
1F0
100
AcDbEntity
  8
0
  6
Continuous
 62
     8
100
AcDbLine
 10
204.529406
 20
172.506852
 30
0.0
 11
206.529619
 21
172.506852
 31
0.0
  0
LINE
  5
1F1
100
AcDbEntity
  8
0
  6
Continuous
 62
     8
100
AcDbLine
 10
209.529512
 20
172.506852
 30
0.0
 11
220.311084
 21
172.506852
 31
0.0
  0
LINE
  5
1F2
100
AcDbEntity
  8
0
  6
Continuous
 62
     8
100
AcDbLine
 10
223.311403
 20
172.506852
 30
0.0
 11
225.31119
 21
172.506852
 31
0.0
  0
LINE
  5
1F3
100
AcDbEntity
  8
0
  6
Continuous
 62
     8
100
AcDbLine
 10
228.311083
 20
172.506852
 30
0.0
 11
239.093081
 21
172.506852
 31
0.0
  0
LINE
  5
1F4
100
AcDbEntity
  8
0
  6
Continuous
 62
     8
100
AcDbLine
 10
242.092974
 20
172.506852
 30
0.0
 11
244.092761
 21
172.506852
 31
0.0
  0
LINE
  5
1F5
100
AcDbEntity
  8
0
  6
Continuous
 62
     8
100
AcDbLine
 10
247.09308
 20
172.506852
 30
0.0
 11
257.874652
 21
172.506852
 31
0.0
  0
LINE
  5
1F6
100
AcDbEntity
  8
0
  6
Continuous
 62
     8
100
AcDbLine
 10
260.874546
 20
172.506852
 30
0.0
 11
262.874758
 21
172.506852
 31
0.0
  0
LINE
  5
1F7
100
AcDbEntity
  8
0
  6
Continuous
 62
     8
100
AcDbLine
 10
265.874652
 20
172.506852
 30
0.0
 11
276.656224
 21
172.506852
 31
0.0
  0
LINE
  5
1F8
100
AcDbEntity
  8
0
  6
Continuous
 62
     8
100
AcDbLine
 10
279.656117
 20
172.506852
 30
0.0
 11
281.65633
 21
172.506852
 31
0.0
  0
LINE
  5
1F9
100
AcDbEntity
  8
0
  6
Continuous
 62
     8
100
AcDbLine
 10
284.656223
 20
172.506852
 30
0.0
 11
295.437795
 21
172.506852
 31
0.0
  0
LINE
  5
1FA
100
AcDbEntity
  8
0
  6
Continuous
 62
     8
100
AcDbLine
 10
298.438114
 20
172.506852
 30
0.0
 11
300.437901
 21
172.506852
 31
0.0
  0
LINE
  5
1FB
100
AcDbEntity
  8
0
  6
Continuous
 62
     8
100
AcDbLine
 10
303.437794
 20
172.506852
 30
0.0
 11
314.219366
 21
172.506852
 31
0.0
  0
LINE
  5
1FC
100
AcDbEntity
  8
0
  6
Continuous
 62
     8
100
AcDbLine
 10
317.219685
 20
172.506852
 30
0.0
 11
319.219472
 21
172.506852
 31
0.0
  0
LINE
  5
1FD
100
AcDbEntity
  8
0
  6
Continuous
 62
     8
100
AcDbLine
 10
322.219366
 20
172.506852
 30
0.0
 11
333.001363
 21
172.506852
 31
0.0
  0
LINE
  5
1FE
100
AcDbEntity
  8
0
  6
Continuous
 62
     8
100
AcDbLine
 10
336.001257
 20
172.506852
 30
0.0
 11
338.001469
 21
172.506852
 31
0.0
  0
LINE
  5
1FF
100
AcDbEntity
  8
0
  6
Continuous
 62
     8
100
AcDbLine
 10
341.001363
 20
172.506852
 30
0.0
 11
351.782935
 21
172.506852
 31
0.0
  0
LINE
  5
200
100
AcDbEntity
  8
0
  6
Continuous
 62
     8
100
AcDbLine
 10
354.782828
 20
172.506852
 30
0.0
 11
356.783041
 21
172.506852
 31
0.0
  0
LINE
  5
201
100
AcDbEntity
  8
0
  6
Continuous
 62
     8
100
AcDbLine
 10
359.782934
 20
172.506852
 30
0.0
 11
370.564506
 21
172.506852
 31
0.0
  0
LINE
  5
202
100
AcDbEntity
  8
0
  6
Continuous
 62
     8
100
AcDbLine
 10
373.564399
 20
172.506852
 30
0.0
 11
375.564612
 21
172.506852
 31
0.0
  0
LINE
  5
203
100
AcDbEntity
  8
0
  6
Continuous
 62
     8
100
AcDbLine
 10
378.564506
 20
172.506852
 30
0.0
 11
389.346077
 21
172.506852
 31
0.0
  0
LINE
  5
204
100
AcDbEntity
  8
0
  6
Continuous
 62
     8
100
AcDbLine
 10
392.346396
 20
172.506852
 30
0.0
 11
394.346184
 21
172.506852
 31
0.0
  0
LINE
  5
205
100
AcDbEntity
  8
0
  6
Continuous
 62
     8
100
AcDbLine
 10
397.346077
 20
172.506852
 30
0.0
 11
408.128074
 21
172.506852
 31
0.0
  0
LINE
  5
206
100
AcDbEntity
  8
0
  6
Continuous
 62
     8
100
AcDbLine
 10
411.127968
 20
172.506852
 30
0.0
 11
413.127755
 21
172.506852
 31
0.0
  0
LINE
  5
207
100
AcDbEntity
  8
0
  6
Continuous
 62
     8
100
AcDbLine
 10
416.128074
 20
172.506852
 30
0.0
 11
426.909646
 21
172.506852
 31
0.0
  0
LINE
  5
208
100
AcDbEntity
  8
0
  6
Continuous
 62
     8
100
AcDbLine
 10
429.909539
 20
172.506852
 30
0.0
 11
431.909752
 21
172.506852
 31
0.0
  0
LINE
  5
209
100
AcDbEntity
  8
0
  6
Continuous
 62
     8
100
AcDbLine
 10
434.909645
 20
172.506852
 30
0.0
 11
445.691217
 21
172.506852
 31
0.0
  0
LINE
  5
20A
100
AcDbEntity
  8
0
  6
Continuous
 62
     8
100
AcDbLine
 10
448.691111
 20
172.506852
 30
0.0
 11
450.691323
 21
172.506852
 31
0.0
  0
LINE
  5
20B
100
AcDbEntity
  8
0
  6
Continuous
 62
     8
100
AcDbLine
 10
453.691217
 20
172.506852
 30
0.0
 11
464.472789
 21
172.506852
 31
0.0
  0
LINE
  5
20C
100
AcDbEntity
  8
0
  6
Continuous
 62
     8
100
AcDbLine
 10
467.472682
 20
172.506852
 30
0.0
 11
469.472895
 21
172.506852
 31
0.0
  0
LINE
  5
20D
100
AcDbEntity
  8
0
  6
Continuous
 62
     8
100
AcDbLine
 10
472.472788
 20
172.506852
 30
0.0
 11
483.25436
 21
172.506852
 31
0.0
  0
LINE
  5
20E
100
AcDbEntity
  8
0
  6
Continuous
 62
     8
100
AcDbLine
 10
486.254679
 20
172.506852
 30
0.0
 11
488.254466
 21
172.506852
 31
0.0
  0
LINE
  5
20F
100
AcDbEntity
  8
0
  6
Continuous
 62
     8
100
AcDbLine
 10
491.254359
 20
172.506852
 30
0.0
 11
502.036357
 21
172.506852
 31
0.0
  0
ENDBLK
  5
210
100
AcDbEntity
  8
0
100
AcDbBlockEnd
  0
BLOCK
  5
213
100
AcDbEntity
  8
0
100
AcDbBlockBegin
  2
*B28
 70
     0
 10
0.0
 20
0.0
 30
0.0
  3
*B28
  1

  0
LINE
  5
214
100
AcDbEntity
  8
0
  6
Continuous
 62
     8
100
AcDbLine
 10
70.036383
 20
172.506852
 30
0.0
 11
74.036382
 21
172.506852
 31
0.0
  0
LINE
  5
215
100
AcDbEntity
  8
0
  6
Continuous
 62
     8
100
AcDbLine
 10
74.036382
 20
172.506852
 30
0.0
 11
85.017976
 21
172.506852
 31
0.0
  0
LINE
  5
216
100
AcDbEntity
  8
0
  6
Continuous
 62
     8
100
AcDbLine
 10
88.017869
 20
172.506852
 30
0.0
 11
90.018082
 21
172.506852
 31
0.0
  0
LINE
  5
217
100
AcDbEntity
  8
0
  6
Continuous
 62
     8
100
AcDbLine
 10
93.017975
 20
172.506852
 30
0.0
 11
103.999568
 21
172.506852
 31
0.0
  0
LINE
  5
218
100
AcDbEntity
  8
0
  6
Continuous
 62
     8
100
AcDbLine
 10
106.999462
 20
172.506852
 30
0.0
 11
108.999674
 21
172.506852
 31
0.0
  0
LINE
  5
219
100
AcDbEntity
  8
0
  6
Continuous
 62
     8
100
AcDbLine
 10
111.999568
 20
172.506852
 30
0.0
 11
122.981161
 21
172.506852
 31
0.0
  0
LINE
  5
21A
100
AcDbEntity
  8
0
  6
Continuous
 62
     8
100
AcDbLine
 10
125.981054
 20
172.506852
 30
0.0
 11
127.980841
 21
172.506852
 31
0.0
  0
LINE
  5
21B
100
AcDbEntity
  8
0
  6
Continuous
 62
     8
100
AcDbLine
 10
130.98116
 20
172.506852
 30
0.0
 11
141.962754
 21
172.506852
 31
0.0
  0
LINE
  5
21C
100
AcDbEntity
  8
0
  6
Continuous
 62
     8
100
AcDbLine
 10
144.962647
 20
172.506852
 30
0.0
 11
146.962434
 21
172.506852
 31
0.0
  0
LINE
  5
21D
100
AcDbEntity
  8
0
  6
Continuous
 62
     8
100
AcDbLine
 10
149.962753
 20
172.506852
 30
0.0
 11
160.943921
 21
172.506852
 31
0.0
  0
LINE
  5
21E
100
AcDbEntity
  8
0
  6
Continuous
 62
     8
100
AcDbLine
 10
170.944133
 20
172.506852
 30
0.0
 11
178.693893
 21
172.506852
 31
0.0
  0
ENDBLK
  5
21F
100
AcDbEntity
  8
0
100
AcDbBlockEnd
  0
BLOCK
  5
222
100
AcDbEntity
  8
0
100
AcDbBlockBegin
  2
*B29
 70
     0
 10
0.0
 20
0.0
 30
0.0
  3
*B29
  1

  0
LINE
  5
223
100
AcDbEntity
  8
0
  6
Continuous
 62
     8
100
AcDbLine
 10
114.03638
 20
321.883585
 30
0.0
 11
187.627183
 21
321.883585
 31
0.0
  0
ENDBLK
  5
224
100
AcDbEntity
  8
0
100
AcDbBlockEnd
  0
BLOCK
  5
227
100
AcDbEntity
  8
0
100
AcDbBlockBegin
  2
*B30
 70
     0
 10
0.0
 20
0.0
 30
0.0
  3
*B30
  1

  0
LINE
  5
228
100
AcDbEntity
  8
0
  6
Continuous
 62
     8
100
AcDbLine
 10
141.944028
 20
9.999787
 30
0.0
 11
141.944028
 21
52.508987
 31
0.0
  0
LINE
  5
229
100
AcDbEntity
  8
0
  6
Continuous
 62
     8
100
AcDbLine
 10
141.944028
 20
208.506424
 30
0.0
 11
141.944028
 21
221.996795
 31
0.0
  0
ENDBLK
  5
22A
100
AcDbEntity
  8
0
100
AcDbBlockEnd
  0
BLOCK
  5
22D
100
AcDbEntity
  8
0
100
AcDbBlockBegin
  2
*B31
 70
     0
 10
0.0
 20
0.0
 30
0.0
  3
*B31
  1

  0
LINE
  5
22E
100
AcDbEntity
  8
0
  6
Continuous
 62
     8
100
AcDbLine
 10
114.03638
 20
321.885713
 30
0.0
 11
138.553455
 21
321.885713
 31
0.0
  0
ENDBLK
  5
22F
100
AcDbEntity
  8
0
100
AcDbBlockEnd
  0
BLOCK
  5
232
100
AcDbEntity
  8
0
100
AcDbBlockBegin
  2
*B32
 70
     0
 10
0.0
 20
0.0
 30
0.0
  3
*B32
  1

  0
LINE
  5
233
100
AcDbEntity
  8
0
  6
Continuous
 62
     8
100
AcDbLine
 10
363.943802
 20
166.507065
 30
0.0
 11
363.943802
 21
173.506958
 31
0.0
  0
LINE
  5
234
100
AcDbEntity
  8
0
  6
Continuous
 62
     8
100
AcDbLine
 10
363.943802
 20
183.506745
 30
0.0
 11
363.943802
 21
190.506638
 31
0.0
  0
ENDBLK
  5
235
100
AcDbEntity
  8
0
100
AcDbBlockEnd
  0
BLOCK
  5
238
100
AcDbEntity
  8
0
100
AcDbBlockBegin
  2
*B33
 70
     0
 10
0.0
 20
0.0
 30
0.0
  3
*B33
  1

  0
LINE
  5
239
100
AcDbEntity
  8
0
  6
Continuous
 62
     8
100
AcDbLine
 10
393.944013
 20
142.507492
 30
0.0
 11
393.944013
 21
149.507385
 31
0.0
  0
LINE
  5
23A
100
AcDbEntity
  8
0
  6
Continuous
 62
     8
100
AcDbLine
 10
393.944013
 20
159.507172
 30
0.0
 11
393.944013
 21
166.507065
 31
0.0
  0
ENDBLK
  5
23B
100
AcDbEntity
  8
0
100
AcDbBlockEnd
  0
BLOCK
  5
23E
100
AcDbEntity
  8
0
100
AcDbBlockBegin
  2
*B34
 70
     0
 10
0.0
 20
0.0
 30
0.0
  3
*B34
  1

  0
LINE
  5
23F
100
AcDbEntity
  8
0
  6
Continuous
 62
     8
100
AcDbLine
 10
201.944025
 20
142.507492
 30
0.0
 11
201.944025
 21
149.507385
 31
0.0
  0
LINE
  5
240
100
AcDbEntity
  8
0
  6
Continuous
 62
     8
100
AcDbLine
 10
201.944025
 20
159.507172
 30
0.0
 11
201.944025
 21
166.507065
 31
0.0
  0
ENDBLK
  5
241
100
AcDbEntity
  8
0
100
AcDbBlockEnd
  0
BLOCK
  5
244
100
AcDbEntity
  8
0
100
AcDbBlockBegin
  2
*B35
 70
     0
 10
0.0
 20
0.0
 30
0.0
  3
*B35
  1

  0
LINE
  5
245
100
AcDbEntity
  8
0
  6
Continuous
 62
     8
100
AcDbLine
 10
201.944025
 20
28.509414
 30
0.0
 11
201.944025
 21
41.009041
 31
0.0
  0
LINE
  5
246
100
AcDbEntity
  8
0
  6
Continuous
 62
     8
100
AcDbLine
 10
201.944025
 20
44.008934
 30
0.0
 11
201.944025
 21
46.009147
 31
0.0
  0
LINE
  5
247
100
AcDbEntity
  8
0
  6
Continuous
 62
     8
100
AcDbLine
 10
201.944025
 20
49.009041
 30
0.0
 11
201.944025
 21
61.508667
 31
0.0
  0
ENDBLK
  5
248
100
AcDbEntity
  8
0
100
AcDbBlockEnd
  0
BLOCK
  5
24B
100
AcDbEntity
  8
0
100
AcDbBlockBegin
  2
*B36
 70
     0
 10
0.0
 20
0.0
 30
0.0
  3
*B36
  1

  0
LINE
  5
24C
100
AcDbEntity
  8
0
  6
Continuous
 62
     8
100
AcDbLine
 10
273.55334
 20
278.386195
 30
0.0
 11
273.55334
 21
297.386087
 31
0.0
  0
LINE
  5
24D
100
AcDbEntity
  8
0
  6
Continuous
 62
     8
100
AcDbLine
 10
273.55334
 20
307.385874
 30
0.0
 11
273.55334
 21
326.385341
 31
0.0
  0
ENDBLK
  5
24E
100
AcDbEntity
  8
0
100
AcDbBlockEnd
  0
BLOCK
  5
251
100
AcDbEntity
  8
0
100
AcDbBlockBegin
  2
*B37
 70
     0
 10
0.0
 20
0.0
 30
0.0
  3
*B37
  1

  0
LINE
  5
252
100
AcDbEntity
  8
0
  6
Continuous
 62
     8
100
AcDbLine
 10
312.943912
 20
9.999787
 30
0.0
 11
312.943912
 21
40.508988
 31
0.0
  0
ENDBLK
  5
253
100
AcDbEntity
  8
0
100
AcDbBlockEnd
  0
BLOCK
  5
256
100
AcDbEntity
  8
0
100
AcDbBlockBegin
  2
*B38
 70
     0
 10
0.0
 20
0.0
 30
0.0
  3
*B38
  1

  0
LINE
  5
257
100
AcDbEntity
  8
0
  6
Continuous
 62
     8
100
AcDbLine
 10
423.943799
 20
157.432058
 30
0.0
 11
423.943799
 21
161.506959
 31
0.0
  0
LINE
  5
258
100
AcDbEntity
  8
0
  6
Continuous
 62
     8
100
AcDbLine
 10
423.943799
 20
171.507171
 30
0.0
 11
423.943799
 21
175.582073
 31
0.0
  0
ENDBLK
  5
259
100
AcDbEntity
  8
0
100
AcDbBlockEnd
  0
BLOCK
  5
25C
100
AcDbEntity
  8
0
100
AcDbBlockBegin
  2
*B39
 70
     0
 10
0.0
 20
0.0
 30
0.0
  3
*B39
  1

  0
LINE
  5
25D
100
AcDbEntity
  8
0
  6
Continuous
 62
     8
100
AcDbLine
 10
231.944236
 20
9.999787
 30
0.0
 11
231.944236
 21
13.999786
 31
0.0
  0
LINE
  5
25E
100
AcDbEntity
  8
0
  6
Continuous
 62
     8
100
AcDbLine
 10
231.944236
 20
13.999786
 30
0.0
 11
231.944236
 21
25.438449
 31
0.0
  0
LINE
  5
25F
100
AcDbEntity
  8
0
  6
Continuous
 62
     8
100
AcDbLine
 10
231.944236
 20
28.438343
 30
0.0
 11
231.944236
 21
30.438555
 31
0.0
  0
LINE
  5
260
100
AcDbEntity
  8
0
  6
Continuous
 62
     8
100
AcDbLine
 10
231.944236
 20
33.438449
 30
0.0
 11
231.944236
 21
44.876686
 31
0.0
  0
LINE
  5
261
100
AcDbEntity
  8
0
  6
Continuous
 62
     8
100
AcDbLine
 10
231.944236
 20
47.87658
 30
0.0
 11
231.944236
 21
49.876792
 31
0.0
  0
LINE
  5
262
100
AcDbEntity
  8
0
  6
Continuous
 62
     8
100
AcDbLine
 10
231.944236
 20
52.876686
 30
0.0
 11
231.944236
 21
64.315349
 31
0.0
  0
LINE
  5
263
100
AcDbEntity
  8
0
  6
Continuous
 62
     8
100
AcDbLine
 10
231.944236
 20
67.315242
 30
0.0
 11
231.944236
 21
69.315029
 31
0.0
  0
LINE
  5
264
100
AcDbEntity
  8
0
  6
Continuous
 62
     8
100
AcDbLine
 10
231.944236
 20
72.314923
 30
0.0
 11
231.944236
 21
83.753586
 31
0.0
  0
LINE
  5
265
100
AcDbEntity
  8
0
  6
Continuous
 62
     8
100
AcDbLine
 10
231.944236
 20
86.753479
 30
0.0
 11
231.944236
 21
88.753692
 31
0.0
  0
LINE
  5
266
100
AcDbEntity
  8
0
  6
Continuous
 62
     8
100
AcDbLine
 10
231.944236
 20
91.753585
 30
0.0
 11
231.944236
 21
103.191823
 31
0.0
  0
LINE
  5
267
100
AcDbEntity
  8
0
  6
Continuous
 62
     8
100
AcDbLine
 10
231.944236
 20
106.192142
 30
0.0
 11
231.944236
 21
108.191929
 31
0.0
  0
LINE
  5
268
100
AcDbEntity
  8
0
  6
Continuous
 62
     8
100
AcDbLine
 10
231.944236
 20
111.191822
 30
0.0
 11
231.944236
 21
122.630485
 31
0.0
  0
LINE
  5
269
100
AcDbEntity
  8
0
  6
Continuous
 62
     8
100
AcDbLine
 10
231.944236
 20
125.630379
 30
0.0
 11
231.944236
 21
127.630166
 31
0.0
  0
LINE
  5
26A
100
AcDbEntity
  8
0
  6
Continuous
 62
     8
100
AcDbLine
 10
231.944236
 20
130.630059
 30
0.0
 11
231.944236
 21
142.068722
 31
0.0
  0
LINE
  5
26B
100
AcDbEntity
  8
0
  6
Continuous
 62
     8
100
AcDbLine
 10
231.944236
 20
145.068616
 30
0.0
 11
231.944236
 21
147.068828
 31
0.0
  0
LINE
  5
26C
100
AcDbEntity
  8
0
  6
Continuous
 62
     8
100
AcDbLine
 10
231.944236
 20
150.068722
 30
0.0
 11
231.944236
 21
161.506959
 31
0.0
  0
LINE
  5
26D
100
AcDbEntity
  8
0
  6
Continuous
 62
     8
100
AcDbLine
 10
231.944236
 20
171.507171
 30
0.0
 11
231.944236
 21
175.582073
 31
0.0
  0
ENDBLK
  5
26E
100
AcDbEntity
  8
0
100
AcDbBlockEnd
  0
BLOCK
  5
271
100
AcDbEntity
  8
0
100
AcDbBlockBegin
  2
*B40
 70
     0
 10
0.0
 20
0.0
 30
0.0
  3
*B40
  1

  0
LINE
  5
272
100
AcDbEntity
  8
0
  6
Continuous
 62
     8
100
AcDbLine
 10
310.627069
 20
401.993805
 30
0.0
 11
310.627069
 21
405.993805
 31
0.0
  0
LINE
  5
273
100
AcDbEntity
  8
0
  6
Continuous
 62
     8
100
AcDbLine
 10
310.627069
 20
315.883373
 30
0.0
 11
310.627069
 21
326.7058
 31
0.0
  0
LINE
  5
274
100
AcDbEntity
  8
0
  6
Continuous
 62
     8
100
AcDbLine
 10
310.627069
 20
329.705694
 30
0.0
 11
310.627069
 21
331.705481
 31
0.0
  0
LINE
  5
275
100
AcDbEntity
  8
0
  6
Continuous
 62
     8
100
AcDbLine
 10
310.627069
 20
334.705374
 30
0.0
 11
310.627069
 21
345.527802
 31
0.0
  0
LINE
  5
276
100
AcDbEntity
  8
0
  6
Continuous
 62
     8
100
AcDbLine
 10
310.627069
 20
348.527695
 30
0.0
 11
310.627069
 21
350.527482
 31
0.0
  0
LINE
  5
277
100
AcDbEntity
  8
0
  6
Continuous
 62
     8
100
AcDbLine
 10
310.627069
 20
353.527375
 30
0.0
 11
310.627069
 21
364.349803
 31
0.0
  0
LINE
  5
278
100
AcDbEntity
  8
0
  6
Continuous
 62
     8
100
AcDbLine
 10
310.627069
 20
367.349696
 30
0.0
 11
310.627069
 21
369.349483
 31
0.0
  0
LINE
  5
279
100
AcDbEntity
  8
0
  6
Continuous
 62
     8
100
AcDbLine
 10
310.627069
 20
372.349377
 30
0.0
 11
310.627069
 21
383.171804
 31
0.0
  0
LINE
  5
27A
100
AcDbEntity
  8
0
  6
Continuous
 62
     8
100
AcDbLine
 10
310.627069
 20
386.171697
 30
0.0
 11
310.627069
 21
388.171484
 31
0.0
  0
LINE
  5
27B
100
AcDbEntity
  8
0
  6
Continuous
 62
     8
100
AcDbLine
 10
310.627069
 20
391.171803
 30
0.0
 11
310.627069
 21
401.993805
 31
0.0
  0
ENDBLK
  5
27C
100
AcDbEntity
  8
0
100
AcDbBlockEnd
  0
BLOCK
  5
27F
100
AcDbEntity
  8
0
100
AcDbBlockBegin
  2
*B41
 70
     0
 10
0.0
 20
0.0
 30
0.0
  3
*B41
  1

  0
LINE
  5
280
100
AcDbEntity
  8
0
  6
Continuous
 62
     8
100
AcDbLine
 10
411.943799
 20
166.507065
 30
0.0
 11
411.943799
 21
173.506958
 31
0.0
  0
LINE
  5
281
100
AcDbEntity
  8
0
  6
Continuous
 62
     8
100
AcDbLine
 10
411.943799
 20
183.506745
 30
0.0
 11
411.943799
 21
190.506638
 31
0.0
  0
ENDBLK
  5
282
100
AcDbEntity
  8
0
100
AcDbBlockEnd
  0
BLOCK
  5
285
100
AcDbEntity
  8
0
100
AcDbBlockBegin
  2
*B42
 70
     0
 10
0.0
 20
0.0
 30
0.0
  3
*B42
  1

  0
LINE
  5
286
100
AcDbEntity
  8
0
  6
Continuous
 62
     8
100
AcDbLine
 10
502.036357
 20
88.508134
 30
0.0
 11
506.036357
 21
88.508134
 31
0.0
  0
LINE
  5
287
100
AcDbEntity
  8
0
  6
Continuous
 62
     8
100
AcDbLine
 10
195.944238
 20
88.508134
 30
0.0
 11
206.420245
 21
88.508134
 31
0.0
  0
LINE
  5
288
100
AcDbEntity
  8
0
  6
Continuous
 62
     8
100
AcDbLine
 10
209.420139
 20
88.508134
 30
0.0
 11
211.419926
 21
88.508134
 31
0.0
  0
LINE
  5
289
100
AcDbEntity
  8
0
  6
Continuous
 62
     8
100
AcDbLine
 10
214.420245
 20
88.508134
 30
0.0
 11
224.896252
 21
88.508134
 31
0.0
  0
LINE
  5
28A
100
AcDbEntity
  8
0
  6
Continuous
 62
     8
100
AcDbLine
 10
227.896146
 20
88.508134
 30
0.0
 11
229.895933
 21
88.508134
 31
0.0
  0
LINE
  5
28B
100
AcDbEntity
  8
0
  6
Continuous
 62
     8
100
AcDbLine
 10
232.896252
 20
88.508134
 30
0.0
 11
243.372259
 21
88.508134
 31
0.0
  0
LINE
  5
28C
100
AcDbEntity
  8
0
  6
Continuous
 62
     8
100
AcDbLine
 10
246.372153
 20
88.508134
 30
0.0
 11
248.37194
 21
88.508134
 31
0.0
  0
LINE
  5
28D
100
AcDbEntity
  8
0
  6
Continuous
 62
     8
100
AcDbLine
 10
251.372259
 20
88.508134
 30
0.0
 11
261.848266
 21
88.508134
 31
0.0
  0
LINE
  5
28E
100
AcDbEntity
  8
0
  6
Continuous
 62
     8
100
AcDbLine
 10
264.84816
 20
88.508134
 30
0.0
 11
266.847947
 21
88.508134
 31
0.0
  0
LINE
  5
28F
100
AcDbEntity
  8
0
  6
Continuous
 62
     8
100
AcDbLine
 10
269.848266
 20
88.508134
 30
0.0
 11
280.324273
 21
88.508134
 31
0.0
  0
LINE
  5
290
100
AcDbEntity
  8
0
  6
Continuous
 62
     8
100
AcDbLine
 10
283.324167
 20
88.508134
 30
0.0
 11
285.323954
 21
88.508134
 31
0.0
  0
LINE
  5
291
100
AcDbEntity
  8
0
  6
Continuous
 62
     8
100
AcDbLine
 10
288.324273
 20
88.508134
 30
0.0
 11
298.80028
 21
88.508134
 31
0.0
  0
LINE
  5
292
100
AcDbEntity
  8
0
  6
Continuous
 62
     8
100
AcDbLine
 10
301.800174
 20
88.508134
 30
0.0
 11
303.799961
 21
88.508134
 31
0.0
  0
LINE
  5
293
100
AcDbEntity
  8
0
  6
Continuous
 62
     8
100
AcDbLine
 10
306.80028
 20
88.508134
 30
0.0
 11
317.276287
 21
88.508134
 31
0.0
  0
LINE
  5
294
100
AcDbEntity
  8
0
  6
Continuous
 62
     8
100
AcDbLine
 10
320.276181
 20
88.508134
 30
0.0
 11
322.275968
 21
88.508134
 31
0.0
  0
LINE
  5
295
100
AcDbEntity
  8
0
  6
Continuous
 62
     8
100
AcDbLine
 10
325.276287
 20
88.508134
 30
0.0
 11
335.752294
 21
88.508134
 31
0.0
  0
LINE
  5
296
100
AcDbEntity
  8
0
  6
Continuous
 62
     8
100
AcDbLine
 10
338.752187
 20
88.508134
 30
0.0
 11
340.751975
 21
88.508134
 31
0.0
  0
LINE
  5
297
100
AcDbEntity
  8
0
  6
Continuous
 62
     8
100
AcDbLine
 10
343.752294
 20
88.508134
 30
0.0
 11
354.228301
 21
88.508134
 31
0.0
  0
LINE
  5
298
100
AcDbEntity
  8
0
  6
Continuous
 62
     8
100
AcDbLine
 10
357.228194
 20
88.508134
 30
0.0
 11
359.227982
 21
88.508134
 31
0.0
  0
LINE
  5
299
100
AcDbEntity
  8
0
  6
Continuous
 62
     8
100
AcDbLine
 10
362.228301
 20
88.508134
 30
0.0
 11
372.704308
 21
88.508134
 31
0.0
  0
LINE
  5
29A
100
AcDbEntity
  8
0
  6
Continuous
 62
     8
100
AcDbLine
 10
375.704201
 20
88.508134
 30
0.0
 11
377.703989
 21
88.508134
 31
0.0
  0
LINE
  5
29B
100
AcDbEntity
  8
0
  6
Continuous
 62
     8
100
AcDbLine
 10
380.704308
 20
88.508134
 30
0.0
 11
391.180315
 21
88.508134
 31
0.0
  0
LINE
  5
29C
100
AcDbEntity
  8
0
  6
Continuous
 62
     8
100
AcDbLine
 10
394.180208
 20
88.508134
 30
0.0
 11
396.179996
 21
88.508134
 31
0.0
  0
LINE
  5
29D
100
AcDbEntity
  8
0
  6
Continuous
 62
     8
100
AcDbLine
 10
399.180315
 20
88.508134
 30
0.0
 11
409.656322
 21
88.508134
 31
0.0
  0
LINE
  5
29E
100
AcDbEntity
  8
0
  6
Continuous
 62
     8
100
AcDbLine
 10
412.656215
 20
88.508134
 30
0.0
 11
414.656003
 21
88.508134
 31
0.0
  0
LINE
  5
29F
100
AcDbEntity
  8
0
  6
Continuous
 62
     8
100
AcDbLine
 10
417.656322
 20
88.508134
 30
0.0
 11
428.132329
 21
88.508134
 31
0.0
  0
LINE
  5
2A0
100
AcDbEntity
  8
0
  6
Continuous
 62
     8
100
AcDbLine
 10
431.132222
 20
88.508134
 30
0.0
 11
433.13201
 21
88.508134
 31
0.0
  0
LINE
  5
2A1
100
AcDbEntity
  8
0
  6
Continuous
 62
     8
100
AcDbLine
 10
436.132329
 20
88.508134
 30
0.0
 11
446.608336
 21
88.508134
 31
0.0
  0
LINE
  5
2A2
100
AcDbEntity
  8
0
  6
Continuous
 62
     8
100
AcDbLine
 10
449.608229
 20
88.508134
 30
0.0
 11
451.608016
 21
88.508134
 31
0.0
  0
LINE
  5
2A3
100
AcDbEntity
  8
0
  6
Continuous
 62
     8
100
AcDbLine
 10
454.608335
 20
88.508134
 30
0.0
 11
465.084343
 21
88.508134
 31
0.0
  0
LINE
  5
2A4
100
AcDbEntity
  8
0
  6
Continuous
 62
     8
100
AcDbLine
 10
468.084236
 20
88.508134
 30
0.0
 11
470.084023
 21
88.508134
 31
0.0
  0
LINE
  5
2A5
100
AcDbEntity
  8
0
  6
Continuous
 62
     8
100
AcDbLine
 10
473.084342
 20
88.508134
 30
0.0
 11
483.56035
 21
88.508134
 31
0.0
  0
LINE
  5
2A6
100
AcDbEntity
  8
0
  6
Continuous
 62
     8
100
AcDbLine
 10
486.560243
 20
88.508134
 30
0.0
 11
488.56003
 21
88.508134
 31
0.0
  0
LINE
  5
2A7
100
AcDbEntity
  8
0
  6
Continuous
 62
     8
100
AcDbLine
 10
491.560349
 20
88.508134
 30
0.0
 11
502.036357
 21
88.508134
 31
0.0
  0
ENDBLK
  5
2A8
100
AcDbEntity
  8
0
100
AcDbBlockEnd
  0
BLOCK
  5
2AB
100
AcDbEntity
  8
0
100
AcDbBlockBegin
  2
*B43
 70
     0
 10
0.0
 20
0.0
 30
0.0
  3
*B43
  1

  0
LINE
  5
2AC
100
AcDbEntity
  8
0
  6
Continuous
 62
     8
100
AcDbLine
 10
358.627067
 20
401.993805
 30
0.0
 11
358.627067
 21
405.993805
 31
0.0
  0
LINE
  5
2AD
100
AcDbEntity
  8
0
  6
Continuous
 62
     8
100
AcDbLine
 10
358.627067
 20
315.883373
 30
0.0
 11
358.627067
 21
326.7058
 31
0.0
  0
LINE
  5
2AE
100
AcDbEntity
  8
0
  6
Continuous
 62
     8
100
AcDbLine
 10
358.627067
 20
329.705694
 30
0.0
 11
358.627067
 21
331.705481
 31
0.0
  0
LINE
  5
2AF
100
AcDbEntity
  8
0
  6
Continuous
 62
     8
100
AcDbLine
 10
358.627067
 20
334.705374
 30
0.0
 11
358.627067
 21
345.527802
 31
0.0
  0
LINE
  5
2B0
100
AcDbEntity
  8
0
  6
Continuous
 62
     8
100
AcDbLine
 10
358.627067
 20
348.527695
 30
0.0
 11
358.627067
 21
350.527482
 31
0.0
  0
LINE
  5
2B1
100
AcDbEntity
  8
0
  6
Continuous
 62
     8
100
AcDbLine
 10
358.627067
 20
353.527375
 30
0.0
 11
358.627067
 21
364.349803
 31
0.0
  0
LINE
  5
2B2
100
AcDbEntity
  8
0
  6
Continuous
 62
     8
100
AcDbLine
 10
358.627067
 20
367.349696
 30
0.0
 11
358.627067
 21
369.349483
 31
0.0
  0
LINE
  5
2B3
100
AcDbEntity
  8
0
  6
Continuous
 62
     8
100
AcDbLine
 10
358.627067
 20
372.349377
 30
0.0
 11
358.627067
 21
383.171804
 31
0.0
  0
LINE
  5
2B4
100
AcDbEntity
  8
0
  6
Continuous
 62
     8
100
AcDbLine
 10
358.627067
 20
386.171697
 30
0.0
 11
358.627067
 21
388.171484
 31
0.0
  0
LINE
  5
2B5
100
AcDbEntity
  8
0
  6
Continuous
 62
     8
100
AcDbLine
 10
358.627067
 20
391.171803
 30
0.0
 11
358.627067
 21
401.993805
 31
0.0
  0
ENDBLK
  5
2B6
100
AcDbEntity
  8
0
100
AcDbBlockEnd
  0
BLOCK
  5
2B9
100
AcDbEntity
  8
0
100
AcDbBlockBegin
  2
*B44
 70
     0
 10
0.0
 20
0.0
 30
0.0
  3
*B44
  1

  0
LINE
  5
2BA
100
AcDbEntity
  8
0
  6
Continuous
 62
     8
100
AcDbLine
 10
249.553342
 20
242.386622
 30
0.0
 11
249.553342
 21
261.386515
 31
0.0
  0
LINE
  5
2BB
100
AcDbEntity
  8
0
  6
Continuous
 62
     8
100
AcDbLine
 10
249.553342
 20
271.386302
 30
0.0
 11
249.553342
 21
290.386194
 31
0.0
  0
ENDBLK
  5
2BC
100
AcDbEntity
  8
0
100
AcDbBlockEnd
  0
BLOCK
  5
2BF
100
AcDbEntity
  8
0
100
AcDbBlockBegin
  2
*B45
 70
     0
 10
0.0
 20
0.0
 30
0.0
  3
*B45
  1

  0
LINE
  5
2C0
100
AcDbEntity
  8
0
  6
Continuous
 62
     8
100
AcDbLine
 10
327.94423
 20
157.432058
 30
0.0
 11
327.94423
 21
161.506959
 31
0.0
  0
LINE
  5
2C1
100
AcDbEntity
  8
0
  6
Continuous
 62
     8
100
AcDbLine
 10
327.94423
 20
171.507171
 30
0.0
 11
327.94423
 21
175.582073
 31
0.0
  0
ENDBLK
  5
2C2
100
AcDbEntity
  8
0
100
AcDbBlockEnd
  0
BLOCK
  5
2C5
100
AcDbEntity
  8
0
100
AcDbBlockBegin
  2
*B46
 70
     0
 10
0.0
 20
0.0
 30
0.0
  3
*B46
  1

  0
LINE
  5
2C6
100
AcDbEntity
  8
0
  6
Continuous
 62
     8
100
AcDbLine
 10
318.868797
 20
166.507065
 30
0.0
 11
322.944124
 21
166.507065
 31
0.0
  0
LINE
  5
2C7
100
AcDbEntity
  8
0
  6
Continuous
 62
     8
100
AcDbLine
 10
332.94391
 20
166.507065
 30
0.0
 11
337.018812
 21
166.507065
 31
0.0
  0
ENDBLK
  5
2C8
100
AcDbEntity
  8
0
100
AcDbBlockEnd
  0
BLOCK
  5
2CB
100
AcDbEntity
  8
0
100
AcDbBlockBegin
  2
*B47
 70
     0
 10
0.0
 20
0.0
 30
0.0
  3
*B47
  1

  0
LINE
  5
2CC
100
AcDbEntity
  8
0
  6
Continuous
 62
     8
100
AcDbLine
 10
118.03638
 20
112.883066
 30
0.0
 11
138.944135
 21
112.883066
 31
0.0
  0
ENDBLK
  5
2CD
100
AcDbEntity
  8
0
100
AcDbBlockEnd
  0
BLOCK
  5
2D0
100
AcDbEntity
  8
0
100
AcDbBlockBegin
  2
*B48
 70
     0
 10
0.0
 20
0.0
 30
0.0
  3
*B48
  1

  0
LINE
  5
2D1
100
AcDbEntity
  8
0
  6
Continuous
 62
     8
100
AcDbLine
 10
333.944017
 20
154.507066
 30
0.0
 11
340.94391
 21
154.507066
 31
0.0
  0
LINE
  5
2D2
100
AcDbEntity
  8
0
  6
Continuous
 62
     8
100
AcDbLine
 10
350.944122
 20
154.507066
 30
0.0
 11
357.944015
 21
154.507066
 31
0.0
  0
ENDBLK
  5
2D3
100
AcDbEntity
  8
0
100
AcDbBlockEnd
  0
BLOCK
  5
2D6
100
AcDbEntity
  8
0
100
AcDbBlockBegin
  2
*B49
 70
     0
 10
0.0
 20
0.0
 30
0.0
  3
*B49
  1

  0
LINE
  5
2D7
100
AcDbEntity
  8
0
  6
Continuous
 62
     8
100
AcDbLine
 10
375.943801
 20
157.432058
 30
0.0
 11
375.943801
 21
161.506959
 31
0.0
  0
LINE
  5
2D8
100
AcDbEntity
  8
0
  6
Continuous
 62
     8
100
AcDbLine
 10
375.943801
 20
171.507171
 30
0.0
 11
375.943801
 21
175.582073
 31
0.0
  0
ENDBLK
  5
2D9
100
AcDbEntity
  8
0
100
AcDbBlockEnd
  0
BLOCK
  5
2DC
100
AcDbEntity
  8
0
100
AcDbBlockBegin
  2
*B50
 70
     0
 10
0.0
 20
0.0
 30
0.0
  3
*B50
  1

  0
LINE
  5
2DD
100
AcDbEntity
  8
0
  6
Continuous
 62
     8
100
AcDbLine
 10
243.944235
 20
82.508347
 30
0.0
 11
250.944128
 21
82.508347
 31
0.0
  0
LINE
  5
2DE
100
AcDbEntity
  8
0
  6
Continuous
 62
     8
100
AcDbLine
 10
260.943915
 20
82.508347
 30
0.0
 11
267.944233
 21
82.508347
 31
0.0
  0
ENDBLK
  5
2DF
100
AcDbEntity
  8
0
100
AcDbBlockEnd
  0
BLOCK
  5
2E2
100
AcDbEntity
  8
0
100
AcDbBlockBegin
  2
*B51
 70
     0
 10
0.0
 20
0.0
 30
0.0
  3
*B51
  1

  0
LINE
  5
2E3
100
AcDbEntity
  8
0
  6
Continuous
 62
     8
100
AcDbLine
 10
387.943801
 20
82.508347
 30
0.0
 11
394.944119
 21
82.508347
 31
0.0
  0
LINE
  5
2E4
100
AcDbEntity
  8
0
  6
Continuous
 62
     8
100
AcDbLine
 10
404.943906
 20
82.508347
 30
0.0
 11
411.943799
 21
82.508347
 31
0.0
  0
ENDBLK
  5
2E5
100
AcDbEntity
  8
0
100
AcDbBlockEnd
  0
BLOCK
  5
2E8
100
AcDbEntity
  8
0
100
AcDbBlockBegin
  2
*B52
 70
     0
 10
0.0
 20
0.0
 30
0.0
  3
*B52
  1

  0
LINE
  5
2E9
100
AcDbEntity
  8
0
  6
Continuous
 62
     8
100
AcDbLine
 10
273.94402
 20
28.509414
 30
0.0
 11
273.94402
 21
41.009041
 31
0.0
  0
LINE
  5
2EA
100
AcDbEntity
  8
0
  6
Continuous
 62
     8
100
AcDbLine
 10
273.94402
 20
44.008934
 30
0.0
 11
273.94402
 21
46.009147
 31
0.0
  0
LINE
  5
2EB
100
AcDbEntity
  8
0
  6
Continuous
 62
     8
100
AcDbLine
 10
273.94402
 20
49.009041
 30
0.0
 11
273.94402
 21
61.508667
 31
0.0
  0
ENDBLK
  5
2EC
100
AcDbEntity
  8
0
100
AcDbBlockEnd
  0
BLOCK
  5
2EF
100
AcDbEntity
  8
0
100
AcDbBlockBegin
  2
*B53
 70
     0
 10
0.0
 20
0.0
 30
0.0
  3
*B53
  1

  0
LINE
  5
2F0
100
AcDbEntity
  8
0
  6
Continuous
 62
     8
100
AcDbLine
 10
201.553345
 20
302.385768
 30
0.0
 11
220.553237
 21
302.385768
 31
0.0
  0
LINE
  5
2F1
100
AcDbEntity
  8
0
  6
Continuous
 62
     8
100
AcDbLine
 10
230.553449
 20
302.385768
 30
0.0
 11
245.553342
 21
302.385768
 31
0.0
  0
LINE
  5
2F2
100
AcDbEntity
  8
0
  6
Continuous
 62
     8
100
AcDbLine
 10
248.553236
 20
302.385768
 30
0.0
 11
250.553448
 21
302.385768
 31
0.0
  0
LINE
  5
2F3
100
AcDbEntity
  8
0
  6
Continuous
 62
     8
100
AcDbLine
 10
253.553342
 20
302.385768
 30
0.0
 11
268.553234
 21
302.385768
 31
0.0
  0
LINE
  5
2F4
100
AcDbEntity
  8
0
  6
Continuous
 62
     8
100
AcDbLine
 10
278.553447
 20
302.385768
 30
0.0
 11
293.553339
 21
302.385768
 31
0.0
  0
LINE
  5
2F5
100
AcDbEntity
  8
0
  6
Continuous
 62
     8
100
AcDbLine
 10
296.553233
 20
302.385768
 30
0.0
 11
298.553445
 21
302.385768
 31
0.0
  0
LINE
  5
2F6
100
AcDbEntity
  8
0
  6
Continuous
 62
     8
100
AcDbLine
 10
301.553339
 20
302.385768
 30
0.0
 11
316.553231
 21
302.385768
 31
0.0
  0
LINE
  5
2F7
100
AcDbEntity
  8
0
  6
Continuous
 62
     8
100
AcDbLine
 10
326.553444
 20
302.385768
 30
0.0
 11
341.553336
 21
302.385768
 31
0.0
  0
LINE
  5
2F8
100
AcDbEntity
  8
0
  6
Continuous
 62
     8
100
AcDbLine
 10
344.55323
 20
302.385768
 30
0.0
 11
346.553442
 21
302.385768
 31
0.0
  0
LINE
  5
2F9
100
AcDbEntity
  8
0
  6
Continuous
 62
     8
100
AcDbLine
 10
349.553336
 20
302.385768
 30
0.0
 11
364.553229
 21
302.385768
 31
0.0
  0
LINE
  5
2FA
100
AcDbEntity
  8
0
  6
Continuous
 62
     8
100
AcDbLine
 10
374.553441
 20
302.385768
 30
0.0
 11
389.553334
 21
302.385768
 31
0.0
  0
LINE
  5
2FB
100
AcDbEntity
  8
0
  6
Continuous
 62
     8
100
AcDbLine
 10
392.553227
 20
302.385768
 30
0.0
 11
394.55344
 21
302.385768
 31
0.0
  0
LINE
  5
2FC
100
AcDbEntity
  8
0
  6
Continuous
 62
     8
100
AcDbLine
 10
397.553333
 20
302.385768
 30
0.0
 11
412.553226
 21
302.385768
 31
0.0
  0
LINE
  5
2FD
100
AcDbEntity
  8
0
  6
Continuous
 62
     8
100
AcDbLine
 10
422.553438
 20
302.385768
 30
0.0
 11
441.55333
 21
302.385768
 31
0.0
  0
ENDBLK
  5
2FE
100
AcDbEntity
  8
0
100
AcDbBlockEnd
  0
BLOCK
  5
301
100
AcDbEntity
  8
0
100
AcDbBlockBegin
  2
*B54
 70
     0
 10
0.0
 20
0.0
 30
0.0
  3
*B54
  1

  0
LINE
  5
302
100
AcDbEntity
  8
0
  6
Continuous
 62
     8
100
AcDbLine
 10
321.944017
 20
28.509414
 30
0.0
 11
321.944017
 21
41.009041
 31
0.0
  0
LINE
  5
303
100
AcDbEntity
  8
0
  6
Continuous
 62
     8
100
AcDbLine
 10
321.944017
 20
44.008934
 30
0.0
 11
321.944017
 21
46.009147
 31
0.0
  0
LINE
  5
304
100
AcDbEntity
  8
0
  6
Continuous
 62
     8
100
AcDbLine
 10
321.944017
 20
49.009041
 30
0.0
 11
321.944017
 21
61.508667
 31
0.0
  0
ENDBLK
  5
305
100
AcDbEntity
  8
0
100
AcDbBlockEnd
  0
BLOCK
  5
308
100
AcDbEntity
  8
0
100
AcDbBlockBegin
  2
*B55
 70
     0
 10
0.0
 20
0.0
 30
0.0
  3
*B55
  1

  0
LINE
  5
309
100
AcDbEntity
  8
0
  6
Continuous
 62
     8
100
AcDbLine
 10
201.553345
 20
242.386622
 30
0.0
 11
201.553345
 21
261.386515
 31
0.0
  0
LINE
  5
30A
100
AcDbEntity
  8
0
  6
Continuous
 62
     8
100
AcDbLine
 10
201.553345
 20
271.386302
 30
0.0
 11
201.553345
 21
290.386194
 31
0.0
  0
ENDBLK
  5
30B
100
AcDbEntity
  8
0
100
AcDbBlockEnd
  0
BLOCK
  5
30E
100
AcDbEntity
  8
0
100
AcDbBlockBegin
  2
*B56
 70
     0
 10
0.0
 20
0.0
 30
0.0
  3
*B56
  1

  0
LINE
  5
30F
100
AcDbEntity
  8
0
  6
Continuous
 62
     8
100
AcDbLine
 10
351.943803
 20
70.508773
 30
0.0
 11
351.943803
 21
77.508667
 31
0.0
  0
LINE
  5
310
100
AcDbEntity
  8
0
  6
Continuous
 62
     8
100
AcDbLine
 10
351.943803
 20
87.508453
 30
0.0
 11
351.943803
 21
94.508346
 31
0.0
  0
ENDBLK
  5
311
100
AcDbEntity
  8
0
100
AcDbBlockEnd
  0
BLOCK
  5
314
100
AcDbEntity
  8
0
100
AcDbBlockBegin
  2
*B57
 70
     0
 10
0.0
 20
0.0
 30
0.0
  3
*B57
  1

  0
LINE
  5
315
100
AcDbEntity
  8
0
  6
Continuous
 62
     8
100
AcDbLine
 10
249.944022
 20
142.507492
 30
0.0
 11
249.944022
 21
149.507385
 31
0.0
  0
LINE
  5
316
100
AcDbEntity
  8
0
  6
Continuous
 62
     8
100
AcDbLine
 10
249.944022
 20
159.507172
 30
0.0
 11
249.944022
 21
166.507065
 31
0.0
  0
ENDBLK
  5
317
100
AcDbEntity
  8
0
100
AcDbBlockEnd
  0
BLOCK
  5
31A
100
AcDbEntity
  8
0
100
AcDbBlockBegin
  2
*B58
 70
     0
 10
0.0
 20
0.0
 30
0.0
  3
*B58
  1

  0
LINE
  5
31B
100
AcDbEntity
  8
0
  6
Continuous
 62
     8
100
AcDbLine
 10
303.943806
 20
178.507065
 30
0.0
 11
310.944124
 21
178.507065
 31
0.0
  0
LINE
  5
31C
100
AcDbEntity
  8
0
  6
Continuous
 62
     8
100
AcDbLine
 10
320.943911
 20
178.507065
 30
0.0
 11
327.94423
 21
178.507065
 31
0.0
  0
ENDBLK
  5
31D
100
AcDbEntity
  8
0
100
AcDbBlockEnd
  0
BLOCK
  5
320
100
AcDbEntity
  8
0
100
AcDbBlockBegin
  2
*B59
 70
     0
 10
0.0
 20
0.0
 30
0.0
  3
*B59
  1

  0
LINE
  5
321
100
AcDbEntity
  8
0
  6
Continuous
 62
     8
100
AcDbLine
 10
369.944015
 20
94.508346
 30
0.0
 11
369.944015
 21
101.50824
 31
0.0
  0
LINE
  5
322
100
AcDbEntity
  8
0
  6
Continuous
 62
     8
100
AcDbLine
 10
369.944015
 20
111.508026
 30
0.0
 11
369.944015
 21
118.507919
 31
0.0
  0
ENDBLK
  5
323
100
AcDbEntity
  8
0
100
AcDbBlockEnd
  0
BLOCK
  5
326
100
AcDbEntity
  8
0
100
AcDbBlockBegin
  2
*B60
 70
     0
 10
0.0
 20
0.0
 30
0.0
  3
*B60
  1

  0
LINE
  5
327
100
AcDbEntity
  8
0
  6
Continuous
 62
     8
100
AcDbLine
 10
369.553335
 20
278.386195
 30
0.0
 11
369.553335
 21
297.386087
 31
0.0
  0
LINE
  5
328
100
AcDbEntity
  8
0
  6
Continuous
 62
     8
100
AcDbLine
 10
369.553335
 20
307.385874
 30
0.0
 11
369.553335
 21
326.385341
 31
0.0
  0
ENDBLK
  5
329
100
AcDbEntity
  8
0
100
AcDbBlockEnd
  0
BLOCK
  5
32C
100
AcDbEntity
  8
0
100
AcDbBlockBegin
  2
*B61
 70
     0
 10
0.0
 20
0.0
 30
0.0
  3
*B61
  1

  0
LINE
  5
32D
100
AcDbEntity
  8
0
  6
Continuous
 62
     8
100
AcDbLine
 10
417.944012
 20
28.509414
 30
0.0
 11
417.944012
 21
41.009041
 31
0.0
  0
LINE
  5
32E
100
AcDbEntity
  8
0
  6
Continuous
 62
     8
100
AcDbLine
 10
417.944012
 20
44.008934
 30
0.0
 11
417.944012
 21
46.009147
 31
0.0
  0
LINE
  5
32F
100
AcDbEntity
  8
0
  6
Continuous
 62
     8
100
AcDbLine
 10
417.944012
 20
49.009041
 30
0.0
 11
417.944012
 21
61.508667
 31
0.0
  0
ENDBLK
  5
330
100
AcDbEntity
  8
0
100
AcDbBlockEnd
  0
BLOCK
  5
333
100
AcDbEntity
  8
0
100
AcDbBlockBegin
  2
*B62
 70
     0
 10
0.0
 20
0.0
 30
0.0
  3
*B62
  1

  0
LINE
  5
334
100
AcDbEntity
  8
0
  6
Continuous
 62
     8
100
AcDbLine
 10
315.944231
 20
166.507065
 30
0.0
 11
315.944231
 21
173.506958
 31
0.0
  0
LINE
  5
335
100
AcDbEntity
  8
0
  6
Continuous
 62
     8
100
AcDbLine
 10
315.944231
 20
183.506745
 30
0.0
 11
315.944231
 21
190.506638
 31
0.0
  0
ENDBLK
  5
336
100
AcDbEntity
  8
0
100
AcDbBlockEnd
  0
BLOCK
  5
339
100
AcDbEntity
  8
0
100
AcDbBlockBegin
  2
*B63
 70
     0
 10
0.0
 20
0.0
 30
0.0
  3
*B63
  1

  0
LINE
  5
33A
100
AcDbEntity
  8
0
  6
Continuous
 62
     8
100
AcDbLine
 10
189.944025
 20
154.507066
 30
0.0
 11
196.943918
 21
154.507066
 31
0.0
  0
LINE
  5
33B
100
AcDbEntity
  8
0
  6
Continuous
 62
     8
100
AcDbLine
 10
206.944131
 20
154.507066
 30
0.0
 11
213.944024
 21
154.507066
 31
0.0
  0
ENDBLK
  5
33C
100
AcDbEntity
  8
0
100
AcDbBlockEnd
  0
BLOCK
  5
33F
100
AcDbEntity
  8
0
100
AcDbBlockBegin
  2
*B64
 70
     0
 10
0.0
 20
0.0
 30
0.0
  3
*B64
  1

  0
LINE
  5
340
100
AcDbEntity
  8
0
  6
Continuous
 62
     8
100
AcDbLine
 10
225.553343
 20
278.386195
 30
0.0
 11
225.553343
 21
297.386087
 31
0.0
  0
LINE
  5
341
100
AcDbEntity
  8
0
  6
Continuous
 62
     8
100
AcDbLine
 10
225.553343
 20
307.385874
 30
0.0
 11
225.553343
 21
326.385341
 31
0.0
  0
ENDBLK
  5
342
100
AcDbEntity
  8
0
100
AcDbBlockEnd
  0
BLOCK
  5
345
100
AcDbEntity
  8
0
100
AcDbBlockBegin
  2
*B65
 70
     0
 10
0.0
 20
0.0
 30
0.0
  3
*B65
  1

  0
LINE
  5
346
100
AcDbEntity
  8
0
  6
Continuous
 62
     8
100
AcDbLine
 10
213.944024
 20
217.996795
 30
0.0
 11
213.944024
 21
221.996795
 31
0.0
  0
LINE
  5
347
100
AcDbEntity
  8
0
  6
Continuous
 62
     8
100
AcDbLine
 10
213.944024
 20
118.507919
 30
0.0
 11
213.944024
 21
125.507813
 31
0.0
  0
LINE
  5
348
100
AcDbEntity
  8
0
  6
Continuous
 62
     8
100
AcDbLine
 10
213.944024
 20
135.507599
 30
0.0
 11
213.944024
 21
145.605268
 31
0.0
  0
LINE
  5
349
100
AcDbEntity
  8
0
  6
Continuous
 62
     8
100
AcDbLine
 10
213.944024
 20
148.605587
 30
0.0
 11
213.944024
 21
150.605375
 31
0.0
  0
LINE
  5
34A
100
AcDbEntity
  8
0
  6
Continuous
 62
     8
100
AcDbLine
 10
213.944024
 20
153.605268
 30
0.0
 11
213.944024
 21
163.703363
 31
0.0
  0
LINE
  5
34B
100
AcDbEntity
  8
0
  6
Continuous
 62
     8
100
AcDbLine
 10
213.944024
 20
166.703256
 30
0.0
 11
213.944024
 21
168.703043
 31
0.0
  0
LINE
  5
34C
100
AcDbEntity
  8
0
  6
Continuous
 62
     8
100
AcDbLine
 10
213.944024
 20
171.703362
 30
0.0
 11
213.944024
 21
181.801032
 31
0.0
  0
LINE
  5
34D
100
AcDbEntity
  8
0
  6
Continuous
 62
     8
100
AcDbLine
 10
213.944024
 20
184.800925
 30
0.0
 11
213.944024
 21
186.801138
 31
0.0
  0
LINE
  5
34E
100
AcDbEntity
  8
0
  6
Continuous
 62
     8
100
AcDbLine
 10
213.944024
 20
189.801031
 30
0.0
 11
213.944024
 21
199.898701
 31
0.0
  0
LINE
  5
34F
100
AcDbEntity
  8
0
  6
Continuous
 62
     8
100
AcDbLine
 10
213.944024
 20
202.89902
 30
0.0
 11
213.944024
 21
204.898807
 31
0.0
  0
LINE
  5
350
100
AcDbEntity
  8
0
  6
Continuous
 62
     8
100
AcDbLine
 10
213.944024
 20
207.8987
 30
0.0
 11
213.944024
 21
217.996795
 31
0.0
  0
ENDBLK
  5
351
100
AcDbEntity
  8
0
100
AcDbBlockEnd
  0
BLOCK
  5
354
100
AcDbEntity
  8
0
100
AcDbBlockBegin
  2
*B66
 70
     0
 10
0.0
 20
0.0
 30
0.0
  3
*B66
  1

  0
LINE
  5
355
100
AcDbEntity
  8
0
  6
Continuous
 62
     8
100
AcDbLine
 10
309.944018
 20
217.996795
 30
0.0
 11
309.944018
 21
221.996795
 31
0.0
  0
LINE
  5
356
100
AcDbEntity
  8
0
  6
Continuous
 62
     8
100
AcDbLine
 10
309.944018
 20
118.507919
 30
0.0
 11
309.944018
 21
125.507813
 31
0.0
  0
LINE
  5
357
100
AcDbEntity
  8
0
  6
Continuous
 62
     8
100
AcDbLine
 10
309.944018
 20
135.507599
 30
0.0
 11
309.944018
 21
145.605268
 31
0.0
  0
LINE
  5
358
100
AcDbEntity
  8
0
  6
Continuous
 62
     8
100
AcDbLine
 10
309.944018
 20
148.605587
 30
0.0
 11
309.944018
 21
150.605375
 31
0.0
  0
LINE
  5
359
100
AcDbEntity
  8
0
  6
Continuous
 62
     8
100
AcDbLine
 10
309.944018
 20
153.605268
 30
0.0
 11
309.944018
 21
163.703363
 31
0.0
  0
LINE
  5
35A
100
AcDbEntity
  8
0
  6
Continuous
 62
     8
100
AcDbLine
 10
309.944018
 20
166.703256
 30
0.0
 11
309.944018
 21
168.703043
 31
0.0
  0
LINE
  5
35B
100
AcDbEntity
  8
0
  6
Continuous
 62
     8
100
AcDbLine
 10
309.944018
 20
171.703362
 30
0.0
 11
309.944018
 21
181.801032
 31
0.0
  0
LINE
  5
35C
100
AcDbEntity
  8
0
  6
Continuous
 62
     8
100
AcDbLine
 10
309.944018
 20
184.800925
 30
0.0
 11
309.944018
 21
186.801138
 31
0.0
  0
LINE
  5
35D
100
AcDbEntity
  8
0
  6
Continuous
 62
     8
100
AcDbLine
 10
309.944018
 20
189.801031
 30
0.0
 11
309.944018
 21
199.898701
 31
0.0
  0
LINE
  5
35E
100
AcDbEntity
  8
0
  6
Continuous
 62
     8
100
AcDbLine
 10
309.944018
 20
202.89902
 30
0.0
 11
309.944018
 21
204.898807
 31
0.0
  0
LINE
  5
35F
100
AcDbEntity
  8
0
  6
Continuous
 62
     8
100
AcDbLine
 10
309.944018
 20
207.8987
 30
0.0
 11
309.944018
 21
217.996795
 31
0.0
  0
ENDBLK
  5
360
100
AcDbEntity
  8
0
100
AcDbBlockEnd
  0
BLOCK
  5
363
100
AcDbEntity
  8
0
100
AcDbBlockBegin
  2
*B67
 70
     0
 10
0.0
 20
0.0
 30
0.0
  3
*B67
  1

  0
LINE
  5
364
100
AcDbEntity
  8
0
  6
Continuous
 62
     8
100
AcDbLine
 10
255.944234
 20
178.507065
 30
0.0
 11
262.944127
 21
178.507065
 31
0.0
  0
LINE
  5
365
100
AcDbEntity
  8
0
  6
Continuous
 62
     8
100
AcDbLine
 10
272.943914
 20
178.507065
 30
0.0
 11
279.944233
 21
178.507065
 31
0.0
  0
ENDBLK
  5
366
100
AcDbEntity
  8
0
100
AcDbBlockEnd
  0
BLOCK
  5
369
100
AcDbEntity
  8
0
100
AcDbBlockBegin
  2
*B68
 70
     0
 10
0.0
 20
0.0
 30
0.0
  3
*B68
  1

  0
LINE
  5
36A
100
AcDbEntity
  8
0
  6
Continuous
 62
     8
100
AcDbLine
 10
399.9438
 20
70.508773
 30
0.0
 11
399.9438
 21
77.508667
 31
0.0
  0
LINE
  5
36B
100
AcDbEntity
  8
0
  6
Continuous
 62
     8
100
AcDbLine
 10
399.9438
 20
87.508453
 30
0.0
 11
399.9438
 21
94.508346
 31
0.0
  0
ENDBLK
  5
36C
100
AcDbEntity
  8
0
100
AcDbBlockEnd
  0
BLOCK
  5
36F
100
AcDbEntity
  8
0
100
AcDbBlockBegin
  2
*B69
 70
     0
 10
0.0
 20
0.0
 30
0.0
  3
*B69
  1

  0
LINE
  5
370
100
AcDbEntity
  8
0
  6
Continuous
 62
     8
100
AcDbLine
 10
261.944021
 20
106.50792
 30
0.0
 11
268.943914
 21
106.50792
 31
0.0
  0
LINE
  5
371
100
AcDbEntity
  8
0
  6
Continuous
 62
     8
100
AcDbLine
 10
278.944126
 20
106.50792
 30
0.0
 11
285.94402
 21
106.50792
 31
0.0
  0
ENDBLK
  5
372
100
AcDbEntity
  8
0
100
AcDbBlockEnd
  0
BLOCK
  5
375
100
AcDbEntity
  8
0
100
AcDbBlockBegin
  2
*B70
 70
     0
 10
0.0
 20
0.0
 30
0.0
  3
*B70
  1

  0
LINE
  5
376
100
AcDbEntity
  8
0
  6
Continuous
 62
     8
100
AcDbLine
 10
405.944012
 20
106.50792
 30
0.0
 11
412.943906
 21
106.50792
 31
0.0
  0
LINE
  5
377
100
AcDbEntity
  8
0
  6
Continuous
 62
     8
100
AcDbLine
 10
422.944118
 20
106.50792
 30
0.0
 11
429.944011
 21
106.50792
 31
0.0
  0
ENDBLK
  5
378
100
AcDbEntity
  8
0
100
AcDbBlockEnd
  0
BLOCK
  5
37B
100
AcDbEntity
  8
0
100
AcDbBlockBegin
  2
*B71
 70
     0
 10
0.0
 20
0.0
 30
0.0
  3
*B71
  1

  0
LINE
  5
37C
100
AcDbEntity
  8
0
  6
Continuous
 62
     8
100
AcDbLine
 10
480.943902
 20
55.508881
 30
0.0
 11
530.036355
 21
55.508881
 31
0.0
  0
ENDBLK
  5
37D
100
AcDbEntity
  8
0
100
AcDbBlockEnd
  0
BLOCK
  5
380
100
AcDbEntity
  8
0
100
AcDbBlockBegin
  2
*B72
 70
     0
 10
0.0
 20
0.0
 30
0.0
  3
*B72
  1

  0
LINE
  5
381
100
AcDbEntity
  8
0
  6
Continuous
 62
     8
100
AcDbLine
 10
94.036381
 20
166.507065
 30
0.0
 11
98.036381
 21
166.507065
 31
0.0
  0
LINE
  5
382
100
AcDbEntity
  8
0
  6
Continuous
 62
     8
100
AcDbLine
 10
98.036381
 20
166.507065
 30
0.0
 11
109.594631
 21
166.507065
 31
0.0
  0
LINE
  5
383
100
AcDbEntity
  8
0
  6
Continuous
 62
     8
100
AcDbLine
 10
112.594525
 20
166.507065
 30
0.0
 11
114.594737
 21
166.507065
 31
0.0
  0
LINE
  5
384
100
AcDbEntity
  8
0
  6
Continuous
 62
     8
100
AcDbLine
 10
117.594631
 20
166.507065
 30
0.0
 11
129.152881
 21
166.507065
 31
0.0
  0
LINE
  5
385
100
AcDbEntity
  8
0
  6
Continuous
 62
     8
100
AcDbLine
 10
132.152774
 20
166.507065
 30
0.0
 11
134.152987
 21
166.507065
 31
0.0
  0
LINE
  5
386
100
AcDbEntity
  8
0
  6
Continuous
 62
     8
100
AcDbLine
 10
137.15288
 20
166.507065
 30
0.0
 11
148.711131
 21
166.507065
 31
0.0
  0
LINE
  5
387
100
AcDbEntity
  8
0
  6
Continuous
 62
     8
100
AcDbLine
 10
151.711024
 20
166.507065
 30
0.0
 11
153.711237
 21
166.507065
 31
0.0
  0
LINE
  5
388
100
AcDbEntity
  8
0
  6
Continuous
 62
     8
100
AcDbLine
 10
156.71113
 20
166.507065
 30
0.0
 11
168.26938
 21
166.507065
 31
0.0
  0
LINE
  5
389
100
AcDbEntity
  8
0
  6
Continuous
 62
     8
100
AcDbLine
 10
171.269274
 20
166.507065
 30
0.0
 11
173.269486
 21
166.507065
 31
0.0
  0
LINE
  5
38A
100
AcDbEntity
  8
0
  6
Continuous
 62
     8
100
AcDbLine
 10
176.26938
 20
166.507065
 30
0.0
 11
187.82763
 21
166.507065
 31
0.0
  0
LINE
  5
38B
100
AcDbEntity
  8
0
  6
Continuous
 62
     8
100
AcDbLine
 10
190.827523
 20
166.507065
 30
0.0
 11
192.827736
 21
166.507065
 31
0.0
  0
LINE
  5
38C
100
AcDbEntity
  8
0
  6
Continuous
 62
     8
100
AcDbLine
 10
195.82763
 20
166.507065
 30
0.0
 11
207.38588
 21
166.507065
 31
0.0
  0
LINE
  5
38D
100
AcDbEntity
  8
0
  6
Continuous
 62
     8
100
AcDbLine
 10
210.385773
 20
166.507065
 30
0.0
 11
212.385986
 21
166.507065
 31
0.0
  0
LINE
  5
38E
100
AcDbEntity
  8
0
  6
Continuous
 62
     8
100
AcDbLine
 10
215.385879
 20
166.507065
 30
0.0
 11
226.944129
 21
166.507065
 31
0.0
  0
LINE
  5
38F
100
AcDbEntity
  8
0
  6
Continuous
 62
     8
100
AcDbLine
 10
236.943916
 20
166.507065
 30
0.0
 11
241.019243
 21
166.507065
 31
0.0
  0
ENDBLK
  5
390
100
AcDbEntity
  8
0
100
AcDbBlockEnd
  0
BLOCK
  5
393
100
AcDbEntity
  8
0
100
AcDbBlockBegin
  2
*B73
 70
     0
 10
0.0
 20
0.0
 30
0.0
  3
*B73
  1

  0
LINE
  5
394
100
AcDbEntity
  8
0
  6
Continuous
 62
     8
100
AcDbLine
 10
118.03638
 20
148.132346
 30
0.0
 11
138.944135
 21
148.132346
 31
0.0
  0
ENDBLK
  5
395
100
AcDbEntity
  8
0
100
AcDbBlockEnd
  0
BLOCK
  5
398
100
AcDbEntity
  8
0
100
AcDbBlockBegin
  2
*B74
 70
     0
 10
0.0
 20
0.0
 30
0.0
  3
*B74
  1

  0
LINE
  5
399
100
AcDbEntity
  8
0
  6
Continuous
 62
     8
100
AcDbLine
 10
195.944238
 20
9.999787
 30
0.0
 11
195.944238
 21
13.999786
 31
0.0
  0
LINE
  5
39A
100
AcDbEntity
  8
0
  6
Continuous
 62
     8
100
AcDbLine
 10
195.944238
 20
13.999786
 30
0.0
 11
195.944238
 21
26.8769
 31
0.0
  0
LINE
  5
39B
100
AcDbEntity
  8
0
  6
Continuous
 62
     8
100
AcDbLine
 10
195.944238
 20
29.877219
 30
0.0
 11
195.944238
 21
31.877006
 31
0.0
  0
LINE
  5
39C
100
AcDbEntity
  8
0
  6
Continuous
 62
     8
100
AcDbLine
 10
195.944238
 20
34.8769
 30
0.0
 11
195.944238
 21
47.754014
 31
0.0
  0
LINE
  5
39D
100
AcDbEntity
  8
0
  6
Continuous
 62
     8
100
AcDbLine
 10
195.944238
 20
50.754333
 30
0.0
 11
195.944238
 21
52.75412
 31
0.0
  0
LINE
  5
39E
100
AcDbEntity
  8
0
  6
Continuous
 62
     8
100
AcDbLine
 10
195.944238
 20
55.754013
 30
0.0
 11
195.944238
 21
68.631127
 31
0.0
  0
LINE
  5
39F
100
AcDbEntity
  8
0
  6
Continuous
 62
     8
100
AcDbLine
 10
195.944238
 20
71.63102
 30
0.0
 11
195.944238
 21
73.631233
 31
0.0
  0
LINE
  5
3A0
100
AcDbEntity
  8
0
  6
Continuous
 62
     8
100
AcDbLine
 10
195.944238
 20
76.631126
 30
0.0
 11
195.944238
 21
89.50824
 31
0.0
  0
LINE
  5
3A1
100
AcDbEntity
  8
0
  6
Continuous
 62
     8
100
AcDbLine
 10
195.944238
 20
99.508027
 30
0.0
 11
195.944238
 21
103.582928
 31
0.0
  0
ENDBLK
  5
3A2
100
AcDbEntity
  8
0
100
AcDbBlockEnd
  0
BLOCK
  5
3A5
100
AcDbEntity
  8
0
100
AcDbBlockBegin
  2
*B75
 70
     0
 10
0.0
 20
0.0
 30
0.0
  3
*B75
  1

  0
LINE
  5
3A6
100
AcDbEntity
  8
0
  6
Continuous
 62
     8
100
AcDbLine
 10
282.869225
 20
94.508346
 30
0.0
 11
286.944126
 21
94.508346
 31
0.0
  0
LINE
  5
3A7
100
AcDbEntity
  8
0
  6
Continuous
 62
     8
100
AcDbLine
 10
296.943913
 20
94.508346
 30
0.0
 11
301.018814
 21
94.508346
 31
0.0
  0
ENDBLK
  5
3A8
100
AcDbEntity
  8
0
100
AcDbBlockEnd
  0
BLOCK
  5
3AB
100
AcDbEntity
  8
0
100
AcDbBlockBegin
  2
*B76
 70
     0
 10
0.0
 20
0.0
 30
0.0
  3
*B76
  1

  0
LINE
  5
3AC
100
AcDbEntity
  8
0
  6
Continuous
 62
     8
100
AcDbLine
 10
255.944234
 20
70.508773
 30
0.0
 11
255.944234
 21
77.508667
 31
0.0
  0
LINE
  5
3AD
100
AcDbEntity
  8
0
  6
Continuous
 62
     8
100
AcDbLine
 10
255.944234
 20
87.508453
 30
0.0
 11
255.944234
 21
94.508346
 31
0.0
  0
ENDBLK
  5
3AE
100
AcDbEntity
  8
0
100
AcDbBlockEnd
  0
BLOCK
  5
3B1
100
AcDbEntity
  8
0
100
AcDbBlockBegin
  2
*B77
 70
     0
 10
0.0
 20
0.0
 30
0.0
  3
*B77
  1

  0
LINE
  5
3B2
100
AcDbEntity
  8
0
  6
Continuous
 62
     8
100
AcDbLine
 10
114.03638
 20
387.882092
 30
0.0
 11
187.627183
 21
387.882092
 31
0.0
  0
ENDBLK
  5
3B3
100
AcDbEntity
  8
0
100
AcDbBlockEnd
  0
BLOCK
  5
3B6
100
AcDbEntity
  8
0
100
AcDbBlockBegin
  2
*B78
 70
     0
 10
0.0
 20
0.0
 30
0.0
  3
*B78
  1

  0
LINE
  5
3B7
100
AcDbEntity
  8
0
  6
Continuous
 62
     8
100
AcDbLine
 10
270.869225
 20
166.507065
 30
0.0
 11
274.944127
 21
166.507065
 31
0.0
  0
LINE
  5
3B8
100
AcDbEntity
  8
0
  6
Continuous
 62
     8
100
AcDbLine
 10
284.943913
 20
166.507065
 30
0.0
 11
289.01924
 21
166.507065
 31
0.0
  0
ENDBLK
  5
3B9
100
AcDbEntity
  8
0
100
AcDbBlockEnd
  0
BLOCK
  5
3BC
100
AcDbEntity
  8
0
100
AcDbBlockBegin
  2
*B79
 70
     0
 10
0.0
 20
0.0
 30
0.0
  3
*B79
  1

  0
LINE
  5
3BD
100
AcDbEntity
  8
0
  6
Continuous
 62
     8
100
AcDbLine
 10
414.868791
 20
166.507065
 30
0.0
 11
418.944118
 21
166.507065
 31
0.0
  0
LINE
  5
3BE
100
AcDbEntity
  8
0
  6
Continuous
 62
     8
100
AcDbLine
 10
428.943905
 20
166.507065
 30
0.0
 11
433.018806
 21
166.507065
 31
0.0
  0
ENDBLK
  5
3BF
100
AcDbEntity
  8
0
100
AcDbBlockEnd
  0
BLOCK
  5
3C2
100
AcDbEntity
  8
0
100
AcDbBlockBegin
  2
*B80
 70
     0
 10
0.0
 20
0.0
 30
0.0
  3
*B80
  1

  0
LINE
  5
3C3
100
AcDbEntity
  8
0
  6
Continuous
 62
     8
100
AcDbLine
 10
165.944027
 20
9.999787
 30
0.0
 11
165.944027
 21
13.999786
 31
0.0
  0
LINE
  5
3C4
100
AcDbEntity
  8
0
  6
Continuous
 62
     8
100
AcDbLine
 10
165.944027
 20
13.999786
 30
0.0
 11
165.944027
 21
25.377166
 31
0.0
  0
LINE
  5
3C5
100
AcDbEntity
  8
0
  6
Continuous
 62
     8
100
AcDbLine
 10
165.944027
 20
28.37706
 30
0.0
 11
165.944027
 21
30.376847
 31
0.0
  0
LINE
  5
3C6
100
AcDbEntity
  8
0
  6
Continuous
 62
     8
100
AcDbLine
 10
165.944027
 20
33.377166
 30
0.0
 11
165.944027
 21
44.75412
 31
0.0
  0
LINE
  5
3C7
100
AcDbEntity
  8
0
  6
Continuous
 62
     8
100
AcDbLine
 10
165.944027
 20
47.754014
 30
0.0
 11
165.944027
 21
49.754226
 31
0.0
  0
LINE
  5
3C8
100
AcDbEntity
  8
0
  6
Continuous
 62
     8
100
AcDbLine
 10
165.944027
 20
52.75412
 30
0.0
 11
165.944027
 21
64.1315
 31
0.0
  0
LINE
  5
3C9
100
AcDbEntity
  8
0
  6
Continuous
 62
     8
100
AcDbLine
 10
165.944027
 20
67.131393
 30
0.0
 11
165.944027
 21
69.13118
 31
0.0
  0
LINE
  5
3CA
100
AcDbEntity
  8
0
  6
Continuous
 62
     8
100
AcDbLine
 10
165.944027
 20
72.131073
 30
0.0
 11
165.944027
 21
83.508453
 31
0.0
  0
LINE
  5
3CB
100
AcDbEntity
  8
0
  6
Continuous
 62
     8
100
AcDbLine
 10
165.944027
 20
93.50824
 30
0.0
 11
165.944027
 21
101.258
 31
0.0
  0
ENDBLK
  5
3CC
100
AcDbEntity
  8
0
100
AcDbBlockEnd
  0
BLOCK
  5
3CF
100
AcDbEntity
  8
0
100
AcDbBlockBegin
  2
*B81
 70
     0
 10
0.0
 20
0.0
 30
0.0
  3
*B81
  1

  0
LINE
  5
3D0
100
AcDbEntity
  8
0
  6
Continuous
 62
     8
100
AcDbLine
 10
225.944023
 20
94.508346
 30
0.0
 11
225.944023
 21
101.50824
 31
0.0
  0
LINE
  5
3D1
100
AcDbEntity
  8
0
  6
Continuous
 62
     8
100
AcDbLine
 10
225.944023
 20
111.508026
 30
0.0
 11
225.944023
 21
118.507919
 31
0.0
  0
ENDBLK
  5
3D2
100
AcDbEntity
  8
0
100
AcDbBlockEnd
  0
BLOCK
  5
3D5
100
AcDbEntity
  8
0
100
AcDbBlockBegin
  2
*B82
 70
     0
 10
0.0
 20
0.0
 30
0.0
  3
*B82
  1

  0
LINE
  5
3D6
100
AcDbEntity
  8
0
  6
Continuous
 62
     8
100
AcDbLine
 10
330.869222
 20
94.508346
 30
0.0
 11
334.944123
 21
94.508346
 31
0.0
  0
LINE
  5
3D7
100
AcDbEntity
  8
0
  6
Continuous
 62
     8
100
AcDbLine
 10
344.94391
 20
94.508346
 30
0.0
 11
349.018811
 21
94.508346
 31
0.0
  0
ENDBLK
  5
3D8
100
AcDbEntity
  8
0
100
AcDbBlockEnd
  0
BLOCK
  5
3DB
100
AcDbEntity
  8
0
100
AcDbBlockBegin
  2
*B83
 70
     0
 10
0.0
 20
0.0
 30
0.0
  3
*B83
  1

  0
LINE
  5
3DC
100
AcDbEntity
  8
0
  6
Continuous
 62
     8
100
AcDbLine
 10
243.944235
 20
85.433339
 30
0.0
 11
243.944235
 21
89.50824
 31
0.0
  0
LINE
  5
3DD
100
AcDbEntity
  8
0
  6
Continuous
 62
     8
100
AcDbLine
 10
243.944235
 20
99.508027
 30
0.0
 11
243.944235
 21
103.582928
 31
0.0
  0
ENDBLK
  5
3DE
100
AcDbEntity
  8
0
100
AcDbBlockEnd
  0
BLOCK
  5
3E1
100
AcDbEntity
  8
0
100
AcDbBlockBegin
  2
*B84
 70
     0
 10
0.0
 20
0.0
 30
0.0
  3
*B84
  1

  0
LINE
  5
3E2
100
AcDbEntity
  8
0
  6
Continuous
 62
     8
100
AcDbLine
 10
291.944232
 20
85.433339
 30
0.0
 11
291.944232
 21
89.50824
 31
0.0
  0
LINE
  5
3E3
100
AcDbEntity
  8
0
  6
Continuous
 62
     8
100
AcDbLine
 10
291.944232
 20
99.508027
 30
0.0
 11
291.944232
 21
103.582928
 31
0.0
  0
ENDBLK
  5
3E4
100
AcDbEntity
  8
0
100
AcDbBlockEnd
  0
BLOCK
  5
3E7
100
AcDbEntity
  8
0
100
AcDbBlockBegin
  2
*B85
 70
     0
 10
0.0
 20
0.0
 30
0.0
  3
*B85
  1

  0
LINE
  5
3E8
100
AcDbEntity
  8
0
  6
Continuous
 62
     8
100
AcDbLine
 10
321.944017
 20
94.508346
 30
0.0
 11
321.944017
 21
101.50824
 31
0.0
  0
LINE
  5
3E9
100
AcDbEntity
  8
0
  6
Continuous
 62
     8
100
AcDbLine
 10
321.944017
 20
111.508026
 30
0.0
 11
321.944017
 21
118.507919
 31
0.0
  0
ENDBLK
  5
3EA
100
AcDbEntity
  8
0
100
AcDbBlockEnd
  0
BLOCK
  5
3ED
100
AcDbEntity
  8
0
100
AcDbBlockBegin
  2
*B86
 70
     0
 10
0.0
 20
0.0
 30
0.0
  3
*B86
  1

  0
LINE
  5
3EE
100
AcDbEntity
  8
0
  6
Continuous
 62
     8
100
AcDbLine
 10
219.944236
 20
166.507065
 30
0.0
 11
219.944236
 21
173.506958
 31
0.0
  0
LINE
  5
3EF
100
AcDbEntity
  8
0
  6
Continuous
 62
     8
100
AcDbLine
 10
219.944236
 20
183.506745
 30
0.0
 11
219.944236
 21
190.506638
 31
0.0
  0
ENDBLK
  5
3F0
100
AcDbEntity
  8
0
100
AcDbBlockEnd
  0
BLOCK
  5
3F3
100
AcDbEntity
  8
0
100
AcDbBlockBegin
  2
*B87
 70
     0
 10
0.0
 20
0.0
 30
0.0
  3
*B87
  1

  0
LINE
  5
3F4
100
AcDbEntity
  8
0
  6
Continuous
 62
     8
100
AcDbLine
 10
177.553346
 20
266.386195
 30
0.0
 11
196.553239
 21
266.386195
 31
0.0
  0
LINE
  5
3F5
100
AcDbEntity
  8
0
  6
Continuous
 62
     8
100
AcDbLine
 10
206.553451
 20
266.386195
 30
0.0
 11
221.553344
 21
266.386195
 31
0.0
  0
LINE
  5
3F6
100
AcDbEntity
  8
0
  6
Continuous
 62
     8
100
AcDbLine
 10
224.553237
 20
266.386195
 30
0.0
 11
226.55345
 21
266.386195
 31
0.0
  0
LINE
  5
3F7
100
AcDbEntity
  8
0
  6
Continuous
 62
     8
100
AcDbLine
 10
229.553343
 20
266.386195
 30
0.0
 11
244.553236
 21
266.386195
 31
0.0
  0
LINE
  5
3F8
100
AcDbEntity
  8
0
  6
Continuous
 62
     8
100
AcDbLine
 10
254.553448
 20
266.386195
 30
0.0
 11
269.553341
 21
266.386195
 31
0.0
  0
LINE
  5
3F9
100
AcDbEntity
  8
0
  6
Continuous
 62
     8
100
AcDbLine
 10
272.553234
 20
266.386195
 30
0.0
 11
274.553447
 21
266.386195
 31
0.0
  0
LINE
  5
3FA
100
AcDbEntity
  8
0
  6
Continuous
 62
     8
100
AcDbLine
 10
277.55334
 20
266.386195
 30
0.0
 11
292.553233
 21
266.386195
 31
0.0
  0
LINE
  5
3FB
100
AcDbEntity
  8
0
  6
Continuous
 62
     8
100
AcDbLine
 10
302.553445
 20
266.386195
 30
0.0
 11
317.553338
 21
266.386195
 31
0.0
  0
LINE
  5
3FC
100
AcDbEntity
  8
0
  6
Continuous
 62
     8
100
AcDbLine
 10
320.553231
 20
266.386195
 30
0.0
 11
322.553444
 21
266.386195
 31
0.0
  0
LINE
  5
3FD
100
AcDbEntity
  8
0
  6
Continuous
 62
     8
100
AcDbLine
 10
325.553337
 20
266.386195
 30
0.0
 11
340.55323
 21
266.386195
 31
0.0
  0
LINE
  5
3FE
100
AcDbEntity
  8
0
  6
Continuous
 62
     8
100
AcDbLine
 10
350.553442
 20
266.386195
 30
0.0
 11
365.553335
 21
266.386195
 31
0.0
  0
LINE
  5
3FF
100
AcDbEntity
  8
0
  6
Continuous
 62
     8
100
AcDbLine
 10
368.553228
 20
266.386195
 30
0.0
 11
370.553441
 21
266.386195
 31
0.0
  0
LINE
  5
400
100
AcDbEntity
  8
0
  6
Continuous
 62
     8
100
AcDbLine
 10
373.553334
 20
266.386195
 30
0.0
 11
388.553227
 21
266.386195
 31
0.0
  0
LINE
  5
401
100
AcDbEntity
  8
0
  6
Continuous
 62
     8
100
AcDbLine
 10
398.553439
 20
266.386195
 30
0.0
 11
417.553332
 21
266.386195
 31
0.0
  0
ENDBLK
  5
402
100
AcDbEntity
  8
0
100
AcDbBlockEnd
  0
BLOCK
  5
405
100
AcDbEntity
  8
0
100
AcDbBlockBegin
  2
*B88
 70
     0
 10
0.0
 20
0.0
 30
0.0
  3
*B88
  1

  0
LINE
  5
406
100
AcDbEntity
  8
0
  6
Continuous
 62
     8
100
AcDbLine
 10
214.627075
 20
401.993805
 30
0.0
 11
214.627075
 21
405.993805
 31
0.0
  0
LINE
  5
407
100
AcDbEntity
  8
0
  6
Continuous
 62
     8
100
AcDbLine
 10
214.627075
 20
315.883373
 30
0.0
 11
214.627075
 21
326.7058
 31
0.0
  0
LINE
  5
408
100
AcDbEntity
  8
0
  6
Continuous
 62
     8
100
AcDbLine
 10
214.627075
 20
329.705694
 30
0.0
 11
214.627075
 21
331.705481
 31
0.0
  0
LINE
  5
409
100
AcDbEntity
  8
0
  6
Continuous
 62
     8
100
AcDbLine
 10
214.627075
 20
334.705374
 30
0.0
 11
214.627075
 21
345.527802
 31
0.0
  0
LINE
  5
40A
100
AcDbEntity
  8
0
  6
Continuous
 62
     8
100
AcDbLine
 10
214.627075
 20
348.527695
 30
0.0
 11
214.627075
 21
350.527482
 31
0.0
  0
LINE
  5
40B
100
AcDbEntity
  8
0
  6
Continuous
 62
     8
100
AcDbLine
 10
214.627075
 20
353.527375
 30
0.0
 11
214.627075
 21
364.349803
 31
0.0
  0
LINE
  5
40C
100
AcDbEntity
  8
0
  6
Continuous
 62
     8
100
AcDbLine
 10
214.627075
 20
367.349696
 30
0.0
 11
214.627075
 21
369.349483
 31
0.0
  0
LINE
  5
40D
100
AcDbEntity
  8
0
  6
Continuous
 62
     8
100
AcDbLine
 10
214.627075
 20
372.349377
 30
0.0
 11
214.627075
 21
383.171804
 31
0.0
  0
LINE
  5
40E
100
AcDbEntity
  8
0
  6
Continuous
 62
     8
100
AcDbLine
 10
214.627075
 20
386.171697
 30
0.0
 11
214.627075
 21
388.171484
 31
0.0
  0
LINE
  5
40F
100
AcDbEntity
  8
0
  6
Continuous
 62
     8
100
AcDbLine
 10
214.627075
 20
391.171803
 30
0.0
 11
214.627075
 21
401.993805
 31
0.0
  0
ENDBLK
  5
410
100
AcDbEntity
  8
0
100
AcDbBlockEnd
  0
BLOCK
  5
413
100
AcDbEntity
  8
0
100
AcDbBlockBegin
  2
*B89
 70
     0
 10
0.0
 20
0.0
 30
0.0
  3
*B89
  1

  0
LINE
  5
414
100
AcDbEntity
  8
0
  6
Continuous
 62
     8
100
AcDbLine
 10
297.553339
 20
242.386622
 30
0.0
 11
297.553339
 21
261.386515
 31
0.0
  0
LINE
  5
415
100
AcDbEntity
  8
0
  6
Continuous
 62
     8
100
AcDbLine
 10
297.553339
 20
271.386302
 30
0.0
 11
297.553339
 21
290.386194
 31
0.0
  0
ENDBLK
  5
416
100
AcDbEntity
  8
0
100
AcDbBlockEnd
  0
BLOCK
  5
419
100
AcDbEntity
  8
0
100
AcDbBlockBegin
  2
*B90
 70
     0
 10
0.0
 20
0.0
 30
0.0
  3
*B90
  1

  0
LINE
  5
41A
100
AcDbEntity
  8
0
  6
Continuous
 62
     8
100
AcDbLine
 10
225.944023
 20
28.509414
 30
0.0
 11
225.944023
 21
41.009041
 31
0.0
  0
LINE
  5
41B
100
AcDbEntity
  8
0
  6
Continuous
 62
     8
100
AcDbLine
 10
225.944023
 20
44.008934
 30
0.0
 11
225.944023
 21
46.009147
 31
0.0
  0
LINE
  5
41C
100
AcDbEntity
  8
0
  6
Continuous
 62
     8
100
AcDbLine
 10
225.944023
 20
49.009041
 30
0.0
 11
225.944023
 21
61.508667
 31
0.0
  0
ENDBLK
  5
41D
100
AcDbEntity
  8
0
100
AcDbBlockEnd
  0
BLOCK
  5
420
100
AcDbEntity
  8
0
100
AcDbBlockBegin
  2
*B91
 70
     0
 10
0.0
 20
0.0
 30
0.0
  3
*B91
  1

  0
LINE
  5
421
100
AcDbEntity
  8
0
  6
Continuous
 62
     8
100
AcDbLine
 10
378.868793
 20
94.508346
 30
0.0
 11
382.94412
 21
94.508346
 31
0.0
  0
LINE
  5
422
100
AcDbEntity
  8
0
  6
Continuous
 62
     8
100
AcDbLine
 10
392.943907
 20
94.508346
 30
0.0
 11
397.018808
 21
94.508346
 31
0.0
  0
ENDBLK
  5
423
100
AcDbEntity
  8
0
100
AcDbBlockEnd
  0
BLOCK
  5
426
100
AcDbEntity
  8
0
100
AcDbBlockBegin
  2
*B92
 70
     0
 10
0.0
 20
0.0
 30
0.0
  3
*B92
  1

  0
LINE
  5
427
100
AcDbEntity
  8
0
  6
Continuous
 62
     8
100
AcDbLine
 10
285.94402
 20
154.507066
 30
0.0
 11
292.943913
 21
154.507066
 31
0.0
  0
LINE
  5
428
100
AcDbEntity
  8
0
  6
Continuous
 62
     8
100
AcDbLine
 10
302.944125
 20
154.507066
 30
0.0
 11
309.944018
 21
154.507066
 31
0.0
  0
ENDBLK
  5
429
100
AcDbEntity
  8
0
100
AcDbBlockEnd
  0
BLOCK
  5
42C
100
AcDbEntity
  8
0
100
AcDbBlockBegin
  2
*B93
 70
     0
 10
0.0
 20
0.0
 30
0.0
  3
*B93
  1

  0
LINE
  5
42D
100
AcDbEntity
  8
0
  6
Continuous
 62
     8
100
AcDbLine
 10
262.627072
 20
401.993805
 30
0.0
 11
262.627072
 21
405.993805
 31
0.0
  0
LINE
  5
42E
100
AcDbEntity
  8
0
  6
Continuous
 62
     8
100
AcDbLine
 10
262.627072
 20
315.883373
 30
0.0
 11
262.627072
 21
326.7058
 31
0.0
  0
LINE
  5
42F
100
AcDbEntity
  8
0
  6
Continuous
 62
     8
100
AcDbLine
 10
262.627072
 20
329.705694
 30
0.0
 11
262.627072
 21
331.705481
 31
0.0
  0
LINE
  5
430
100
AcDbEntity
  8
0
  6
Continuous
 62
     8
100
AcDbLine
 10
262.627072
 20
334.705374
 30
0.0
 11
262.627072
 21
345.527802
 31
0.0
  0
LINE
  5
431
100
AcDbEntity
  8
0
  6
Continuous
 62
     8
100
AcDbLine
 10
262.627072
 20
348.527695
 30
0.0
 11
262.627072
 21
350.527482
 31
0.0
  0
LINE
  5
432
100
AcDbEntity
  8
0
  6
Continuous
 62
     8
100
AcDbLine
 10
262.627072
 20
353.527375
 30
0.0
 11
262.627072
 21
364.349803
 31
0.0
  0
LINE
  5
433
100
AcDbEntity
  8
0
  6
Continuous
 62
     8
100
AcDbLine
 10
262.627072
 20
367.349696
 30
0.0
 11
262.627072
 21
369.349483
 31
0.0
  0
LINE
  5
434
100
AcDbEntity
  8
0
  6
Continuous
 62
     8
100
AcDbLine
 10
262.627072
 20
372.349377
 30
0.0
 11
262.627072
 21
383.171804
 31
0.0
  0
LINE
  5
435
100
AcDbEntity
  8
0
  6
Continuous
 62
     8
100
AcDbLine
 10
262.627072
 20
386.171697
 30
0.0
 11
262.627072
 21
388.171484
 31
0.0
  0
LINE
  5
436
100
AcDbEntity
  8
0
  6
Continuous
 62
     8
100
AcDbLine
 10
262.627072
 20
391.171803
 30
0.0
 11
262.627072
 21
401.993805
 31
0.0
  0
ENDBLK
  5
437
100
AcDbEntity
  8
0
100
AcDbBlockEnd
  0
BLOCK
  5
43A
100
AcDbEntity
  8
0
100
AcDbBlockBegin
  2
*B94
 70
     0
 10
0.0
 20
0.0
 30
0.0
  3
*B94
  1

  0
LINE
  5
43B
100
AcDbEntity
  8
0
  6
Continuous
 62
     8
100
AcDbLine
 10
291.944232
 20
82.508347
 30
0.0
 11
298.944125
 21
82.508347
 31
0.0
  0
LINE
  5
43C
100
AcDbEntity
  8
0
  6
Continuous
 62
     8
100
AcDbLine
 10
308.943912
 20
82.508347
 30
0.0
 11
315.944231
 21
82.508347
 31
0.0
  0
ENDBLK
  5
43D
100
AcDbEntity
  8
0
100
AcDbBlockEnd
  0
BLOCK
  5
440
100
AcDbEntity
  8
0
100
AcDbBlockBegin
  2
*B95
 70
     0
 10
0.0
 20
0.0
 30
0.0
  3
*B95
  1

  0
LINE
  5
441
100
AcDbEntity
  8
0
  6
Continuous
 62
     8
100
AcDbLine
 10
195.944238
 20
82.508347
 30
0.0
 11
202.944131
 21
82.508347
 31
0.0
  0
LINE
  5
442
100
AcDbEntity
  8
0
  6
Continuous
 62
     8
100
AcDbLine
 10
212.943918
 20
82.508347
 30
0.0
 11
219.944236
 21
82.508347
 31
0.0
  0
ENDBLK
  5
443
100
AcDbEntity
  8
0
100
AcDbBlockEnd
  0
BLOCK
  5
446
100
AcDbEntity
  8
0
100
AcDbBlockBegin
  2
*B96
 70
     0
 10
0.0
 20
0.0
 30
0.0
  3
*B96
  1

  0
LINE
  5
447
100
AcDbEntity
  8
0
  6
Continuous
 62
     8
100
AcDbLine
 10
261.944021
 20
217.996795
 30
0.0
 11
261.944021
 21
221.996795
 31
0.0
  0
LINE
  5
448
100
AcDbEntity
  8
0
  6
Continuous
 62
     8
100
AcDbLine
 10
261.944021
 20
118.507919
 30
0.0
 11
261.944021
 21
125.507813
 31
0.0
  0
LINE
  5
449
100
AcDbEntity
  8
0
  6
Continuous
 62
     8
100
AcDbLine
 10
261.944021
 20
135.507599
 30
0.0
 11
261.944021
 21
145.605268
 31
0.0
  0
LINE
  5
44A
100
AcDbEntity
  8
0
  6
Continuous
 62
     8
100
AcDbLine
 10
261.944021
 20
148.605587
 30
0.0
 11
261.944021
 21
150.605375
 31
0.0
  0
LINE
  5
44B
100
AcDbEntity
  8
0
  6
Continuous
 62
     8
100
AcDbLine
 10
261.944021
 20
153.605268
 30
0.0
 11
261.944021
 21
163.703363
 31
0.0
  0
LINE
  5
44C
100
AcDbEntity
  8
0
  6
Continuous
 62
     8
100
AcDbLine
 10
261.944021
 20
166.703256
 30
0.0
 11
261.944021
 21
168.703043
 31
0.0
  0
LINE
  5
44D
100
AcDbEntity
  8
0
  6
Continuous
 62
     8
100
AcDbLine
 10
261.944021
 20
171.703362
 30
0.0
 11
261.944021
 21
181.801032
 31
0.0
  0
LINE
  5
44E
100
AcDbEntity
  8
0
  6
Continuous
 62
     8
100
AcDbLine
 10
261.944021
 20
184.800925
 30
0.0
 11
261.944021
 21
186.801138
 31
0.0
  0
LINE
  5
44F
100
AcDbEntity
  8
0
  6
Continuous
 62
     8
100
AcDbLine
 10
261.944021
 20
189.801031
 30
0.0
 11
261.944021
 21
199.898701
 31
0.0
  0
LINE
  5
450
100
AcDbEntity
  8
0
  6
Continuous
 62
     8
100
AcDbLine
 10
261.944021
 20
202.89902
 30
0.0
 11
261.944021
 21
204.898807
 31
0.0
  0
LINE
  5
451
100
AcDbEntity
  8
0
  6
Continuous
 62
     8
100
AcDbLine
 10
261.944021
 20
207.8987
 30
0.0
 11
261.944021
 21
217.996795
 31
0.0
  0
ENDBLK
  5
452
100
AcDbEntity
  8
0
100
AcDbBlockEnd
  0
BLOCK
  5
455
100
AcDbEntity
  8
0
100
AcDbBlockBegin
  2
*B97
 70
     0
 10
0.0
 20
0.0
 30
0.0
  3
*B97
  1

  0
LINE
  5
456
100
AcDbEntity
  8
0
  6
Continuous
 62
     8
100
AcDbLine
 10
453.94401
 20
11.999999
 30
0.0
 11
453.94401
 21
15.999999
 31
0.0
  0
LINE
  5
457
100
AcDbEntity
  8
0
  6
Continuous
 62
     8
100
AcDbLine
 10
453.94401
 20
15.999999
 30
0.0
 11
453.94401
 21
27.584635
 31
0.0
  0
LINE
  5
458
100
AcDbEntity
  8
0
  6
Continuous
 62
     8
100
AcDbLine
 10
453.94401
 20
30.584528
 30
0.0
 11
453.94401
 21
32.584741
 31
0.0
  0
LINE
  5
459
100
AcDbEntity
  8
0
  6
Continuous
 62
     8
100
AcDbLine
 10
453.94401
 20
35.584635
 30
0.0
 11
453.94401
 21
47.169271
 31
0.0
  0
LINE
  5
45A
100
AcDbEntity
  8
0
  6
Continuous
 62
     8
100
AcDbLine
 10
453.94401
 20
50.169164
 30
0.0
 11
453.94401
 21
52.168951
 31
0.0
  0
LINE
  5
45B
100
AcDbEntity
  8
0
  6
Continuous
 62
     8
100
AcDbLine
 10
453.94401
 20
55.16927
 30
0.0
 11
453.94401
 21
66.753906
 31
0.0
  0
LINE
  5
45C
100
AcDbEntity
  8
0
  6
Continuous
 62
     8
100
AcDbLine
 10
453.94401
 20
69.753799
 30
0.0
 11
453.94401
 21
71.753587
 31
0.0
  0
LINE
  5
45D
100
AcDbEntity
  8
0
  6
Continuous
 62
     8
100
AcDbLine
 10
453.94401
 20
74.753906
 30
0.0
 11
453.94401
 21
86.338542
 31
0.0
  0
LINE
  5
45E
100
AcDbEntity
  8
0
  6
Continuous
 62
     8
100
AcDbLine
 10
453.94401
 20
89.338435
 30
0.0
 11
453.94401
 21
91.338222
 31
0.0
  0
LINE
  5
45F
100
AcDbEntity
  8
0
  6
Continuous
 62
     8
100
AcDbLine
 10
453.94401
 20
94.338541
 30
0.0
 11
453.94401
 21
105.923177
 31
0.0
  0
LINE
  5
460
100
AcDbEntity
  8
0
  6
Continuous
 62
     8
100
AcDbLine
 10
453.94401
 20
108.92307
 30
0.0
 11
453.94401
 21
110.922858
 31
0.0
  0
LINE
  5
461
100
AcDbEntity
  8
0
  6
Continuous
 62
     8
100
AcDbLine
 10
453.94401
 20
113.923177
 30
0.0
 11
453.94401
 21
125.507813
 31
0.0
  0
LINE
  5
462
100
AcDbEntity
  8
0
  6
Continuous
 62
     8
100
AcDbLine
 10
453.94401
 20
135.507599
 30
0.0
 11
453.94401
 21
143.257359
 31
0.0
  0
ENDBLK
  5
463
100
AcDbEntity
  8
0
100
AcDbBlockEnd
  0
BLOCK
  5
466
100
AcDbEntity
  8
0
100
AcDbBlockBegin
  2
*B98
 70
     0
 10
0.0
 20
0.0
 30
0.0
  3
*B98
  1

  0
LINE
  5
467
100
AcDbEntity
  8
0
  6
Continuous
 62
     8
100
AcDbLine
 10
393.553333
 20
242.386622
 30
0.0
 11
393.553333
 21
261.386515
 31
0.0
  0
LINE
  5
468
100
AcDbEntity
  8
0
  6
Continuous
 62
     8
100
AcDbLine
 10
393.553333
 20
271.386302
 30
0.0
 11
393.553333
 21
290.386194
 31
0.0
  0
ENDBLK
  5
469
100
AcDbEntity
  8
0
100
AcDbBlockEnd
  0
BLOCK
  5
46C
100
AcDbEntity
  8
0
100
AcDbBlockBegin
  2
*B99
 70
     0
 10
0.0
 20
0.0
 30
0.0
  3
*B99
  1

  0
LINE
  5
46D
100
AcDbEntity
  8
0
  6
Continuous
 62
     8
100
AcDbLine
 10
453.55333
 20
240.886889
 30
0.0
 11
453.55333
 21
251.886781
 31
0.0
  0
LINE
  5
46E
100
AcDbEntity
  8
0
  6
Continuous
 62
     8
100
AcDbLine
 10
453.55333
 20
254.886675
 30
0.0
 11
453.55333
 21
256.886462
 31
0.0
  0
LINE
  5
46F
100
AcDbEntity
  8
0
  6
Continuous
 62
     8
100
AcDbLine
 10
453.55333
 20
259.886355
 30
0.0
 11
453.55333
 21
270.886248
 31
0.0
  0
LINE
  5
470
100
AcDbEntity
  8
0
  6
Continuous
 62
     8
100
AcDbLine
 10
453.55333
 20
273.886142
 30
0.0
 11
453.55333
 21
275.886354
 31
0.0
  0
LINE
  5
471
100
AcDbEntity
  8
0
  6
Continuous
 62
     8
100
AcDbLine
 10
453.55333
 20
278.886248
 30
0.0
 11
453.55333
 21
289.886141
 31
0.0
  0
LINE
  5
472
100
AcDbEntity
  8
0
  6
Continuous
 62
     8
100
AcDbLine
 10
453.55333
 20
292.886034
 30
0.0
 11
453.55333
 21
294.885821
 31
0.0
  0
LINE
  5
473
100
AcDbEntity
  8
0
  6
Continuous
 62
     8
100
AcDbLine
 10
453.55333
 20
297.885715
 30
0.0
 11
453.55333
 21
308.885608
 31
0.0
  0
LINE
  5
474
100
AcDbEntity
  8
0
  6
Continuous
 62
     8
100
AcDbLine
 10
453.55333
 20
311.885501
 30
0.0
 11
453.55333
 21
313.885714
 31
0.0
  0
LINE
  5
475
100
AcDbEntity
  8
0
  6
Continuous
 62
     8
100
AcDbLine
 10
453.55333
 20
316.885607
 30
0.0
 11
453.55333
 21
327.8855
 31
0.0
  0
ENDBLK
  5
476
100
AcDbEntity
  8
0
100
AcDbBlockEnd
  0
BLOCK
  5
479
100
AcDbEntity
  8
0
100
AcDbBlockBegin
  2
*B100
 70
     0
 10
0.0
 20
0.0
 30
0.0
  3
*B100
  1

  0
LINE
  5
47A
100
AcDbEntity
  8
0
  6
Continuous
 62
     8
100
AcDbLine
 10
330.944123
 20
9.999787
 30
0.0
 11
330.944123
 21
40.508988
 31
0.0
  0
ENDBLK
  5
47B
100
AcDbEntity
  8
0
100
AcDbBlockEnd
  0
BLOCK
  5
47E
100
AcDbEntity
  8
0
100
AcDbBlockBegin
  2
*B101
 70
     0
 10
0.0
 20
0.0
 30
0.0
  3
*B101
  1

  0
LINE
  5
47F
100
AcDbEntity
  8
0
  6
Continuous
 62
     8
100
AcDbLine
 10
70.036383
 20
88.508134
 30
0.0
 11
74.036382
 21
88.508134
 31
0.0
  0
LINE
  5
480
100
AcDbEntity
  8
0
  6
Continuous
 62
     8
100
AcDbLine
 10
74.036382
 20
88.508134
 30
0.0
 11
85.017976
 21
88.508134
 31
0.0
  0
LINE
  5
481
100
AcDbEntity
  8
0
  6
Continuous
 62
     8
100
AcDbLine
 10
88.017869
 20
88.508134
 30
0.0
 11
90.018082
 21
88.508134
 31
0.0
  0
LINE
  5
482
100
AcDbEntity
  8
0
  6
Continuous
 62
     8
100
AcDbLine
 10
93.017975
 20
88.508134
 30
0.0
 11
103.999568
 21
88.508134
 31
0.0
  0
LINE
  5
483
100
AcDbEntity
  8
0
  6
Continuous
 62
     8
100
AcDbLine
 10
106.999462
 20
88.508134
 30
0.0
 11
108.999674
 21
88.508134
 31
0.0
  0
LINE
  5
484
100
AcDbEntity
  8
0
  6
Continuous
 62
     8
100
AcDbLine
 10
111.999568
 20
88.508134
 30
0.0
 11
122.981161
 21
88.508134
 31
0.0
  0
LINE
  5
485
100
AcDbEntity
  8
0
  6
Continuous
 62
     8
100
AcDbLine
 10
125.981054
 20
88.508134
 30
0.0
 11
127.980841
 21
88.508134
 31
0.0
  0
LINE
  5
486
100
AcDbEntity
  8
0
  6
Continuous
 62
     8
100
AcDbLine
 10
130.98116
 20
88.508134
 30
0.0
 11
141.962754
 21
88.508134
 31
0.0
  0
LINE
  5
487
100
AcDbEntity
  8
0
  6
Continuous
 62
     8
100
AcDbLine
 10
144.962647
 20
88.508134
 30
0.0
 11
146.962434
 21
88.508134
 31
0.0
  0
LINE
  5
488
100
AcDbEntity
  8
0
  6
Continuous
 62
     8
100
AcDbLine
 10
149.962753
 20
88.508134
 30
0.0
 11
160.943921
 21
88.508134
 31
0.0
  0
LINE
  5
489
100
AcDbEntity
  8
0
  6
Continuous
 62
     8
100
AcDbLine
 10
170.944133
 20
88.508134
 30
0.0
 11
178.693893
 21
88.508134
 31
0.0
  0
ENDBLK
  5
48A
100
AcDbEntity
  8
0
100
AcDbBlockEnd
  0
BLOCK
  5
48D
100
AcDbEntity
  8
0
100
AcDbBlockBegin
  2
*B102
 70
     0
 10
0.0
 20
0.0
 30
0.0
  3
*B102
  1

  0
LINE
  5
48E
100
AcDbEntity
  8
0
  6
Continuous
 62
     8
100
AcDbLine
 10
279.944233
 20
157.432058
 30
0.0
 11
279.944233
 21
161.506959
 31
0.0
  0
LINE
  5
48F
100
AcDbEntity
  8
0
  6
Continuous
 62
     8
100
AcDbLine
 10
279.944233
 20
171.507171
 30
0.0
 11
279.944233
 21
175.582073
 31
0.0
  0
ENDBLK
  5
490
100
AcDbEntity
  8
0
100
AcDbBlockEnd
  0
BLOCK
  5
493
100
AcDbEntity
  8
0
100
AcDbBlockBegin
  2
*B103
 70
     0
 10
0.0
 20
0.0
 30
0.0
  3
*B103
  1

  0
LINE
  5
494
100
AcDbEntity
  8
0
  6
Continuous
 62
     8
100
AcDbLine
 10
339.943804
 20
85.433339
 30
0.0
 11
339.943804
 21
89.50824
 31
0.0
  0
LINE
  5
495
100
AcDbEntity
  8
0
  6
Continuous
 62
     8
100
AcDbLine
 10
339.943804
 20
99.508027
 30
0.0
 11
339.943804
 21
103.582928
 31
0.0
  0
ENDBLK
  5
496
100
AcDbEntity
  8
0
100
AcDbBlockEnd
  0
BLOCK
  5
499
100
AcDbEntity
  8
0
100
AcDbBlockBegin
  2
*B104
 70
     0
 10
0.0
 20
0.0
 30
0.0
  3
*B104
  1

  0
LINE
  5
49A
100
AcDbEntity
  8
0
  6
Continuous
 62
     8
100
AcDbLine
 10
114.03638
 20
246.886675
 30
0.0
 11
138.553455
 21
246.886675
 31
0.0
  0
ENDBLK
  5
49B
100
AcDbEntity
  8
0
100
AcDbBlockEnd
  0
BLOCK
  5
49E
100
AcDbEntity
  8
0
100
AcDbBlockBegin
  2
*B105
 70
     0
 10
0.0
 20
0.0
 30
0.0
  3
*B105
  1

  0
LINE
  5
49F
100
AcDbEntity
  8
0
  6
Continuous
 62
     8
100
AcDbLine
 10
165.944027
 20
159.756986
 30
0.0
 11
165.944027
 21
167.507172
 31
0.0
  0
LINE
  5
4A0
100
AcDbEntity
  8
0
  6
Continuous
 62
     8
100
AcDbLine
 10
165.944027
 20
177.506958
 30
0.0
 11
165.944027
 21
185.256718
 31
0.0
  0
ENDBLK
  5
4A1
100
AcDbEntity
  8
0
100
AcDbBlockEnd
  0
BLOCK
  5
4A4
100
AcDbEntity
  8
0
100
AcDbBlockBegin
  2
*B106
 70
     0
 10
0.0
 20
0.0
 30
0.0
  3
*B106
  1

  0
LINE
  5
4A5
100
AcDbEntity
  8
0
  6
Continuous
 62
     8
100
AcDbLine
 10
477.944008
 20
11.999999
 30
0.0
 11
477.944008
 21
52.508987
 31
0.0
  0
LINE
  5
4A6
100
AcDbEntity
  8
0
  6
Continuous
 62
     8
100
AcDbLine
 10
477.944008
 20
208.506424
 30
0.0
 11
477.944008
 21
221.996795
 31
0.0
  0
ENDBLK
  5
4A7
100
AcDbEntity
  8
0
100
AcDbBlockEnd
  0
BLOCK
  5
4AA
100
AcDbEntity
  8
0
100
AcDbBlockBegin
  2
*B107
 70
     0
 10
0.0
 20
0.0
 30
0.0
  3
*B107
  1

  0
LINE
  5
4AB
100
AcDbEntity
  8
0
  6
Continuous
 62
     8
100
AcDbLine
 10
165.553347
 20
240.886889
 30
0.0
 11
165.553347
 21
251.886781
 31
0.0
  0
LINE
  5
4AC
100
AcDbEntity
  8
0
  6
Continuous
 62
     8
100
AcDbLine
 10
165.553347
 20
254.886675
 30
0.0
 11
165.553347
 21
256.886462
 31
0.0
  0
LINE
  5
4AD
100
AcDbEntity
  8
0
  6
Continuous
 62
     8
100
AcDbLine
 10
165.553347
 20
259.886355
 30
0.0
 11
165.553347
 21
270.886248
 31
0.0
  0
LINE
  5
4AE
100
AcDbEntity
  8
0
  6
Continuous
 62
     8
100
AcDbLine
 10
165.553347
 20
273.886142
 30
0.0
 11
165.553347
 21
275.886354
 31
0.0
  0
LINE
  5
4AF
100
AcDbEntity
  8
0
  6
Continuous
 62
     8
100
AcDbLine
 10
165.553347
 20
278.886248
 30
0.0
 11
165.553347
 21
289.886141
 31
0.0
  0
LINE
  5
4B0
100
AcDbEntity
  8
0
  6
Continuous
 62
     8
100
AcDbLine
 10
165.553347
 20
292.886034
 30
0.0
 11
165.553347
 21
294.885821
 31
0.0
  0
LINE
  5
4B1
100
AcDbEntity
  8
0
  6
Continuous
 62
     8
100
AcDbLine
 10
165.553347
 20
297.885715
 30
0.0
 11
165.553347
 21
308.885608
 31
0.0
  0
LINE
  5
4B2
100
AcDbEntity
  8
0
  6
Continuous
 62
     8
100
AcDbLine
 10
165.553347
 20
311.885501
 30
0.0
 11
165.553347
 21
313.885714
 31
0.0
  0
LINE
  5
4B3
100
AcDbEntity
  8
0
  6
Continuous
 62
     8
100
AcDbLine
 10
165.553347
 20
316.885607
 30
0.0
 11
165.553347
 21
327.8855
 31
0.0
  0
ENDBLK
  5
4B4
100
AcDbEntity
  8
0
100
AcDbBlockEnd
  0
BLOCK
  5
4B7
100
AcDbEntity
  8
0
100
AcDbBlockBegin
  2
*B108
 70
     0
 10
0.0
 20
0.0
 30
0.0
  3
*B108
  1

  0
LINE
  5
4B8
100
AcDbEntity
  8
0
  6
Continuous
 62
     8
100
AcDbLine
 10
345.944016
 20
142.507492
 30
0.0
 11
345.944016
 21
149.507385
 31
0.0
  0
LINE
  5
4B9
100
AcDbEntity
  8
0
  6
Continuous
 62
     8
100
AcDbLine
 10
345.944016
 20
159.507172
 30
0.0
 11
345.944016
 21
166.507065
 31
0.0
  0
ENDBLK
  5
4BA
100
AcDbEntity
  8
0
100
AcDbBlockEnd
  0
BLOCK
  5
4BD
100
AcDbEntity
  8
0
100
AcDbBlockBegin
  2
*B109
 70
     0
 10
0.0
 20
0.0
 30
0.0
  3
*B109
  1

  0
LINE
  5
4BE
100
AcDbEntity
  8
0
  6
Continuous
 62
     8
100
AcDbLine
 10
345.553336
 20
242.386622
 30
0.0
 11
345.553336
 21
261.386515
 31
0.0
  0
LINE
  5
4BF
100
AcDbEntity
  8
0
  6
Continuous
 62
     8
100
AcDbLine
 10
345.553336
 20
271.386302
 30
0.0
 11
345.553336
 21
290.386194
 31
0.0
  0
ENDBLK
  5
4C0
100
AcDbEntity
  8
0
100
AcDbBlockEnd
  0
BLOCK
  5
4C3
100
AcDbEntity
  8
0
100
AcDbBlockBegin
  2
*B110
 70
     0
 10
0.0
 20
0.0
 30
0.0
  3
*B110
  1

  0
LINE
  5
4C4
100
AcDbEntity
  8
0
  6
Continuous
 62
     8
100
AcDbLine
 10
321.553338
 20
278.386195
 30
0.0
 11
321.553338
 21
297.386087
 31
0.0
  0
LINE
  5
4C5
100
AcDbEntity
  8
0
  6
Continuous
 62
     8
100
AcDbLine
 10
321.553338
 20
307.385874
 30
0.0
 11
321.553338
 21
326.385341
 31
0.0
  0
ENDBLK
  5
4C6
100
AcDbEntity
  8
0
100
AcDbBlockEnd
  0
BLOCK
  5
4C9
100
AcDbEntity
  8
0
100
AcDbBlockBegin
  2
*B111
 70
     0
 10
0.0
 20
0.0
 30
0.0
  3
*B111
  1

  0
LINE
  5
4CA
100
AcDbEntity
  8
0
  6
Continuous
 62
     8
100
AcDbLine
 10
399.9438
 20
178.507065
 30
0.0
 11
406.944119
 21
178.507065
 31
0.0
  0
LINE
  5
4CB
100
AcDbEntity
  8
0
  6
Continuous
 62
     8
100
AcDbLine
 10
416.943905
 20
178.507065
 30
0.0
 11
423.943799
 21
178.507065
 31
0.0
  0
ENDBLK
  5
4CC
100
AcDbEntity
  8
0
100
AcDbBlockEnd
  0
BLOCK
  5
4CF
100
AcDbEntity
  8
0
100
AcDbBlockBegin
  2
*B112
 70
     0
 10
0.0
 20
0.0
 30
0.0
  3
*B112
  1

  0
LINE
  5
4D0
100
AcDbEntity
  8
0
  6
Continuous
 62
     8
100
AcDbLine
 10
351.943803
 20
178.507065
 30
0.0
 11
358.944122
 21
178.507065
 31
0.0
  0
LINE
  5
4D1
100
AcDbEntity
  8
0
  6
Continuous
 62
     8
100
AcDbLine
 10
368.943908
 20
178.507065
 30
0.0
 11
375.943801
 21
178.507065
 31
0.0
  0
ENDBLK
  5
4D2
100
AcDbEntity
  8
0
100
AcDbBlockEnd
  0
BLOCK
  5
4D5
100
AcDbEntity
  8
0
100
AcDbBlockBegin
  2
*B113
 70
     0
 10
0.0
 20
0.0
 30
0.0
  3
*B113
  1

  0
LINE
  5
4D6
100
AcDbEntity
  8
0
  6
Continuous
 62
     8
100
AcDbLine
 10
369.944015
 20
28.509414
 30
0.0
 11
369.944015
 21
41.009041
 31
0.0
  0
LINE
  5
4D7
100
AcDbEntity
  8
0
  6
Continuous
 62
     8
100
AcDbLine
 10
369.944015
 20
44.008934
 30
0.0
 11
369.944015
 21
46.009147
 31
0.0
  0
LINE
  5
4D8
100
AcDbEntity
  8
0
  6
Continuous
 62
     8
100
AcDbLine
 10
369.944015
 20
49.009041
 30
0.0
 11
369.944015
 21
61.508667
 31
0.0
  0
ENDBLK
  5
4D9
100
AcDbEntity
  8
0
100
AcDbBlockEnd
  0
BLOCK
  5
4DC
100
AcDbEntity
  8
0
100
AcDbBlockBegin
  2
*B114
 70
     0
 10
0.0
 20
0.0
 30
0.0
  3
*B114
  1

  0
LINE
  5
4DD
100
AcDbEntity
  8
0
  6
Continuous
 62
     8
100
AcDbLine
 10
207.944237
 20
70.508773
 30
0.0
 11
207.944237
 21
77.508667
 31
0.0
  0
LINE
  5
4DE
100
AcDbEntity
  8
0
  6
Continuous
 62
     8
100
AcDbLine
 10
207.944237
 20
87.508453
 30
0.0
 11
207.944237
 21
94.508346
 31
0.0
  0
ENDBLK
  5
4DF
100
AcDbEntity
  8
0
100
AcDbBlockEnd
  0
BLOCK
  5
4E2
100
AcDbEntity
  8
0
100
AcDbBlockBegin
  2
*B115
 70
     0
 10
0.0
 20
0.0
 30
0.0
  3
*B115
  1

  0
LINE
  5
4E3
100
AcDbEntity
  8
0
  6
Continuous
 62
     8
100
AcDbLine
 10
213.944024
 20
106.50792
 30
0.0
 11
220.943917
 21
106.50792
 31
0.0
  0
LINE
  5
4E4
100
AcDbEntity
  8
0
  6
Continuous
 62
     8
100
AcDbLine
 10
230.944129
 20
106.50792
 30
0.0
 11
237.944022
 21
106.50792
 31
0.0
  0
ENDBLK
  5
4E5
100
AcDbEntity
  8
0
100
AcDbBlockEnd
  0
BLOCK
  5
4E8
100
AcDbEntity
  8
0
100
AcDbBlockBegin
  2
*B116
 70
     0
 10
0.0
 20
0.0
 30
0.0
  3
*B116
  1

  0
LINE
  5
4E9
100
AcDbEntity
  8
0
  6
Continuous
 62
     8
100
AcDbLine
 10
297.944019
 20
142.507492
 30
0.0
 11
297.944019
 21
149.507385
 31
0.0
  0
LINE
  5
4EA
100
AcDbEntity
  8
0
  6
Continuous
 62
     8
100
AcDbLine
 10
297.944019
 20
159.507172
 30
0.0
 11
297.944019
 21
166.507065
 31
0.0
  0
ENDBLK
  5
4EB
100
AcDbEntity
  8
0
100
AcDbBlockEnd
  0
BLOCK
  5
4EE
100
AcDbEntity
  8
0
100
AcDbBlockBegin
  2
*B117
 70
     0
 10
0.0
 20
0.0
 30
0.0
  3
*B117
  1

  0
LINE
  5
4EF
100
AcDbEntity
  8
0
  6
Continuous
 62
     8
100
AcDbLine
 10
366.868794
 20
166.507065
 30
0.0
 11
370.944121
 21
166.507065
 31
0.0
  0
LINE
  5
4F0
100
AcDbEntity
  8
0
  6
Continuous
 62
     8
100
AcDbLine
 10
380.943907
 20
166.507065
 30
0.0
 11
385.018809
 21
166.507065
 31
0.0
  0
ENDBLK
  5
4F1
100
AcDbEntity
  8
0
100
AcDbBlockEnd
  0
BLOCK
  5
4F4
100
AcDbEntity
  8
0
100
AcDbBlockBegin
  2
*B118
 70
     0
 10
0.0
 20
0.0
 30
0.0
  3
*B118
  1

  0
LINE
  5
4F5
100
AcDbEntity
  8
0
  6
Continuous
 62
     8
100
AcDbLine
 10
387.943801
 20
85.433339
 30
0.0
 11
387.943801
 21
89.50824
 31
0.0
  0
LINE
  5
4F6
100
AcDbEntity
  8
0
  6
Continuous
 62
     8
100
AcDbLine
 10
387.943801
 20
99.508027
 30
0.0
 11
387.943801
 21
103.582928
 31
0.0
  0
ENDBLK
  5
4F7
100
AcDbEntity
  8
0
100
AcDbBlockEnd
  0
BLOCK
  5
4FA
100
AcDbEntity
  8
0
100
AcDbBlockBegin
  2
*B119
 70
     0
 10
0.0
 20
0.0
 30
0.0
  3
*B119
  1

  0
LINE
  5
4FB
100
AcDbEntity
  8
0
  6
Continuous
 62
     8
100
AcDbLine
 10
234.869227
 20
94.508346
 30
0.0
 11
238.944129
 21
94.508346
 31
0.0
  0
LINE
  5
4FC
100
AcDbEntity
  8
0
  6
Continuous
 62
     8
100
AcDbLine
 10
248.943915
 20
94.508346
 30
0.0
 11
253.019242
 21
94.508346
 31
0.0
  0
ENDBLK
  5
4FD
100
AcDbEntity
  8
0
100
AcDbBlockEnd
  0
BLOCK
  5
500
100
AcDbEntity
  8
0
100
AcDbBlockBegin
  2
*B120
 70
     0
 10
0.0
 20
0.0
 30
0.0
  3
*B120
  1

  0
LINE
  5
501
100
AcDbEntity
  8
0
  6
Continuous
 62
     8
100
AcDbLine
 10
94.036381
 20
94.508346
 30
0.0
 11
98.036381
 21
94.508346
 31
0.0
  0
LINE
  5
502
100
AcDbEntity
  8
0
  6
Continuous
 62
     8
100
AcDbLine
 10
98.036381
 20
94.508346
 30
0.0
 11
110.218102
 21
94.508346
 31
0.0
  0
LINE
  5
503
100
AcDbEntity
  8
0
  6
Continuous
 62
     8
100
AcDbLine
 10
113.217995
 20
94.508346
 30
0.0
 11
115.217782
 21
94.508346
 31
0.0
  0
LINE
  5
504
100
AcDbEntity
  8
0
  6
Continuous
 62
     8
100
AcDbLine
 10
118.218101
 20
94.508346
 30
0.0
 11
130.399396
 21
94.508346
 31
0.0
  0
LINE
  5
505
100
AcDbEntity
  8
0
  6
Continuous
 62
     8
100
AcDbLine
 10
133.39929
 20
94.508346
 30
0.0
 11
135.399503
 21
94.508346
 31
0.0
  0
LINE
  5
506
100
AcDbEntity
  8
0
  6
Continuous
 62
     8
100
AcDbLine
 10
138.399396
 20
94.508346
 30
0.0
 11
150.581117
 21
94.508346
 31
0.0
  0
LINE
  5
507
100
AcDbEntity
  8
0
  6
Continuous
 62
     8
100
AcDbLine
 10
153.58101
 20
94.508346
 30
0.0
 11
155.580797
 21
94.508346
 31
0.0
  0
LINE
  5
508
100
AcDbEntity
  8
0
  6
Continuous
 62
     8
100
AcDbLine
 10
158.581116
 20
94.508346
 30
0.0
 11
170.762411
 21
94.508346
 31
0.0
  0
LINE
  5
509
100
AcDbEntity
  8
0
  6
Continuous
 62
     8
100
AcDbLine
 10
173.76273
 20
94.508346
 30
0.0
 11
175.762517
 21
94.508346
 31
0.0
  0
LINE
  5
50A
100
AcDbEntity
  8
0
  6
Continuous
 62
     8
100
AcDbLine
 10
178.762411
 20
94.508346
 30
0.0
 11
190.944132
 21
94.508346
 31
0.0
  0
LINE
  5
50B
100
AcDbEntity
  8
0
  6
Continuous
 62
     8
100
AcDbLine
 10
200.943918
 20
94.508346
 30
0.0
 11
205.019245
 21
94.508346
 31
0.0
  0
ENDBLK
  5
50C
100
AcDbEntity
  8
0
100
AcDbBlockEnd
  0
BLOCK
  5
50F
100
AcDbEntity
  8
0
100
AcDbBlockBegin
  2
*B121
 70
     0
 10
0.0
 20
0.0
 30
0.0
  3
*B121
  1

  0
LINE
  5
510
100
AcDbEntity
  8
0
  6
Continuous
 62
     8
100
AcDbLine
 10
480.943902
 20
205.506531
 30
0.0
 11
530.036355
 21
205.506531
 31
0.0
  0
ENDBLK
  5
511
100
AcDbEntity
  8
0
100
AcDbBlockEnd
  0
BLOCK
  5
514
100
AcDbEntity
  8
0
100
AcDbBlockBegin
  2
*B122
 70
     0
 10
0.0
 20
0.0
 30
0.0
  3
*B122
  1

  0
LINE
  5
515
100
AcDbEntity
  8
0
  6
Continuous
 62
     8
100
AcDbLine
 10
381.944014
 20
154.507066
 30
0.0
 11
388.943907
 21
154.507066
 31
0.0
  0
LINE
  5
516
100
AcDbEntity
  8
0
  6
Continuous
 62
     8
100
AcDbLine
 10
398.944119
 20
154.507066
 30
0.0
 11
405.944012
 21
154.507066
 31
0.0
  0
ENDBLK
  5
517
100
AcDbEntity
  8
0
100
AcDbBlockEnd
  0
BLOCK
  5
51A
100
AcDbEntity
  8
0
100
AcDbBlockBegin
  2
*B123
 70
     0
 10
0.0
 20
0.0
 30
0.0
  3
*B123
  1

  0
LINE
  5
51B
100
AcDbEntity
  8
0
  6
Continuous
 62
     8
100
AcDbLine
 10
417.553332
 20
278.386195
 30
0.0
 11
417.553332
 21
297.386087
 31
0.0
  0
LINE
  5
51C
100
AcDbEntity
  8
0
  6
Continuous
 62
     8
100
AcDbLine
 10
417.553332
 20
307.385874
 30
0.0
 11
417.553332
 21
326.385341
 31
0.0
  0
ENDBLK
  5
51D
100
AcDbEntity
  8
0
100
AcDbBlockEnd
  0
BLOCK
  5
520
100
AcDbEntity
  8
0
100
AcDbBlockBegin
  2
*B124
 70
     0
 10
0.0
 20
0.0
 30
0.0
  3
*B124
  1

  0
LINE
  5
521
100
AcDbEntity
  8
0
  6
Continuous
 62
     8
100
AcDbLine
 10
339.943804
 20
82.508347
 30
0.0
 11
346.944122
 21
82.508347
 31
0.0
  0
LINE
  5
522
100
AcDbEntity
  8
0
  6
Continuous
 62
     8
100
AcDbLine
 10
356.943909
 20
82.508347
 30
0.0
 11
363.943802
 21
82.508347
 31
0.0
  0
ENDBLK
  5
523
100
AcDbEntity
  8
0
100
AcDbBlockEnd
  0
BLOCK
  5
526
100
AcDbEntity
  8
0
100
AcDbBlockBegin
  2
*B125
 70
     0
 10
0.0
 20
0.0
 30
0.0
  3
*B125
  1

  0
LINE
  5
527
100
AcDbEntity
  8
0
  6
Continuous
 62
     8
100
AcDbLine
 10
502.036357
 20
130.507493
 30
0.0
 11
506.036357
 21
130.507493
 31
0.0
  0
LINE
  5
528
100
AcDbEntity
  8
0
  6
Continuous
 62
     8
100
AcDbLine
 10
135.944241
 20
130.507493
 30
0.0
 11
148.194054
 21
130.507493
 31
0.0
  0
LINE
  5
529
100
AcDbEntity
  8
0
  6
Continuous
 62
     8
100
AcDbLine
 10
151.193948
 20
130.507493
 30
0.0
 11
153.19416
 21
130.507493
 31
0.0
  0
LINE
  5
52A
100
AcDbEntity
  8
0
  6
Continuous
 62
     8
100
AcDbLine
 10
156.194054
 20
130.507493
 30
0.0
 11
168.444293
 21
130.507493
 31
0.0
  0
LINE
  5
52B
100
AcDbEntity
  8
0
  6
Continuous
 62
     8
100
AcDbLine
 10
171.444186
 20
130.507493
 30
0.0
 11
173.443973
 21
130.507493
 31
0.0
  0
LINE
  5
52C
100
AcDbEntity
  8
0
  6
Continuous
 62
     8
100
AcDbLine
 10
176.444292
 20
130.507493
 30
0.0
 11
188.694105
 21
130.507493
 31
0.0
  0
LINE
  5
52D
100
AcDbEntity
  8
0
  6
Continuous
 62
     8
100
AcDbLine
 10
191.693999
 20
130.507493
 30
0.0
 11
193.694211
 21
130.507493
 31
0.0
  0
LINE
  5
52E
100
AcDbEntity
  8
0
  6
Continuous
 62
     8
100
AcDbLine
 10
196.694105
 20
130.507493
 30
0.0
 11
208.943918
 21
130.507493
 31
0.0
  0
LINE
  5
52F
100
AcDbEntity
  8
0
  6
Continuous
 62
     8
100
AcDbLine
 10
218.94413
 20
130.507493
 30
0.0
 11
233.944023
 21
130.507493
 31
0.0
  0
LINE
  5
530
100
AcDbEntity
  8
0
  6
Continuous
 62
     8
100
AcDbLine
 10
236.943916
 20
130.507493
 30
0.0
 11
238.944129
 21
130.507493
 31
0.0
  0
LINE
  5
531
100
AcDbEntity
  8
0
  6
Continuous
 62
     8
100
AcDbLine
 10
241.944022
 20
130.507493
 30
0.0
 11
256.943915
 21
130.507493
 31
0.0
  0
LINE
  5
532
100
AcDbEntity
  8
0
  6
Continuous
 62
     8
100
AcDbLine
 10
266.944127
 20
130.507493
 30
0.0
 11
281.94402
 21
130.507493
 31
0.0
  0
LINE
  5
533
100
AcDbEntity
  8
0
  6
Continuous
 62
     8
100
AcDbLine
 10
284.943913
 20
130.507493
 30
0.0
 11
286.944126
 21
130.507493
 31
0.0
  0
LINE
  5
534
100
AcDbEntity
  8
0
  6
Continuous
 62
     8
100
AcDbLine
 10
289.944019
 20
130.507493
 30
0.0
 11
304.943912
 21
130.507493
 31
0.0
  0
LINE
  5
535
100
AcDbEntity
  8
0
  6
Continuous
 62
     8
100
AcDbLine
 10
314.944124
 20
130.507493
 30
0.0
 11
329.944017
 21
130.507493
 31
0.0
  0
LINE
  5
536
100
AcDbEntity
  8
0
  6
Continuous
 62
     8
100
AcDbLine
 10
332.94391
 20
130.507493
 30
0.0
 11
334.944123
 21
130.507493
 31
0.0
  0
LINE
  5
537
100
AcDbEntity
  8
0
  6
Continuous
 62
     8
100
AcDbLine
 10
337.944016
 20
130.507493
 30
0.0
 11
352.943909
 21
130.507493
 31
0.0
  0
LINE
  5
538
100
AcDbEntity
  8
0
  6
Continuous
 62
     8
100
AcDbLine
 10
362.944121
 20
130.507493
 30
0.0
 11
377.944014
 21
130.507493
 31
0.0
  0
LINE
  5
539
100
AcDbEntity
  8
0
  6
Continuous
 62
     8
100
AcDbLine
 10
380.943907
 20
130.507493
 30
0.0
 11
382.94412
 21
130.507493
 31
0.0
  0
LINE
  5
53A
100
AcDbEntity
  8
0
  6
Continuous
 62
     8
100
AcDbLine
 10
385.944014
 20
130.507493
 30
0.0
 11
400.943906
 21
130.507493
 31
0.0
  0
LINE
  5
53B
100
AcDbEntity
  8
0
  6
Continuous
 62
     8
100
AcDbLine
 10
410.944118
 20
130.507493
 30
0.0
 11
425.944011
 21
130.507493
 31
0.0
  0
LINE
  5
53C
100
AcDbEntity
  8
0
  6
Continuous
 62
     8
100
AcDbLine
 10
428.943905
 20
130.507493
 30
0.0
 11
430.944117
 21
130.507493
 31
0.0
  0
LINE
  5
53D
100
AcDbEntity
  8
0
  6
Continuous
 62
     8
100
AcDbLine
 10
433.944011
 20
130.507493
 30
0.0
 11
448.943903
 21
130.507493
 31
0.0
  0
LINE
  5
53E
100
AcDbEntity
  8
0
  6
Continuous
 62
     8
100
AcDbLine
 10
458.944116
 20
130.507493
 30
0.0
 11
476.490237
 21
130.507493
 31
0.0
  0
LINE
  5
53F
100
AcDbEntity
  8
0
  6
Continuous
 62
     8
100
AcDbLine
 10
479.49013
 20
130.507493
 30
0.0
 11
481.489917
 21
130.507493
 31
0.0
  0
LINE
  5
540
100
AcDbEntity
  8
0
  6
Continuous
 62
     8
100
AcDbLine
 10
484.490236
 20
130.507493
 30
0.0
 11
502.036357
 21
130.507493
 31
0.0
  0
ENDBLK
  5
541
100
AcDbEntity
  8
0
100
AcDbBlockEnd
  0
BLOCK
  5
544
100
AcDbEntity
  8
0
100
AcDbBlockBegin
  2
*B126
 70
     0
 10
0.0
 20
0.0
 30
0.0
  3
*B126
  1

  0
LINE
  5
545
100
AcDbEntity
  8
0
  6
Continuous
 62
     8
100
AcDbLine
 10
207.944237
 20
178.507065
 30
0.0
 11
214.94413
 21
178.507065
 31
0.0
  0
LINE
  5
546
100
AcDbEntity
  8
0
  6
Continuous
 62
     8
100
AcDbLine
 10
224.943917
 20
178.507065
 30
0.0
 11
231.944236
 21
178.507065
 31
0.0
  0
ENDBLK
  5
547
100
AcDbEntity
  8
0
100
AcDbBlockEnd
  0
BLOCK
  5
54A
100
AcDbEntity
  8
0
100
AcDbBlockBegin
  2
*B127
 70
     0
 10
0.0
 20
0.0
 30
0.0
  3
*B127
  1

  0
LINE
  5
54B
100
AcDbEntity
  8
0
  6
Continuous
 62
     8
100
AcDbLine
 10
309.944018
 20
106.50792
 30
0.0
 11
316.943911
 21
106.50792
 31
0.0
  0
LINE
  5
54C
100
AcDbEntity
  8
0
  6
Continuous
 62
     8
100
AcDbLine
 10
326.944124
 20
106.50792
 30
0.0
 11
333.944017
 21
106.50792
 31
0.0
  0
ENDBLK
  5
54D
100
AcDbEntity
  8
0
100
AcDbBlockEnd
  0
BLOCK
  5
550
100
AcDbEntity
  8
0
100
AcDbBlockBegin
  2
*B128
 70
     0
 10
0.0
 20
0.0
 30
0.0
  3
*B128
  1

  0
LINE
  5
551
100
AcDbEntity
  8
0
  6
Continuous
 62
     8
100
AcDbLine
 10
357.944015
 20
106.50792
 30
0.0
 11
364.943908
 21
106.50792
 31
0.0
  0
LINE
  5
552
100
AcDbEntity
  8
0
  6
Continuous
 62
     8
100
AcDbLine
 10
374.944121
 20
106.50792
 30
0.0
 11
381.944014
 21
106.50792
 31
0.0
  0
ENDBLK
  5
553
100
AcDbEntity
  8
0
100
AcDbBlockEnd
  0
BLOCK
  5
556
100
AcDbEntity
  8
0
100
AcDbBlockBegin
  2
*B129
 70
     0
 10
0.0
 20
0.0
 30
0.0
  3
*B129
  1

  0
LINE
  5
557
100
AcDbEntity
  8
0
  6
Continuous
 62
     8
100
AcDbLine
 10
267.944233
 20
166.507065
 30
0.0
 11
267.944233
 21
173.506958
 31
0.0
  0
LINE
  5
558
100
AcDbEntity
  8
0
  6
Continuous
 62
     8
100
AcDbLine
 10
267.944233
 20
183.506745
 30
0.0
 11
267.944233
 21
190.506638
 31
0.0
  0
ENDBLK
  5
559
100
AcDbEntity
  8
0
100
AcDbBlockEnd
  0
BLOCK
  5
55C
100
AcDbEntity
  8
0
100
AcDbBlockBegin
  2
*B130
 70
     0
 10
0.0
 20
0.0
 30
0.0
  3
*B130
  1

  0
LINE
  5
55D
100
AcDbEntity
  8
0
  6
Continuous
 62
     8
100
AcDbLine
 10
357.944015
 20
217.996795
 30
0.0
 11
357.944015
 21
221.996795
 31
0.0
  0
LINE
  5
55E
100
AcDbEntity
  8
0
  6
Continuous
 62
     8
100
AcDbLine
 10
357.944015
 20
118.507919
 30
0.0
 11
357.944015
 21
125.507813
 31
0.0
  0
LINE
  5
55F
100
AcDbEntity
  8
0
  6
Continuous
 62
     8
100
AcDbLine
 10
357.944015
 20
135.507599
 30
0.0
 11
357.944015
 21
145.605268
 31
0.0
  0
LINE
  5
560
100
AcDbEntity
  8
0
  6
Continuous
 62
     8
100
AcDbLine
 10
357.944015
 20
148.605587
 30
0.0
 11
357.944015
 21
150.605375
 31
0.0
  0
LINE
  5
561
100
AcDbEntity
  8
0
  6
Continuous
 62
     8
100
AcDbLine
 10
357.944015
 20
153.605268
 30
0.0
 11
357.944015
 21
163.703363
 31
0.0
  0
LINE
  5
562
100
AcDbEntity
  8
0
  6
Continuous
 62
     8
100
AcDbLine
 10
357.944015
 20
166.703256
 30
0.0
 11
357.944015
 21
168.703043
 31
0.0
  0
LINE
  5
563
100
AcDbEntity
  8
0
  6
Continuous
 62
     8
100
AcDbLine
 10
357.944015
 20
171.703362
 30
0.0
 11
357.944015
 21
181.801032
 31
0.0
  0
LINE
  5
564
100
AcDbEntity
  8
0
  6
Continuous
 62
     8
100
AcDbLine
 10
357.944015
 20
184.800925
 30
0.0
 11
357.944015
 21
186.801138
 31
0.0
  0
LINE
  5
565
100
AcDbEntity
  8
0
  6
Continuous
 62
     8
100
AcDbLine
 10
357.944015
 20
189.801031
 30
0.0
 11
357.944015
 21
199.898701
 31
0.0
  0
LINE
  5
566
100
AcDbEntity
  8
0
  6
Continuous
 62
     8
100
AcDbLine
 10
357.944015
 20
202.89902
 30
0.0
 11
357.944015
 21
204.898807
 31
0.0
  0
LINE
  5
567
100
AcDbEntity
  8
0
  6
Continuous
 62
     8
100
AcDbLine
 10
357.944015
 20
207.8987
 30
0.0
 11
357.944015
 21
217.996795
 31
0.0
  0
ENDBLK
  5
568
100
AcDbEntity
  8
0
100
AcDbBlockEnd
  0
BLOCK
  5
56B
100
AcDbEntity
  8
0
100
AcDbBlockBegin
  2
*B131
 70
     0
 10
0.0
 20
0.0
 30
0.0
  3
*B131
  1

  0
LINE
  5
56C
100
AcDbEntity
  8
0
  6
Continuous
 62
     8
100
AcDbLine
 10
406.627064
 20
401.993805
 30
0.0
 11
406.627064
 21
405.993805
 31
0.0
  0
LINE
  5
56D
100
AcDbEntity
  8
0
  6
Continuous
 62
     8
100
AcDbLine
 10
406.627064
 20
315.883373
 30
0.0
 11
406.627064
 21
326.7058
 31
0.0
  0
LINE
  5
56E
100
AcDbEntity
  8
0
  6
Continuous
 62
     8
100
AcDbLine
 10
406.627064
 20
329.705694
 30
0.0
 11
406.627064
 21
331.705481
 31
0.0
  0
LINE
  5
56F
100
AcDbEntity
  8
0
  6
Continuous
 62
     8
100
AcDbLine
 10
406.627064
 20
334.705374
 30
0.0
 11
406.627064
 21
345.527802
 31
0.0
  0
LINE
  5
570
100
AcDbEntity
  8
0
  6
Continuous
 62
     8
100
AcDbLine
 10
406.627064
 20
348.527695
 30
0.0
 11
406.627064
 21
350.527482
 31
0.0
  0
LINE
  5
571
100
AcDbEntity
  8
0
  6
Continuous
 62
     8
100
AcDbLine
 10
406.627064
 20
353.527375
 30
0.0
 11
406.627064
 21
364.349803
 31
0.0
  0
LINE
  5
572
100
AcDbEntity
  8
0
  6
Continuous
 62
     8
100
AcDbLine
 10
406.627064
 20
367.349696
 30
0.0
 11
406.627064
 21
369.349483
 31
0.0
  0
LINE
  5
573
100
AcDbEntity
  8
0
  6
Continuous
 62
     8
100
AcDbLine
 10
406.627064
 20
372.349377
 30
0.0
 11
406.627064
 21
383.171804
 31
0.0
  0
LINE
  5
574
100
AcDbEntity
  8
0
  6
Continuous
 62
     8
100
AcDbLine
 10
406.627064
 20
386.171697
 30
0.0
 11
406.627064
 21
388.171484
 31
0.0
  0
LINE
  5
575
100
AcDbEntity
  8
0
  6
Continuous
 62
     8
100
AcDbLine
 10
406.627064
 20
391.171803
 30
0.0
 11
406.627064
 21
401.993805
 31
0.0
  0
ENDBLK
  5
576
100
AcDbEntity
  8
0
100
AcDbBlockEnd
  0
BLOCK
  5
579
100
AcDbEntity
  8
0
100
AcDbBlockBegin
  2
*B132
 70
     0
 10
0.0
 20
0.0
 30
0.0
  3
*B132
  1

  0
LINE
  5
57A
100
AcDbEntity
  8
0
  6
Continuous
 62
     8
100
AcDbLine
 10
438.944117
 20
34.509201
 30
0.0
 11
530.036355
 21
34.509201
 31
0.0
  0
ENDBLK
  5
57B
100
AcDbEntity
  8
0
100
AcDbBlockEnd
  0
BLOCK
  5
57E
100
AcDbEntity
  8
0
100
AcDbBlockBegin
  2
*B133
 70
     0
 10
0.0
 20
0.0
 30
0.0
  3
*B133
  1

  0
LINE
  5
57F
100
AcDbEntity
  8
0
  6
Continuous
 62
     8
100
AcDbLine
 10
417.944012
 20
94.508346
 30
0.0
 11
417.944012
 21
101.50824
 31
0.0
  0
LINE
  5
580
100
AcDbEntity
  8
0
  6
Continuous
 62
     8
100
AcDbLine
 10
417.944012
 20
111.508026
 30
0.0
 11
417.944012
 21
118.507919
 31
0.0
  0
ENDBLK
  5
581
100
AcDbEntity
  8
0
100
AcDbBlockEnd
  0
BLOCK
  5
584
100
AcDbEntity
  8
0
100
AcDbBlockBegin
  2
*B134
 70
     0
 10
0.0
 20
0.0
 30
0.0
  3
*B134
  1

  0
LINE
  5
585
100
AcDbEntity
  8
0
  6
Continuous
 62
     8
100
AcDbLine
 10
237.944022
 20
154.507066
 30
0.0
 11
244.943916
 21
154.507066
 31
0.0
  0
LINE
  5
586
100
AcDbEntity
  8
0
  6
Continuous
 62
     8
100
AcDbLine
 10
254.944128
 20
154.507066
 30
0.0
 11
261.944021
 21
154.507066
 31
0.0
  0
ENDBLK
  5
587
100
AcDbEntity
  8
0
100
AcDbBlockEnd
  0
BLOCK
  5
58A
100
AcDbEntity
  8
0
100
AcDbBlockBegin
  2
*B135
 70
     0
 10
0.0
 20
0.0
 30
0.0
  3
*B135
  1

  0
LINE
  5
58B
100
AcDbEntity
  8
0
  6
Continuous
 62
     8
100
AcDbLine
 10
405.944012
 20
217.996795
 30
0.0
 11
405.944012
 21
221.996795
 31
0.0
  0
LINE
  5
58C
100
AcDbEntity
  8
0
  6
Continuous
 62
     8
100
AcDbLine
 10
405.944012
 20
118.507919
 30
0.0
 11
405.944012
 21
125.507813
 31
0.0
  0
LINE
  5
58D
100
AcDbEntity
  8
0
  6
Continuous
 62
     8
100
AcDbLine
 10
405.944012
 20
135.507599
 30
0.0
 11
405.944012
 21
145.605268
 31
0.0
  0
LINE
  5
58E
100
AcDbEntity
  8
0
  6
Continuous
 62
     8
100
AcDbLine
 10
405.944012
 20
148.605587
 30
0.0
 11
405.944012
 21
150.605375
 31
0.0
  0
LINE
  5
58F
100
AcDbEntity
  8
0
  6
Continuous
 62
     8
100
AcDbLine
 10
405.944012
 20
153.605268
 30
0.0
 11
405.944012
 21
163.703363
 31
0.0
  0
LINE
  5
590
100
AcDbEntity
  8
0
  6
Continuous
 62
     8
100
AcDbLine
 10
405.944012
 20
166.703256
 30
0.0
 11
405.944012
 21
168.703043
 31
0.0
  0
LINE
  5
591
100
AcDbEntity
  8
0
  6
Continuous
 62
     8
100
AcDbLine
 10
405.944012
 20
171.703362
 30
0.0
 11
405.944012
 21
181.801032
 31
0.0
  0
LINE
  5
592
100
AcDbEntity
  8
0
  6
Continuous
 62
     8
100
AcDbLine
 10
405.944012
 20
184.800925
 30
0.0
 11
405.944012
 21
186.801138
 31
0.0
  0
LINE
  5
593
100
AcDbEntity
  8
0
  6
Continuous
 62
     8
100
AcDbLine
 10
405.944012
 20
189.801031
 30
0.0
 11
405.944012
 21
199.898701
 31
0.0
  0
LINE
  5
594
100
AcDbEntity
  8
0
  6
Continuous
 62
     8
100
AcDbLine
 10
405.944012
 20
202.89902
 30
0.0
 11
405.944012
 21
204.898807
 31
0.0
  0
LINE
  5
595
100
AcDbEntity
  8
0
  6
Continuous
 62
     8
100
AcDbLine
 10
405.944012
 20
207.8987
 30
0.0
 11
405.944012
 21
217.996795
 31
0.0
  0
ENDBLK
  5
596
100
AcDbEntity
  8
0
100
AcDbBlockEnd
  0
BLOCK
  5
599
100
AcDbEntity
  8
0
100
AcDbBlockBegin
  2
*B136
 70
     0
 10
0.0
 20
0.0
 30
0.0
  3
*B136
  1

  0
LINE
  5
59A
100
AcDbEntity
  8
0
  6
Continuous
 62
     8
100
AcDbLine
 10
273.94402
 20
94.508346
 30
0.0
 11
273.94402
 21
101.50824
 31
0.0
  0
LINE
  5
59B
100
AcDbEntity
  8
0
  6
Continuous
 62
     8
100
AcDbLine
 10
273.94402
 20
111.508026
 30
0.0
 11
273.94402
 21
118.507919
 31
0.0
  0
ENDBLK
  5
59C
100
AcDbEntity
  8
0
100
AcDbBlockEnd
  0
BLOCK
  5
59F
100
AcDbEntity
  8
0
100
AcDbBlockBegin
  2
*B137
 70
     0
 10
0.0
 20
0.0
 30
0.0
  3
*B137
  1

  0
LINE
  5
5A0
100
AcDbEntity
  8
0
  6
Continuous
 62
     8
100
AcDbLine
 10
303.943806
 20
70.508773
 30
0.0
 11
303.943806
 21
77.508667
 31
0.0
  0
LINE
  5
5A1
100
AcDbEntity
  8
0
  6
Continuous
 62
     8
100
AcDbLine
 10
303.943806
 20
87.508453
 30
0.0
 11
303.943806
 21
94.508346
 31
0.0
  0
ENDBLK
  5
5A2
100
AcDbEntity
  8
0
100
AcDbBlockEnd
  0
BLOCK
  5
5A5
100
AcDbEntity
  8
0
100
AcDbBlockBegin
  2
*B138
 70
     0
 10
0.0
 20
0.0
 30
0.0
  3
*B138
  1

  0
LINE
  5
5A6
100
AcDbEntity
  8
0
  6
Continuous
 62
     6
100
AcDbLine
 10
195.944238
 20
92.508134
 30
0.0
 11
195.944238
 21
96.508133
 31
0.0
  0
LINE
  5
5A7
100
AcDbEntity
  8
0
  6
Continuous
 62
     6
100
AcDbLine
 10
193.944025
 20
94.508346
 30
0.0
 11
197.944025
 21
94.508346
 31
0.0
  0
ENDBLK
  5
5A8
100
AcDbEntity
  8
0
100
AcDbBlockEnd
  0
BLOCK
  5
5AB
100
AcDbEntity
  8
0
100
AcDbBlockBegin
  2
*B139
 70
     0
 10
0.0
 20
0.0
 30
0.0
  3
*B139
  1

  0
LINE
  5
5AC
100
AcDbEntity
  8
0
  6
Continuous
 62
     6
100
AcDbLine
 10
271.944233
 20
106.50792
 30
0.0
 11
275.944233
 21
106.50792
 31
0.0
  0
LINE
  5
5AD
100
AcDbEntity
  8
0
  6
Continuous
 62
     6
100
AcDbLine
 10
273.94402
 20
104.508133
 30
0.0
 11
273.94402
 21
108.508133
 31
0.0
  0
ENDBLK
  5
5AE
100
AcDbEntity
  8
0
100
AcDbBlockEnd
  0
BLOCK
  5
5B1
100
AcDbEntity
  8
0
100
AcDbBlockBegin
  2
*B140
 70
     0
 10
0.0
 20
0.0
 30
0.0
  3
*B140
  1

  0
LINE
  5
5B2
100
AcDbEntity
  8
0
  6
Continuous
 62
     6
100
AcDbLine
 10
201.944025
 20
152.507279
 30
0.0
 11
201.944025
 21
156.507279
 31
0.0
  0
LINE
  5
5B3
100
AcDbEntity
  8
0
  6
Continuous
 62
     6
100
AcDbLine
 10
199.944237
 20
154.507066
 30
0.0
 11
203.944237
 21
154.507066
 31
0.0
  0
ENDBLK
  5
5B4
100
AcDbEntity
  8
0
100
AcDbBlockEnd
  0
BLOCK
  5
5B7
100
AcDbEntity
  8
0
100
AcDbBlockBegin
  2
*B141
 70
     0
 10
0.0
 20
0.0
 30
0.0
  3
*B141
  1

  0
LINE
  5
5B8
100
AcDbEntity
  8
0
  6
Continuous
 62
     6
100
AcDbLine
 10
343.944229
 20
154.507066
 30
0.0
 11
347.943803
 21
154.507066
 31
0.0
  0
LINE
  5
5B9
100
AcDbEntity
  8
0
  6
Continuous
 62
     6
100
AcDbLine
 10
345.944016
 20
152.507279
 30
0.0
 11
345.944016
 21
156.507279
 31
0.0
  0
ENDBLK
  5
5BA
100
AcDbEntity
  8
0
100
AcDbBlockEnd
  0
BLOCK
  5
5BD
100
AcDbEntity
  8
0
100
AcDbBlockBegin
  2
*B142
 70
     0
 10
0.0
 20
0.0
 30
0.0
  3
*B142
  1

  0
LINE
  5
5BE
100
AcDbEntity
  8
0
  6
Continuous
 62
     6
100
AcDbLine
 10
279.944233
 20
164.507278
 30
0.0
 11
279.944233
 21
168.506852
 31
0.0
  0
LINE
  5
5BF
100
AcDbEntity
  8
0
  6
Continuous
 62
     6
100
AcDbLine
 10
277.94402
 20
166.507065
 30
0.0
 11
281.94402
 21
166.507065
 31
0.0
  0
ENDBLK
  5
5C0
100
AcDbEntity
  8
0
100
AcDbBlockEnd
  0
BLOCK
  5
5C3
100
AcDbEntity
  8
0
100
AcDbBlockBegin
  2
*B143
 70
     0
 10
0.0
 20
0.0
 30
0.0
  3
*B143
  1

  0
LINE
  5
5C4
100
AcDbEntity
  8
0
  6
Continuous
 62
     6
100
AcDbLine
 10
387.943801
 20
92.508134
 30
0.0
 11
387.943801
 21
96.508133
 31
0.0
  0
LINE
  5
5C5
100
AcDbEntity
  8
0
  6
Continuous
 62
     6
100
AcDbLine
 10
385.944014
 20
94.508346
 30
0.0
 11
389.944013
 21
94.508346
 31
0.0
  0
ENDBLK
  5
5C6
100
AcDbEntity
  8
0
100
AcDbBlockEnd
  0
BLOCK
  5
5C9
100
AcDbEntity
  8
0
100
AcDbBlockBegin
  2
*B144
 70
     0
 10
0.0
 20
0.0
 30
0.0
  3
*B144
  1

  0
LINE
  5
5CA
100
AcDbEntity
  8
0
  6
Continuous
 62
     6
100
AcDbLine
 10
415.943799
 20
106.50792
 30
0.0
 11
419.943799
 21
106.50792
 31
0.0
  0
LINE
  5
5CB
100
AcDbEntity
  8
0
  6
Continuous
 62
     6
100
AcDbLine
 10
417.944012
 20
104.508133
 30
0.0
 11
417.944012
 21
108.508133
 31
0.0
  0
ENDBLK
  5
5CC
100
AcDbEntity
  8
0
100
AcDbBlockEnd
  0
BLOCK
  5
5CF
100
AcDbEntity
  8
0
100
AcDbBlockBegin
  2
*B145
 70
     0
 10
0.0
 20
0.0
 30
0.0
  3
*B145
  1

  0
LINE
  5
5D0
100
AcDbEntity
  8
0
  6
Continuous
 62
     6
100
AcDbLine
 10
393.553333
 20
264.386408
 30
0.0
 11
393.553333
 21
268.386408
 31
0.0
  0
LINE
  5
5D1
100
AcDbEntity
  8
0
  6
Continuous
 62
     6
100
AcDbLine
 10
391.553121
 20
266.386195
 30
0.0
 11
395.55312
 21
266.386195
 31
0.0
  0
ENDBLK
  5
5D2
100
AcDbEntity
  8
0
100
AcDbBlockEnd
  0
BLOCK
  5
5D5
100
AcDbEntity
  8
0
100
AcDbBlockBegin
  2
*B146
 70
     0
 10
0.0
 20
0.0
 30
0.0
  3
*B146
  1

  0
LINE
  5
5D6
100
AcDbEntity
  8
0
  6
Continuous
 62
     6
100
AcDbLine
 10
219.944236
 20
176.506852
 30
0.0
 11
219.944236
 21
180.506852
 31
0.0
  0
LINE
  5
5D7
100
AcDbEntity
  8
0
  6
Continuous
 62
     6
100
AcDbLine
 10
217.944024
 20
178.507065
 30
0.0
 11
221.944023
 21
178.507065
 31
0.0
  0
ENDBLK
  5
5D8
100
AcDbEntity
  8
0
100
AcDbBlockEnd
  0
BLOCK
  5
5DB
100
AcDbEntity
  8
0
100
AcDbBlockBegin
  2
*B147
 70
     0
 10
0.0
 20
0.0
 30
0.0
  3
*B147
  1

  0
LINE
  5
5DC
100
AcDbEntity
  8
0
  6
Continuous
 62
     6
100
AcDbLine
 10
291.944232
 20
92.508134
 30
0.0
 11
291.944232
 21
96.508133
 31
0.0
  0
LINE
  5
5DD
100
AcDbEntity
  8
0
  6
Continuous
 62
     6
100
AcDbLine
 10
289.944019
 20
94.508346
 30
0.0
 11
293.944019
 21
94.508346
 31
0.0
  0
ENDBLK
  5
5DE
100
AcDbEntity
  8
0
100
AcDbBlockEnd
  0
BLOCK
  5
5E1
100
AcDbEntity
  8
0
100
AcDbBlockBegin
  2
*B148
 70
     0
 10
0.0
 20
0.0
 30
0.0
  3
*B148
  1

  0
LINE
  5
5E2
100
AcDbEntity
  8
0
  6
Continuous
 62
     6
100
AcDbLine
 10
423.943799
 20
164.507278
 30
0.0
 11
423.943799
 21
168.506852
 31
0.0
  0
LINE
  5
5E3
100
AcDbEntity
  8
0
  6
Continuous
 62
     6
100
AcDbLine
 10
421.944011
 20
166.507065
 30
0.0
 11
425.944011
 21
166.507065
 31
0.0
  0
ENDBLK
  5
5E4
100
AcDbEntity
  8
0
100
AcDbBlockEnd
  0
BLOCK
  5
5E7
100
AcDbEntity
  8
0
100
AcDbBlockBegin
  2
*B149
 70
     0
 10
0.0
 20
0.0
 30
0.0
  3
*B149
  1

  0
LINE
  5
5E8
100
AcDbEntity
  8
0
  6
Continuous
 62
     6
100
AcDbLine
 10
265.944021
 20
178.507065
 30
0.0
 11
269.944021
 21
178.507065
 31
0.0
  0
LINE
  5
5E9
100
AcDbEntity
  8
0
  6
Continuous
 62
     6
100
AcDbLine
 10
267.944233
 20
176.506852
 30
0.0
 11
267.944233
 21
180.506852
 31
0.0
  0
ENDBLK
  5
5EA
100
AcDbEntity
  8
0
100
AcDbBlockEnd
  0
BLOCK
  5
5ED
100
AcDbEntity
  8
0
100
AcDbBlockBegin
  2
*B150
 70
     0
 10
0.0
 20
0.0
 30
0.0
  3
*B150
  1

  0
LINE
  5
5EE
100
AcDbEntity
  8
0
  6
Continuous
 62
     6
100
AcDbLine
 10
261.944021
 20
128.507706
 30
0.0
 11
261.944021
 21
132.507706
 31
0.0
  0
LINE
  5
5EF
100
AcDbEntity
  8
0
  6
Continuous
 62
     6
100
AcDbLine
 10
259.944234
 20
130.507493
 30
0.0
 11
263.944234
 21
130.507493
 31
0.0
  0
ENDBLK
  5
5F0
100
AcDbEntity
  8
0
100
AcDbBlockEnd
  0
BLOCK
  5
5F3
100
AcDbEntity
  8
0
100
AcDbBlockBegin
  2
*B151
 70
     0
 10
0.0
 20
0.0
 30
0.0
  3
*B151
  1

  0
LINE
  5
5F4
100
AcDbEntity
  8
0
  6
Continuous
 62
     6
100
AcDbLine
 10
223.944236
 20
106.50792
 30
0.0
 11
227.944236
 21
106.50792
 31
0.0
  0
LINE
  5
5F5
100
AcDbEntity
  8
0
  6
Continuous
 62
     6
100
AcDbLine
 10
225.944023
 20
104.508133
 30
0.0
 11
225.944023
 21
108.508133
 31
0.0
  0
ENDBLK
  5
5F6
100
AcDbEntity
  8
0
100
AcDbBlockEnd
  0
BLOCK
  5
5F9
100
AcDbEntity
  8
0
100
AcDbBlockBegin
  2
*B152
 70
     0
 10
0.0
 20
0.0
 30
0.0
  3
*B152
  1

  0
LINE
  5
5FA
100
AcDbEntity
  8
0
  6
Continuous
 62
     6
100
AcDbLine
 10
393.944013
 20
152.507279
 30
0.0
 11
393.944013
 21
156.507279
 31
0.0
  0
LINE
  5
5FB
100
AcDbEntity
  8
0
  6
Continuous
 62
     6
100
AcDbLine
 10
391.9438
 20
154.507066
 30
0.0
 11
395.9438
 21
154.507066
 31
0.0
  0
ENDBLK
  5
5FC
100
AcDbEntity
  8
0
100
AcDbBlockEnd
  0
BLOCK
  5
5FF
100
AcDbEntity
  8
0
100
AcDbBlockBegin
  2
*B153
 70
     0
 10
0.0
 20
0.0
 30
0.0
  3
*B153
  1

  0
LINE
  5
600
100
AcDbEntity
  8
0
  6
Continuous
 62
     6
100
AcDbLine
 10
207.944237
 20
80.50856
 30
0.0
 11
207.944237
 21
84.50856
 31
0.0
  0
LINE
  5
601
100
AcDbEntity
  8
0
  6
Continuous
 62
     6
100
AcDbLine
 10
205.944024
 20
82.508347
 30
0.0
 11
209.944024
 21
82.508347
 31
0.0
  0
ENDBLK
  5
602
100
AcDbEntity
  8
0
100
AcDbBlockEnd
  0
BLOCK
  5
605
100
AcDbEntity
  8
0
100
AcDbBlockBegin
  2
*B154
 70
     0
 10
0.0
 20
0.0
 30
0.0
  3
*B154
  1

  0
LINE
  5
606
100
AcDbEntity
  8
0
  6
Continuous
 62
     6
100
AcDbLine
 10
241.944022
 20
94.508346
 30
0.0
 11
245.944022
 21
94.508346
 31
0.0
  0
LINE
  5
607
100
AcDbEntity
  8
0
  6
Continuous
 62
     6
100
AcDbLine
 10
243.944235
 20
92.508134
 30
0.0
 11
243.944235
 21
96.508133
 31
0.0
  0
ENDBLK
  5
608
100
AcDbEntity
  8
0
100
AcDbBlockEnd
  0
BLOCK
  5
60B
100
AcDbEntity
  8
0
100
AcDbBlockBegin
  2
*B155
 70
     0
 10
0.0
 20
0.0
 30
0.0
  3
*B155
  1

  0
LINE
  5
60C
100
AcDbEntity
  8
0
  6
Continuous
 62
     6
100
AcDbLine
 10
225.553343
 20
300.385981
 30
0.0
 11
225.553343
 21
304.38598
 31
0.0
  0
LINE
  5
60D
100
AcDbEntity
  8
0
  6
Continuous
 62
     6
100
AcDbLine
 10
223.553556
 20
302.385768
 30
0.0
 11
227.553556
 21
302.385768
 31
0.0
  0
ENDBLK
  5
60E
100
AcDbEntity
  8
0
100
AcDbBlockEnd
  0
BLOCK
  5
611
100
AcDbEntity
  8
0
100
AcDbBlockBegin
  2
*B156
 70
     0
 10
0.0
 20
0.0
 30
0.0
  3
*B156
  1

  0
LINE
  5
612
100
AcDbEntity
  8
0
  6
Continuous
 62
     6
100
AcDbLine
 10
339.943804
 20
92.508134
 30
0.0
 11
339.943804
 21
96.508133
 31
0.0
  0
LINE
  5
613
100
AcDbEntity
  8
0
  6
Continuous
 62
     6
100
AcDbLine
 10
337.944016
 20
94.508346
 30
0.0
 11
341.944016
 21
94.508346
 31
0.0
  0
ENDBLK
  5
614
100
AcDbEntity
  8
0
100
AcDbBlockEnd
  0
BLOCK
  5
617
100
AcDbEntity
  8
0
100
AcDbBlockBegin
  2
*B157
 70
     0
 10
0.0
 20
0.0
 30
0.0
  3
*B157
  1

  0
LINE
  5
618
100
AcDbEntity
  8
0
  6
Continuous
 62
     6
100
AcDbLine
 10
403.9438
 20
130.507493
 30
0.0
 11
407.943799
 21
130.507493
 31
0.0
  0
LINE
  5
619
100
AcDbEntity
  8
0
  6
Continuous
 62
     6
100
AcDbLine
 10
405.944012
 20
128.507706
 30
0.0
 11
405.944012
 21
132.507706
 31
0.0
  0
ENDBLK
  5
61A
100
AcDbEntity
  8
0
100
AcDbBlockEnd
  0
BLOCK
  5
61D
100
AcDbEntity
  8
0
100
AcDbBlockBegin
  2
*B158
 70
     0
 10
0.0
 20
0.0
 30
0.0
  3
*B158
  1

  0
LINE
  5
61E
100
AcDbEntity
  8
0
  6
Continuous
 62
     6
100
AcDbLine
 10
297.944019
 20
152.507279
 30
0.0
 11
297.944019
 21
156.507279
 31
0.0
  0
LINE
  5
61F
100
AcDbEntity
  8
0
  6
Continuous
 62
     6
100
AcDbLine
 10
295.944232
 20
154.507066
 30
0.0
 11
299.944232
 21
154.507066
 31
0.0
  0
ENDBLK
  5
620
100
AcDbEntity
  8
0
100
AcDbBlockEnd
  0
BLOCK
  5
623
100
AcDbEntity
  8
0
100
AcDbBlockBegin
  2
*B159
 70
     0
 10
0.0
 20
0.0
 30
0.0
  3
*B159
  1

  0
LINE
  5
624
100
AcDbEntity
  8
0
  6
Continuous
 62
     6
100
AcDbLine
 10
321.944017
 20
104.508133
 30
0.0
 11
321.944017
 21
108.508133
 31
0.0
  0
LINE
  5
625
100
AcDbEntity
  8
0
  6
Continuous
 62
     6
100
AcDbLine
 10
319.943805
 20
106.50792
 30
0.0
 11
323.943805
 21
106.50792
 31
0.0
  0
ENDBLK
  5
626
100
AcDbEntity
  8
0
100
AcDbBlockEnd
  0
BLOCK
  5
629
100
AcDbEntity
  8
0
100
AcDbBlockBegin
  2
*B160
 70
     0
 10
0.0
 20
0.0
 30
0.0
  3
*B160
  1

  0
LINE
  5
62A
100
AcDbEntity
  8
0
  6
Continuous
 62
     6
100
AcDbLine
 10
249.553342
 20
264.386408
 30
0.0
 11
249.553342
 21
268.386408
 31
0.0
  0
LINE
  5
62B
100
AcDbEntity
  8
0
  6
Continuous
 62
     6
100
AcDbLine
 10
247.553129
 20
266.386195
 30
0.0
 11
251.553129
 21
266.386195
 31
0.0
  0
ENDBLK
  5
62C
100
AcDbEntity
  8
0
100
AcDbBlockEnd
  0
BLOCK
  5
62F
100
AcDbEntity
  8
0
100
AcDbBlockBegin
  2
*B161
 70
     0
 10
0.0
 20
0.0
 30
0.0
  3
*B161
  1

  0
LINE
  5
630
100
AcDbEntity
  8
0
  6
Continuous
 62
     6
100
AcDbLine
 10
363.943802
 20
176.506852
 30
0.0
 11
363.943802
 21
180.506852
 31
0.0
  0
LINE
  5
631
100
AcDbEntity
  8
0
  6
Continuous
 62
     6
100
AcDbLine
 10
361.944015
 20
178.507065
 30
0.0
 11
365.944015
 21
178.507065
 31
0.0
  0
ENDBLK
  5
632
100
AcDbEntity
  8
0
100
AcDbBlockEnd
  0
BLOCK
  5
635
100
AcDbEntity
  8
0
100
AcDbBlockBegin
  2
*B162
 70
     0
 10
0.0
 20
0.0
 30
0.0
  3
*B162
  1

  0
LINE
  5
636
100
AcDbEntity
  8
0
  6
Continuous
 62
     6
100
AcDbLine
 10
417.553332
 20
300.385981
 30
0.0
 11
417.553332
 21
304.38598
 31
0.0
  0
LINE
  5
637
100
AcDbEntity
  8
0
  6
Continuous
 62
     6
100
AcDbLine
 10
415.553119
 20
302.385768
 30
0.0
 11
419.553119
 21
302.385768
 31
0.0
  0
ENDBLK
  5
638
100
AcDbEntity
  8
0
100
AcDbBlockEnd
  0
BLOCK
  5
63B
100
AcDbEntity
  8
0
100
AcDbBlockBegin
  2
*B163
 70
     0
 10
0.0
 20
0.0
 30
0.0
  3
*B163
  1

  0
LINE
  5
63C
100
AcDbEntity
  8
0
  6
Continuous
 62
     6
100
AcDbLine
 10
345.553336
 20
264.386408
 30
0.0
 11
345.553336
 21
268.386408
 31
0.0
  0
LINE
  5
63D
100
AcDbEntity
  8
0
  6
Continuous
 62
     6
100
AcDbLine
 10
343.553123
 20
266.386195
 30
0.0
 11
347.553123
 21
266.386195
 31
0.0
  0
ENDBLK
  5
63E
100
AcDbEntity
  8
0
100
AcDbBlockEnd
  0
BLOCK
  5
641
100
AcDbEntity
  8
0
100
AcDbBlockBegin
  2
*B164
 70
     0
 10
0.0
 20
0.0
 30
0.0
  3
*B164
  1

  0
LINE
  5
642
100
AcDbEntity
  8
0
  6
Continuous
 62
     6
100
AcDbLine
 10
321.553338
 20
300.385981
 30
0.0
 11
321.553338
 21
304.38598
 31
0.0
  0
LINE
  5
643
100
AcDbEntity
  8
0
  6
Continuous
 62
     6
100
AcDbLine
 10
319.553125
 20
302.385768
 30
0.0
 11
323.553125
 21
302.385768
 31
0.0
  0
ENDBLK
  5
644
100
AcDbEntity
  8
0
100
AcDbBlockEnd
  0
BLOCK
  5
647
100
AcDbEntity
  8
0
100
AcDbBlockBegin
  2
*B165
 70
     0
 10
0.0
 20
0.0
 30
0.0
  3
*B165
  1

  0
LINE
  5
648
100
AcDbEntity
  8
0
  6
Continuous
 62
     6
100
AcDbLine
 10
163.94424
 20
172.506852
 30
0.0
 11
167.944239
 21
172.506852
 31
0.0
  0
LINE
  5
649
100
AcDbEntity
  8
0
  6
Continuous
 62
     6
100
AcDbLine
 10
165.944027
 20
170.507065
 30
0.0
 11
165.944027
 21
174.507065
 31
0.0
  0
ENDBLK
  5
64A
100
AcDbEntity
  8
0
100
AcDbBlockEnd
  0
BLOCK
  5
64D
100
AcDbEntity
  8
0
100
AcDbBlockBegin
  2
*B166
 70
     0
 10
0.0
 20
0.0
 30
0.0
  3
*B166
  1

  0
LINE
  5
64E
100
AcDbEntity
  8
0
  6
Continuous
 62
     6
100
AcDbLine
 10
327.94423
 20
164.507278
 30
0.0
 11
327.94423
 21
168.506852
 31
0.0
  0
LINE
  5
64F
100
AcDbEntity
  8
0
  6
Continuous
 62
     6
100
AcDbLine
 10
325.944017
 20
166.507065
 30
0.0
 11
329.944017
 21
166.507065
 31
0.0
  0
ENDBLK
  5
650
100
AcDbEntity
  8
0
100
AcDbBlockEnd
  0
BLOCK
  5
653
100
AcDbEntity
  8
0
100
AcDbBlockBegin
  2
*B167
 70
     0
 10
0.0
 20
0.0
 30
0.0
  3
*B167
  1

  0
LINE
  5
654
100
AcDbEntity
  8
0
  6
Continuous
 62
     6
100
AcDbLine
 10
355.944228
 20
130.507493
 30
0.0
 11
359.943802
 21
130.507493
 31
0.0
  0
LINE
  5
655
100
AcDbEntity
  8
0
  6
Continuous
 62
     6
100
AcDbLine
 10
357.944015
 20
128.507706
 30
0.0
 11
357.944015
 21
132.507706
 31
0.0
  0
ENDBLK
  5
656
100
AcDbEntity
  8
0
100
AcDbBlockEnd
  0
BLOCK
  5
659
100
AcDbEntity
  8
0
100
AcDbBlockBegin
  2
*B168
 70
     0
 10
0.0
 20
0.0
 30
0.0
  3
*B168
  1

  0
LINE
  5
65A
100
AcDbEntity
  8
0
  6
Continuous
 62
     6
100
AcDbLine
 10
273.55334
 20
300.385981
 30
0.0
 11
273.55334
 21
304.38598
 31
0.0
  0
LINE
  5
65B
100
AcDbEntity
  8
0
  6
Continuous
 62
     6
100
AcDbLine
 10
271.553553
 20
302.385768
 30
0.0
 11
275.553128
 21
302.385768
 31
0.0
  0
ENDBLK
  5
65C
100
AcDbEntity
  8
0
100
AcDbBlockEnd
  0
BLOCK
  5
65F
100
AcDbEntity
  8
0
100
AcDbBlockBegin
  2
*B169
 70
     0
 10
0.0
 20
0.0
 30
0.0
  3
*B169
  1

  0
LINE
  5
660
100
AcDbEntity
  8
0
  6
Continuous
 62
     6
100
AcDbLine
 10
351.943803
 20
80.50856
 30
0.0
 11
351.943803
 21
84.50856
 31
0.0
  0
LINE
  5
661
100
AcDbEntity
  8
0
  6
Continuous
 62
     6
100
AcDbLine
 10
349.944016
 20
82.508347
 30
0.0
 11
353.944016
 21
82.508347
 31
0.0
  0
ENDBLK
  5
662
100
AcDbEntity
  8
0
100
AcDbBlockEnd
  0
BLOCK
  5
665
100
AcDbEntity
  8
0
100
AcDbBlockBegin
  2
*B170
 70
     0
 10
0.0
 20
0.0
 30
0.0
  3
*B170
  1

  0
LINE
  5
666
100
AcDbEntity
  8
0
  6
Continuous
 62
     6
100
AcDbLine
 10
313.944018
 20
178.507065
 30
0.0
 11
317.944018
 21
178.507065
 31
0.0
  0
LINE
  5
667
100
AcDbEntity
  8
0
  6
Continuous
 62
     6
100
AcDbLine
 10
315.944231
 20
176.506852
 30
0.0
 11
315.944231
 21
180.506852
 31
0.0
  0
ENDBLK
  5
668
100
AcDbEntity
  8
0
100
AcDbBlockEnd
  0
BLOCK
  5
66B
100
AcDbEntity
  8
0
100
AcDbBlockBegin
  2
*B171
 70
     0
 10
0.0
 20
0.0
 30
0.0
  3
*B171
  1

  0
LINE
  5
66C
100
AcDbEntity
  8
0
  6
Continuous
 62
     6
100
AcDbLine
 10
369.944015
 20
104.508133
 30
0.0
 11
369.944015
 21
108.508133
 31
0.0
  0
LINE
  5
66D
100
AcDbEntity
  8
0
  6
Continuous
 62
     6
100
AcDbLine
 10
367.943802
 20
106.50792
 30
0.0
 11
371.943802
 21
106.50792
 31
0.0
  0
ENDBLK
  5
66E
100
AcDbEntity
  8
0
100
AcDbBlockEnd
  0
BLOCK
  5
671
100
AcDbEntity
  8
0
100
AcDbBlockBegin
  2
*B172
 70
     0
 10
0.0
 20
0.0
 30
0.0
  3
*B172
  1

  0
LINE
  5
672
100
AcDbEntity
  8
0
  6
Continuous
 62
     6
100
AcDbLine
 10
369.553335
 20
300.385981
 30
0.0
 11
369.553335
 21
304.38598
 31
0.0
  0
LINE
  5
673
100
AcDbEntity
  8
0
  6
Continuous
 62
     6
100
AcDbLine
 10
367.553122
 20
302.385768
 30
0.0
 11
371.553122
 21
302.385768
 31
0.0
  0
ENDBLK
  5
674
100
AcDbEntity
  8
0
100
AcDbBlockEnd
  0
BLOCK
  5
677
100
AcDbEntity
  8
0
100
AcDbBlockBegin
  2
*B173
 70
     0
 10
0.0
 20
0.0
 30
0.0
  3
*B173
  1

  0
LINE
  5
678
100
AcDbEntity
  8
0
  6
Continuous
 62
     6
100
AcDbLine
 10
373.944014
 20
166.507065
 30
0.0
 11
377.944014
 21
166.507065
 31
0.0
  0
LINE
  5
679
100
AcDbEntity
  8
0
  6
Continuous
 62
     6
100
AcDbLine
 10
375.943801
 20
164.507278
 30
0.0
 11
375.943801
 21
168.506852
 31
0.0
  0
ENDBLK
  5
67A
100
AcDbEntity
  8
0
100
AcDbBlockEnd
  0
BLOCK
  5
67D
100
AcDbEntity
  8
0
100
AcDbBlockBegin
  2
*B174
 70
     0
 10
0.0
 20
0.0
 30
0.0
  3
*B174
  1

  0
LINE
  5
67E
100
AcDbEntity
  8
0
  6
Continuous
 62
     6
100
AcDbLine
 10
399.9438
 20
80.50856
 30
0.0
 11
399.9438
 21
84.50856
 31
0.0
  0
LINE
  5
67F
100
AcDbEntity
  8
0
  6
Continuous
 62
     6
100
AcDbLine
 10
397.944013
 20
82.508347
 30
0.0
 11
401.944013
 21
82.508347
 31
0.0
  0
ENDBLK
  5
680
100
AcDbEntity
  8
0
100
AcDbBlockEnd
  0
BLOCK
  5
683
100
AcDbEntity
  8
0
100
AcDbBlockBegin
  2
*B175
 70
     0
 10
0.0
 20
0.0
 30
0.0
  3
*B175
  1

  0
LINE
  5
684
100
AcDbEntity
  8
0
  6
Continuous
 62
     6
100
AcDbLine
 10
249.944022
 20
152.507279
 30
0.0
 11
249.944022
 21
156.507279
 31
0.0
  0
LINE
  5
685
100
AcDbEntity
  8
0
  6
Continuous
 62
     6
100
AcDbLine
 10
247.944235
 20
154.507066
 30
0.0
 11
251.944234
 21
154.507066
 31
0.0
  0
ENDBLK
  5
686
100
AcDbEntity
  8
0
100
AcDbBlockEnd
  0
BLOCK
  5
689
100
AcDbEntity
  8
0
100
AcDbBlockBegin
  2
*B176
 70
     0
 10
0.0
 20
0.0
 30
0.0
  3
*B176
  1

  0
LINE
  5
68A
100
AcDbEntity
  8
0
  6
Continuous
 62
     6
100
AcDbLine
 10
231.944236
 20
164.507278
 30
0.0
 11
231.944236
 21
168.506852
 31
0.0
  0
LINE
  5
68B
100
AcDbEntity
  8
0
  6
Continuous
 62
     6
100
AcDbLine
 10
229.944023
 20
166.507065
 30
0.0
 11
233.944023
 21
166.507065
 31
0.0
  0
ENDBLK
  5
68C
100
AcDbEntity
  8
0
100
AcDbBlockEnd
  0
BLOCK
  5
68F
100
AcDbEntity
  8
0
100
AcDbBlockBegin
  2
*B177
 70
     0
 10
0.0
 20
0.0
 30
0.0
  3
*B177
  1

  0
LINE
  5
690
100
AcDbEntity
  8
0
  6
Continuous
 62
     6
100
AcDbLine
 10
255.944234
 20
80.50856
 30
0.0
 11
255.944234
 21
84.50856
 31
0.0
  0
LINE
  5
691
100
AcDbEntity
  8
0
  6
Continuous
 62
     6
100
AcDbLine
 10
253.944021
 20
82.508347
 30
0.0
 11
257.944021
 21
82.508347
 31
0.0
  0
ENDBLK
  5
692
100
AcDbEntity
  8
0
100
AcDbBlockEnd
  0
BLOCK
  5
695
100
AcDbEntity
  8
0
100
AcDbBlockBegin
  2
*B178
 70
     0
 10
0.0
 20
0.0
 30
0.0
  3
*B178
  1

  0
LINE
  5
696
100
AcDbEntity
  8
0
  6
Continuous
 62
     6
100
AcDbLine
 10
453.94401
 20
128.507706
 30
0.0
 11
453.94401
 21
132.507706
 31
0.0
  0
LINE
  5
697
100
AcDbEntity
  8
0
  6
Continuous
 62
     6
100
AcDbLine
 10
451.943797
 20
130.507493
 30
0.0
 11
455.943797
 21
130.507493
 31
0.0
  0
ENDBLK
  5
698
100
AcDbEntity
  8
0
100
AcDbBlockEnd
  0
BLOCK
  5
69B
100
AcDbEntity
  8
0
100
AcDbBlockBegin
  2
*B179
 70
     0
 10
0.0
 20
0.0
 30
0.0
  3
*B179
  1

  0
LINE
  5
69C
100
AcDbEntity
  8
0
  6
Continuous
 62
     6
100
AcDbLine
 10
411.943799
 20
176.506852
 30
0.0
 11
411.943799
 21
180.506852
 31
0.0
  0
LINE
  5
69D
100
AcDbEntity
  8
0
  6
Continuous
 62
     6
100
AcDbLine
 10
409.944012
 20
178.507065
 30
0.0
 11
413.944012
 21
178.507065
 31
0.0
  0
ENDBLK
  5
69E
100
AcDbEntity
  8
0
100
AcDbBlockEnd
  0
BLOCK
  5
6A1
100
AcDbEntity
  8
0
100
AcDbBlockBegin
  2
*B180
 70
     0
 10
0.0
 20
0.0
 30
0.0
  3
*B180
  1

  0
LINE
  5
6A2
100
AcDbEntity
  8
0
  6
Continuous
 62
     6
100
AcDbLine
 10
201.553345
 20
264.386408
 30
0.0
 11
201.553345
 21
268.386408
 31
0.0
  0
LINE
  5
6A3
100
AcDbEntity
  8
0
  6
Continuous
 62
     6
100
AcDbLine
 10
199.553558
 20
266.386195
 30
0.0
 11
203.553557
 21
266.386195
 31
0.0
  0
ENDBLK
  5
6A4
100
AcDbEntity
  8
0
100
AcDbBlockEnd
  0
BLOCK
  5
6A7
100
AcDbEntity
  8
0
100
AcDbBlockBegin
  2
*B181
 70
     0
 10
0.0
 20
0.0
 30
0.0
  3
*B181
  1

  0
LINE
  5
6A8
100
AcDbEntity
  8
0
  6
Continuous
 62
     6
100
AcDbLine
 10
301.944019
 20
82.508347
 30
0.0
 11
305.944018
 21
82.508347
 31
0.0
  0
LINE
  5
6A9
100
AcDbEntity
  8
0
  6
Continuous
 62
     6
100
AcDbLine
 10
303.943806
 20
80.50856
 30
0.0
 11
303.943806
 21
84.50856
 31
0.0
  0
ENDBLK
  5
6AA
100
AcDbEntity
  8
0
100
AcDbBlockEnd
  0
BLOCK
  5
6AD
100
AcDbEntity
  8
0
100
AcDbBlockBegin
  2
*B182
 70
     0
 10
0.0
 20
0.0
 30
0.0
  3
*B182
  1

  0
LINE
  5
6AE
100
AcDbEntity
  8
0
  6
Continuous
 62
     6
100
AcDbLine
 10
211.944237
 20
130.507493
 30
0.0
 11
215.944237
 21
130.507493
 31
0.0
  0
LINE
  5
6AF
100
AcDbEntity
  8
0
  6
Continuous
 62
     6
100
AcDbLine
 10
213.944024
 20
128.507706
 30
0.0
 11
213.944024
 21
132.507706
 31
0.0
  0
ENDBLK
  5
6B0
100
AcDbEntity
  8
0
100
AcDbBlockEnd
  0
BLOCK
  5
6B3
100
AcDbEntity
  8
0
100
AcDbBlockBegin
  2
*B183
 70
     0
 10
0.0
 20
0.0
 30
0.0
  3
*B183
  1

  0
LINE
  5
6B4
100
AcDbEntity
  8
0
  6
Continuous
 62
     6
100
AcDbLine
 10
297.553339
 20
264.386408
 30
0.0
 11
297.553339
 21
268.386408
 31
0.0
  0
LINE
  5
6B5
100
AcDbEntity
  8
0
  6
Continuous
 62
     6
100
AcDbLine
 10
295.553126
 20
266.386195
 30
0.0
 11
299.553126
 21
266.386195
 31
0.0
  0
ENDBLK
  5
6B6
100
AcDbEntity
  8
0
100
AcDbBlockEnd
  0
BLOCK
  5
6B9
100
AcDbEntity
  8
0
100
AcDbBlockBegin
  2
*B184
 70
     0
 10
0.0
 20
0.0
 30
0.0
  3
*B184
  1

  0
LINE
  5
6BA
100
AcDbEntity
  8
0
  6
Continuous
 62
     6
100
AcDbLine
 10
307.943805
 20
130.507493
 30
0.0
 11
311.943805
 21
130.507493
 31
0.0
  0
LINE
  5
6BB
100
AcDbEntity
  8
0
  6
Continuous
 62
     6
100
AcDbLine
 10
309.944018
 20
128.507706
 30
0.0
 11
309.944018
 21
132.507706
 31
0.0
  0
ENDBLK
  5
6BC
100
AcDbEntity
  8
0
100
AcDbBlockEnd
  0
BLOCK
  5
6BF
100
AcDbEntity
  8
0
100
AcDbBlockBegin
  2
*B185
 70
     0
 10
0.0
 20
0.0
 30
0.0
  3
*B185
  1

  0
LINE
  5
6C0
100
AcDbEntity
  8
0
  6
Continuous
 62
     6
100
AcDbLine
 10
163.94424
 20
88.508134
 30
0.0
 11
167.944239
 21
88.508134
 31
0.0
  0
LINE
  5
6C1
100
AcDbEntity
  8
0
  6
Continuous
 62
     6
100
AcDbLine
 10
165.944027
 20
86.508347
 30
0.0
 11
165.944027
 21
90.508347
 31
0.0
  0
ENDBLK
  5
6C2
100
AcDbEntity
  8
0
100
AcDbBlockEnd
  0
BLOCK
  5
6C5
100
AcDbEntity
  8
0
100
AcDbBlockBegin
  2
*B186
 70
     0
 10
0.0
 20
0.0
 30
0.0
  3
*B186
  1

  0
LINE
  5
6C6
100
AcDbEntity
  8
0
  6
Continuous
 62
     0
100
AcDbLine
 10
259.115635
 20
11.250132
 30
0.0
 11
278.58196
 21
11.250132
 31
0.0
  0
LINE
  5
6C7
100
AcDbEntity
  8
0
  6
Continuous
 62
     0
100
AcDbLine
 10
278.58196
 20
11.250132
 30
0.0
 11
301.932102
 21
76.855831
 31
0.0
  0
SOLID
  5
6C8
100
AcDbEntity
  8
0
  6
Continuous
 62
     0
100
AcDbTrace
 10
300.463436
 20
66.76412
 30
0.0
 11
301.932102
 21
76.855831
 31
0.0
 12
296.69495
 22
68.105539
 32
0.0
 13
296.69495
 23
68.105539
 33
0.0
  0
ENDBLK
  5
6C9
100
AcDbEntity
  8
0
100
AcDbBlockEnd
  0
BLOCK
  5
6CC
100
AcDbEntity
  8
0
100
AcDbBlockBegin
  2
*B187
 70
     0
 10
0.0
 20
0.0
 30
0.0
  3
*B187
  1

  0
LINE
  5
6CD
100
AcDbEntity
  8
0
  6
Continuous
 62
     0
100
AcDbLine
 10
101.703154
 20
55.249279
 30
0.0
 11
129.369925
 21
55.249279
 31
0.0
  0
LINE
  5
6CE
100
AcDbEntity
  8
0
  6
Continuous
 62
     0
100
AcDbLine
 10
129.369925
 20
55.249279
 30
0.0
 11
193.295445
 21
92.946053
 31
0.0
  0
SOLID
  5
6CF
100
AcDbEntity
  8
0
  6
Continuous
 62
     0
100
AcDbTrace
 10
185.697616
 20
86.144053
 30
0.0
 11
193.295445
 21
92.946053
 31
0.0
 12
183.665485
 22
89.589525
 32
0.0
 13
183.665485
 23
89.589525
 33
0.0
  0
ENDBLK
  5
6D0
100
AcDbEntity
  8
0
100
AcDbBlockEnd
  0
BLOCK
  5
6D3
100
AcDbEntity
  8
0
100
AcDbBlockBegin
  2
*B188
 70
     0
 10
0.0
 20
0.0
 30
0.0
  3
*B188
  1

  0
LINE
  5
6D4
100
AcDbEntity
  8
0
  6
Continuous
 62
     0
100
AcDbLine
 10
102.182354
 20
205.246929
 30
0.0
 11
131.648891
 21
205.246929
 31
0.0
  0
LINE
  5
6D5
100
AcDbEntity
  8
0
  6
Continuous
 62
     0
100
AcDbLine
 10
131.648891
 20
205.246929
 30
0.0
 11
161.061805
 21
177.167773
 31
0.0
  0
SOLID
  5
6D6
100
AcDbEntity
  8
0
  6
Continuous
 62
     0
100
AcDbTrace
 10
152.447698
 20
182.626226
 30
0.0
 11
161.061805
 21
177.167773
 31
0.0
 12
155.209694
 22
185.519725
 32
0.0
 13
155.209694
 23
185.519725
 33
0.0
  0
ENDBLK
  5
6D7
100
AcDbEntity
  8
0
100
AcDbBlockEnd
  0
BLOCK
  5
6DA
100
AcDbEntity
  8
0
100
AcDbBlockBegin
  2
*B189
 70
     0
 10
0.0
 20
0.0
 30
0.0
  3
*B189
  1

  0
TEXT
  5
6DB
100
AcDbEntity
  8
TEXT
  6
Continuous
 62
     0
100
AcDbText
 10
259.079167
 20
16.5
 30
0.0
 40
7.0
  1
%%c4
100
AcDbText
  0
ENDBLK
  5
6DC
100
AcDbEntity
  8
0
100
AcDbBlockEnd
  0
BLOCK
  5
6DF
100
AcDbEntity
  8
0
100
AcDbBlockBegin
  2
*B190
 70
     0
 10
0.0
 20
0.0
 30
0.0
  3
*B190
  1

  0
TEXT
  5
6E0
100
AcDbEntity
  8
TEXT
  6
Continuous
 62
     0
100
AcDbText
 10
101.666667
 20
60.5
 30
0.0
 40
7.0
  1
M2,5
100
AcDbText
  0
ENDBLK
  5
6E1
100
AcDbEntity
  8
0
100
AcDbBlockEnd
  0
BLOCK
  5
6E4
100
AcDbEntity
  8
0
100
AcDbBlockBegin
  2
*B191
 70
     0
 10
0.0
 20
0.0
 30
0.0
  3
*B191
  1

  0
TEXT
  5
6E5
100
AcDbEntity
  8
TEXT
  6
Continuous
 62
     0
100
AcDbText
 10
102.145833
 20
210.5
 30
0.0
 40
7.0
  1
%%c4,5
100
AcDbText
  0
ENDBLK
  5
6E6
100
AcDbEntity
  8
0
100
AcDbBlockEnd
  0
BLOCK
  5
6E9
100
AcDbEntity
  8
0
100
AcDbBlockBegin
  2
*B192
 70
     0
 10
0.0
 20
0.0
 30
0.0
  3
*B192
  1

  0
TEXT
  5
6EA
100
AcDbEntity
  8
TEXT
  6
Continuous
 62
     0
100
AcDbText
 10
343.58649
 20
15.5
 30
0.0
 40
7.0
  1
%%c6
100
AcDbText
  0
ENDBLK
  5
6EB
100
AcDbEntity
  8
0
100
AcDbBlockEnd
  0
BLOCK
  5
6EE
100
AcDbEntity
  8
0
100
AcDbBlockBegin
  2
*B193
 70
     0
 10
0.0
 20
0.0
 30
0.0
  3
*B193
  1

  0
TEXT
  5
6EF
100
AcDbEntity
  8
TEXT
  6
Continuous
 62
     0
100
AcDbText
 10
172.553538
 20
223.5
 30
0.0
 40
7.0
  1
24
100
AcDbText
  0
ENDBLK
  5
6F0
100
AcDbEntity
  8
0
100
AcDbBlockEnd
  0
BLOCK
  5
6F3
100
AcDbEntity
  8
0
100
AcDbBlockBegin
  2
*B194
 70
     0
 10
0.0
 20
0.0
 30
0.0
  3
*B194
  1

  0
TEXT
  5
6F4
100
AcDbEntity
  8
TEXT
  6
Continuous
 62
     0
100
AcDbText
 10
232.553538
 20
223.5
 30
0.0
 40
7.0
  1
16
100
AcDbText
  0
ENDBLK
  5
6F5
100
AcDbEntity
  8
0
100
AcDbBlockEnd
  0
BLOCK
  5
6F8
100
AcDbEntity
  8
0
100
AcDbBlockBegin
  2
*B195
 70
     0
 10
0.0
 20
0.0
 30
0.0
  3
*B195
  1

  0
TEXT
  5
6F9
100
AcDbEntity
  8
TEXT
  6
Continuous
 62
     0
100
AcDbText
 10
112.5
 20
349.534187
 30
0.0
 40
7.0
  1
22
 50
90.0
100
AcDbText
  0
ENDBLK
  5
6FA
100
AcDbEntity
  8
0
100
AcDbBlockEnd
  0
BLOCK
  5
6FD
100
AcDbEntity
  8
0
100
AcDbBlockBegin
  2
*B196
 70
     0
 10
0.0
 20
0.0
 30
0.0
  3
*B196
  1

  0
TEXT
  5
6FE
100
AcDbEntity
  8
TEXT
  6
Continuous
 62
     0
100
AcDbText
 10
112.5
 20
279.036329
 30
0.0
 40
7.0
  1
25
 50
90.0
100
AcDbText
  0
ENDBLK
  5
6FF
100
AcDbEntity
  8
0
100
AcDbBlockEnd
  0
BLOCK
  5
702
100
AcDbEntity
  8
0
100
AcDbBlockBegin
  2
*B197
 70
     0
 10
0.0
 20
0.0
 30
0.0
  3
*B197
  1

  0
TEXT
  5
703
100
AcDbEntity
  8
TEXT
  6
Continuous
 62
     0
100
AcDbText
 10
233.236539
 20
407.5
 30
0.0
 40
7.0
  1
16
100
AcDbText
  0
ENDBLK
  5
704
100
AcDbEntity
  8
0
100
AcDbBlockEnd
  0
BLOCK
  5
707
100
AcDbEntity
  8
0
100
AcDbBlockBegin
  2
*B198
 70
     0
 10
0.0
 20
0.0
 30
0.0
  3
*B198
  1

  0
TEXT
  5
708
100
AcDbEntity
  8
TEXT
  6
Continuous
 62
     0
100
AcDbText
 10
281.236539
 20
407.5
 30
0.0
 40
7.0
  1
16
100
AcDbText
  0
ENDBLK
  5
709
100
AcDbEntity
  8
0
100
AcDbBlockEnd
  0
BLOCK
  5
70C
100
AcDbEntity
  8
0
100
AcDbBlockBegin
  2
*B199
 70
     0
 10
0.0
 20
0.0
 30
0.0
  3
*B199
  1

  0
TEXT
  5
70D
100
AcDbEntity
  8
TEXT
  6
Continuous
 62
     0
100
AcDbText
 10
329.236539
 20
407.5
 30
0.0
 40
7.0
  1
16
100
AcDbText
  0
ENDBLK
  5
70E
100
AcDbEntity
  8
0
100
AcDbBlockEnd
  0
BLOCK
  5
711
100
AcDbEntity
  8
0
100
AcDbBlockBegin
  2
*B200
 70
     0
 10
0.0
 20
0.0
 30
0.0
  3
*B200
  1

  0
TEXT
  5
712
100
AcDbEntity
  8
TEXT
  6
Continuous
 62
     0
100
AcDbText
 10
377.236539
 20
407.5
 30
0.0
 40
7.0
  1
16
100
AcDbText
  0
ENDBLK
  5
713
100
AcDbEntity
  8
0
100
AcDbBlockEnd
  0
BLOCK
  5
716
100
AcDbEntity
  8
0
100
AcDbBlockBegin
  2
*B201
 70
     0
 10
0.0
 20
0.0
 30
0.0
  3
*B201
  1

  0
TEXT
  5
717
100
AcDbEntity
  8
TEXT
  6
Continuous
 62
     0
100
AcDbText
 10
280.553538
 20
223.5
 30
0.0
 40
7.0
  1
16
100
AcDbText
  0
ENDBLK
  5
718
100
AcDbEntity
  8
0
100
AcDbBlockEnd
  0
BLOCK
  5
71B
100
AcDbEntity
  8
0
100
AcDbBlockBegin
  2
*B202
 70
     0
 10
0.0
 20
0.0
 30
0.0
  3
*B202
  1

  0
TEXT
  5
71C
100
AcDbEntity
  8
TEXT
  6
Continuous
 62
     0
100
AcDbText
 10
328.553538
 20
223.5
 30
0.0
 40
7.0
  1
16
100
AcDbText
  0
ENDBLK
  5
71D
100
AcDbEntity
  8
0
100
AcDbBlockEnd
  0
BLOCK
  5
720
100
AcDbEntity
  8
0
100
AcDbBlockBegin
  2
*B203
 70
     0
 10
0.0
 20
0.0
 30
0.0
  3
*B203
  1

  0
TEXT
  5
721
100
AcDbEntity
  8
TEXT
  6
Continuous
 62
     0
100
AcDbText
 10
376.553538
 20
223.5
 30
0.0
 40
7.0
  1
16
100
AcDbText
  0
ENDBLK
  5
722
100
AcDbEntity
  8
0
100
AcDbBlockEnd
  0
BLOCK
  5
725
100
AcDbEntity
  8
0
100
AcDbBlockBegin
  2
*B204
 70
     0
 10
0.0
 20
0.0
 30
0.0
  3
*B204
  1

  0
TEXT
  5
726
100
AcDbEntity
  8
TEXT
  6
Continuous
 62
     0
100
AcDbText
 10
436.553538
 20
223.5
 30
0.0
 40
7.0
  1
24
100
AcDbText
  0
ENDBLK
  5
727
100
AcDbEntity
  8
0
100
AcDbBlockEnd
  0
BLOCK
  5
72A
100
AcDbEntity
  8
0
100
AcDbBlockBegin
  2
*B205
 70
     0
 10
0.0
 20
0.0
 30
0.0
  3
*B205
  1

  0
TEXT
  5
72B
100
AcDbEntity
  8
TEXT
  6
Continuous
 62
     0
100
AcDbText
 10
206.645833
 20
15.5
 30
0.0
 40
7.0
  1
12
100
AcDbText
  0
ENDBLK
  5
72C
100
AcDbEntity
  8
0
100
AcDbBlockEnd
  0
BLOCK
  5
72F
100
AcDbEntity
  8
0
100
AcDbBlockBegin
  2
*B206
 70
     0
 10
0.0
 20
0.0
 30
0.0
  3
*B206
  1

  0
TEXT
  5
730
100
AcDbEntity
  8
TEXT
  6
Continuous
 62
     0
100
AcDbText
 10
92.5
 20
125.155424
 30
0.0
 40
7.0
  1
24
 50
90.0
100
AcDbText
  0
ENDBLK
  5
731
100
AcDbEntity
  8
0
100
AcDbBlockEnd
  0
BLOCK
  5
734
100
AcDbEntity
  8
0
100
AcDbBlockBegin
  2
*B207
 70
     0
 10
0.0
 20
0.0
 30
0.0
  3
*B207
  1

  0
TEXT
  5
735
100
AcDbEntity
  8
TEXT
  6
Continuous
 62
     0
100
AcDbText
 10
524.5
 20
42.988757
 30
0.0
 40
7.0
  1
7
 50
90.0
100
AcDbText
  0
ENDBLK
  5
736
100
AcDbEntity
  8
0
100
AcDbBlockEnd
  0
BLOCK
  5
739
100
AcDbEntity
  8
0
100
AcDbBlockBegin
  2
*B208
 70
     0
 10
0.0
 20
0.0
 30
0.0
  3
*B208
  1

  0
TEXT
  5
73A
100
AcDbEntity
  8
TEXT
  6
Continuous
 62
     0
100
AcDbText
 10
524.5
 20
125.155424
 30
0.0
 40
7.0
  1
50
 50
90.0
100
AcDbText
  0
ENDBLK
  5
73B
100
AcDbEntity
  8
0
100
AcDbBlockEnd
  0
BLOCK
  5
73E
100
AcDbEntity
  8
0
100
AcDbBlockBegin
  2
*B209
 70
     0
 10
0.0
 20
0.0
 30
0.0
  3
*B209
  1

  0
TEXT
  5
73F
100
AcDbEntity
  8
TEXT
  6
Continuous
 62
     0
100
AcDbText
 10
500.5
 20
146.155424
 30
0.0
 40
7.0
  1
14
 50
90.0
100
AcDbText
  0
ENDBLK
  5
740
100
AcDbEntity
  8
0
100
AcDbBlockEnd
  0
BLOCK
  5
743
100
AcDbEntity
  8
0
100
AcDbBlockBegin
  2
*B210
 70
     0
 10
0.0
 20
0.0
 30
0.0
  3
*B210
  1

  0
TEXT
  5
744
100
AcDbEntity
  8
TEXT
  6
Continuous
 62
     0
100
AcDbText
 10
116.5
 20
114.00959
 30
0.0
 40
7.0
  1
G1/4"
 50
90.0
100
AcDbText
  0
ENDBLK
  5
745
100
AcDbEntity
  8
0
100
AcDbBlockEnd
  0
BLOCK
  5
748
100
AcDbEntity
  8
0
100
AcDbBlockBegin
  2
*B211
 70
     0
 10
0.0
 20
0.0
 30
0.0
  3
*B211
  1

  0
TEXT
  5
749
100
AcDbEntity
  8
TEXT
  6
Continuous
 62
     0
100
AcDbText
 10
463.886872
 20
17.5
 30
0.0
 40
7.0
  1
8
100
AcDbText
  0
ENDBLK
  5
74A
100
AcDbEntity
  8
0
100
AcDbBlockEnd
  0
BLOCK
  5
74D
100
AcDbEntity
  8
0
100
AcDbBlockBegin
  2
*B212
 70
     0
 10
0.0
 20
0.0
 30
0.0
  3
*B212
  1

  0
TEXT
  5
74E
100
AcDbEntity
  8
TEXT
  6
Continuous
 62
     0
100
AcDbText
 10
151.886872
 20
15.5
 30
0.0
 40
7.0
  1
8
100
AcDbText
  0
ENDBLK
  5
74F
100
AcDbEntity
  8
0
100
AcDbBlockEnd
  0
BLOCK
  5
752
100
AcDbEntity
  8
0
100
AcDbBlockBegin
  2
*B213
 70
     0
 10
0.0
 20
0.0
 30
0.0
  3
*B213
  1

  0
TEXT
  5
753
100
AcDbEntity
  8
TEXT
  6
Continuous
 62
     0
100
AcDbText
 10
500.5
 20
104.155424
 30
0.0
 40
7.0
  1
14
 50
90.0
100
AcDbText
  0
ENDBLK
  5
754
100
AcDbEntity
  8
0
100
AcDbBlockEnd
  0
BLOCK
  5
757
100
AcDbEntity
  8
0
100
AcDbBlockBegin
  2
*B214
 70
     0
 10
0.0
 20
0.0
 30
0.0
  3
*B214
  1

  0
TEXT
  5
758
100
AcDbEntity
  8
TEXT
  6
Continuous
 62
     0
100
AcDbText
 10
68.5
 20
125.155424
 30
0.0
 40
7.0
  1
28
 50
90.0
100
AcDbText
  0
ENDBLK
  5
759
100
AcDbEntity
  8
0
100
AcDbBlockEnd
  0
ENDSEC
  0
SECTION
  2
ENTITIES
  0
INSERT
  5
10C
100
AcDbEntity
  8
0
  6
HIDDEN
 62
   174
100
AcDbBlockReference
  2
*B1
 10
0.0
 20
0.0
 30
0.0
  0
INSERT
  5
128
100
AcDbEntity
  8
0
  6
Continuous
 62
   174
100
AcDbBlockReference
  2
*B2
 10
0.0
 20
0.0
 30
0.0
  0
INSERT
  5
14A
100
AcDbEntity
  8
0
  6
HIDDEN
 62
   174
100
AcDbBlockReference
  2
*B3
 10
0.0
 20
0.0
 30
0.0
  0
INSERT
  5
151
100
AcDbEntity
  8
0
  6
Continuous
 62
     0
100
AcDbBlockReference
  2
*B4
 10
0.0
 20
0.0
 30
0.0
  0
INSERT
  5
158
100
AcDbEntity
  8
0
  6
Continuous
 62
     0
100
AcDbBlockReference
  2
*B5
 10
0.0
 20
0.0
 30
0.0
  0
INSERT
  5
15F
100
AcDbEntity
  8
0
  6
Continuous
 62
     0
100
AcDbBlockReference
  2
*B6
 10
0.0
 20
0.0
 30
0.0
  0
INSERT
  5
166
100
AcDbEntity
  8
0
  6
Continuous
 62
     0
100
AcDbBlockReference
  2
*B7
 10
0.0
 20
0.0
 30
0.0
  0
INSERT
  5
16D
100
AcDbEntity
  8
0
  6
Continuous
 62
     0
100
AcDbBlockReference
  2
*B8
 10
0.0
 20
0.0
 30
0.0
  0
INSERT
  5
174
100
AcDbEntity
  8
0
  6
Continuous
 62
     0
100
AcDbBlockReference
  2
*B9
 10
0.0
 20
0.0
 30
0.0
  0
INSERT
  5
17B
100
AcDbEntity
  8
0
  6
Continuous
 62
     0
100
AcDbBlockReference
  2
*B10
 10
0.0
 20
0.0
 30
0.0
  0
INSERT
  5
182
100
AcDbEntity
  8
0
  6
Continuous
 62
     0
100
AcDbBlockReference
  2
*B11
 10
0.0
 20
0.0
 30
0.0
  0
INSERT
  5
189
100
AcDbEntity
  8
0
  6
Continuous
 62
     0
100
AcDbBlockReference
  2
*B12
 10
0.0
 20
0.0
 30
0.0
  0
INSERT
  5
190
100
AcDbEntity
  8
0
  6
Continuous
 62
     0
100
AcDbBlockReference
  2
*B13
 10
0.0
 20
0.0
 30
0.0
  0
INSERT
  5
197
100
AcDbEntity
  8
0
  6
Continuous
 62
     0
100
AcDbBlockReference
  2
*B14
 10
0.0
 20
0.0
 30
0.0
  0
INSERT
  5
19E
100
AcDbEntity
  8
0
  6
Continuous
 62
     0
100
AcDbBlockReference
  2
*B15
 10
0.0
 20
0.0
 30
0.0
  0
INSERT
  5
1A5
100
AcDbEntity
  8
0
  6
Continuous
 62
     0
100
AcDbBlockReference
  2
*B16
 10
0.0
 20
0.0
 30
0.0
  0
INSERT
  5
1AC
100
AcDbEntity
  8
0
  6
Continuous
 62
     0
100
AcDbBlockReference
  2
*B17
 10
0.0
 20
0.0
 30
0.0
  0
INSERT
  5
1B3
100
AcDbEntity
  8
0
  6
Continuous
 62
     0
100
AcDbBlockReference
  2
*B18
 10
0.0
 20
0.0
 30
0.0
  0
INSERT
  5
1BA
100
AcDbEntity
  8
0
  6
Continuous
 62
     0
100
AcDbBlockReference
  2
*B19
 10
0.0
 20
0.0
 30
0.0
  0
INSERT
  5
1C1
100
AcDbEntity
  8
0
  6
Continuous
 62
     0
100
AcDbBlockReference
  2
*B20
 10
0.0
 20
0.0
 30
0.0
  0
INSERT
  5
1C8
100
AcDbEntity
  8
0
  6
Continuous
 62
     0
100
AcDbBlockReference
  2
*B21
 10
0.0
 20
0.0
 30
0.0
  0
INSERT
  5
1CF
100
AcDbEntity
  8
0
  6
Continuous
 62
     0
100
AcDbBlockReference
  2
*B22
 10
0.0
 20
0.0
 30
0.0
  0
INSERT
  5
1D6
100
AcDbEntity
  8
0
  6
Continuous
 62
     0
100
AcDbBlockReference
  2
*B23
 10
0.0
 20
0.0
 30
0.0
  0
INSERT
  5
1DD
100
AcDbEntity
  8
0
  6
Continuous
 62
     0
100
AcDbBlockReference
  2
*B24
 10
0.0
 20
0.0
 30
0.0
  0
INSERT
  5
1E4
100
AcDbEntity
  8
0
  6
Continuous
 62
     0
100
AcDbBlockReference
  2
*B25
 10
0.0
 20
0.0
 30
0.0
  0
INSERT
  5
1EB
100
AcDbEntity
  8
0
  6
Continuous
 62
     0
100
AcDbBlockReference
  2
*B26
 10
0.0
 20
0.0
 30
0.0
  0
INSERT
  5
211
100
AcDbEntity
  8
0
  6
Continuous
 62
     8
100
AcDbBlockReference
  2
*B27
 10
0.0
 20
0.0
 30
0.0
  0
INSERT
  5
220
100
AcDbEntity
  8
0
  6
Continuous
 62
     8
100
AcDbBlockReference
  2
*B28
 10
0.0
 20
0.0
 30
0.0
  0
INSERT
  5
225
100
AcDbEntity
  8
0
  6
Continuous
 62
     8
100
AcDbBlockReference
  2
*B29
 10
0.0
 20
0.0
 30
0.0
  0
INSERT
  5
22B
100
AcDbEntity
  8
0
  6
Continuous
 62
     8
100
AcDbBlockReference
  2
*B30
 10
0.0
 20
0.0
 30
0.0
  0
INSERT
  5
230
100
AcDbEntity
  8
0
  6
Continuous
 62
     8
100
AcDbBlockReference
  2
*B31
 10
0.0
 20
0.0
 30
0.0
  0
INSERT
  5
236
100
AcDbEntity
  8
0
  6
Continuous
 62
     8
100
AcDbBlockReference
  2
*B32
 10
0.0
 20
0.0
 30
0.0
  0
INSERT
  5
23C
100
AcDbEntity
  8
0
  6
Continuous
 62
     8
100
AcDbBlockReference
  2
*B33
 10
0.0
 20
0.0
 30
0.0
  0
INSERT
  5
242
100
AcDbEntity
  8
0
  6
Continuous
 62
     8
100
AcDbBlockReference
  2
*B34
 10
0.0
 20
0.0
 30
0.0
  0
INSERT
  5
249
100
AcDbEntity
  8
0
  6
Continuous
 62
     8
100
AcDbBlockReference
  2
*B35
 10
0.0
 20
0.0
 30
0.0
  0
INSERT
  5
24F
100
AcDbEntity
  8
0
  6
Continuous
 62
     8
100
AcDbBlockReference
  2
*B36
 10
0.0
 20
0.0
 30
0.0
  0
INSERT
  5
254
100
AcDbEntity
  8
0
  6
Continuous
 62
     8
100
AcDbBlockReference
  2
*B37
 10
0.0
 20
0.0
 30
0.0
  0
INSERT
  5
25A
100
AcDbEntity
  8
0
  6
Continuous
 62
     8
100
AcDbBlockReference
  2
*B38
 10
0.0
 20
0.0
 30
0.0
  0
INSERT
  5
26F
100
AcDbEntity
  8
0
  6
Continuous
 62
     8
100
AcDbBlockReference
  2
*B39
 10
0.0
 20
0.0
 30
0.0
  0
INSERT
  5
27D
100
AcDbEntity
  8
0
  6
Continuous
 62
     8
100
AcDbBlockReference
  2
*B40
 10
0.0
 20
0.0
 30
0.0
  0
INSERT
  5
283
100
AcDbEntity
  8
0
  6
Continuous
 62
     8
100
AcDbBlockReference
  2
*B41
 10
0.0
 20
0.0
 30
0.0
  0
INSERT
  5
2A9
100
AcDbEntity
  8
0
  6
Continuous
 62
     8
100
AcDbBlockReference
  2
*B42
 10
0.0
 20
0.0
 30
0.0
  0
INSERT
  5
2B7
100
AcDbEntity
  8
0
  6
Continuous
 62
     8
100
AcDbBlockReference
  2
*B43
 10
0.0
 20
0.0
 30
0.0
  0
INSERT
  5
2BD
100
AcDbEntity
  8
0
  6
Continuous
 62
     8
100
AcDbBlockReference
  2
*B44
 10
0.0
 20
0.0
 30
0.0
  0
INSERT
  5
2C3
100
AcDbEntity
  8
0
  6
Continuous
 62
     8
100
AcDbBlockReference
  2
*B45
 10
0.0
 20
0.0
 30
0.0
  0
INSERT
  5
2C9
100
AcDbEntity
  8
0
  6
Continuous
 62
     8
100
AcDbBlockReference
  2
*B46
 10
0.0
 20
0.0
 30
0.0
  0
INSERT
  5
2CE
100
AcDbEntity
  8
0
  6
Continuous
 62
     8
100
AcDbBlockReference
  2
*B47
 10
0.0
 20
0.0
 30
0.0
  0
INSERT
  5
2D4
100
AcDbEntity
  8
0
  6
Continuous
 62
     8
100
AcDbBlockReference
  2
*B48
 10
0.0
 20
0.0
 30
0.0
  0
INSERT
  5
2DA
100
AcDbEntity
  8
0
  6
Continuous
 62
     8
100
AcDbBlockReference
  2
*B49
 10
0.0
 20
0.0
 30
0.0
  0
INSERT
  5
2E0
100
AcDbEntity
  8
0
  6
Continuous
 62
     8
100
AcDbBlockReference
  2
*B50
 10
0.0
 20
0.0
 30
0.0
  0
INSERT
  5
2E6
100
AcDbEntity
  8
0
  6
Continuous
 62
     8
100
AcDbBlockReference
  2
*B51
 10
0.0
 20
0.0
 30
0.0
  0
INSERT
  5
2ED
100
AcDbEntity
  8
0
  6
Continuous
 62
     8
100
AcDbBlockReference
  2
*B52
 10
0.0
 20
0.0
 30
0.0
  0
INSERT
  5
2FF
100
AcDbEntity
  8
0
  6
Continuous
 62
     8
100
AcDbBlockReference
  2
*B53
 10
0.0
 20
0.0
 30
0.0
  0
INSERT
  5
306
100
AcDbEntity
  8
0
  6
Continuous
 62
     8
100
AcDbBlockReference
  2
*B54
 10
0.0
 20
0.0
 30
0.0
  0
INSERT
  5
30C
100
AcDbEntity
  8
0
  6
Continuous
 62
     8
100
AcDbBlockReference
  2
*B55
 10
0.0
 20
0.0
 30
0.0
  0
INSERT
  5
312
100
AcDbEntity
  8
0
  6
Continuous
 62
     8
100
AcDbBlockReference
  2
*B56
 10
0.0
 20
0.0
 30
0.0
  0
INSERT
  5
318
100
AcDbEntity
  8
0
  6
Continuous
 62
     8
100
AcDbBlockReference
  2
*B57
 10
0.0
 20
0.0
 30
0.0
  0
INSERT
  5
31E
100
AcDbEntity
  8
0
  6
Continuous
 62
     8
100
AcDbBlockReference
  2
*B58
 10
0.0
 20
0.0
 30
0.0
  0
INSERT
  5
324
100
AcDbEntity
  8
0
  6
Continuous
 62
     8
100
AcDbBlockReference
  2
*B59
 10
0.0
 20
0.0
 30
0.0
  0
INSERT
  5
32A
100
AcDbEntity
  8
0
  6
Continuous
 62
     8
100
AcDbBlockReference
  2
*B60
 10
0.0
 20
0.0
 30
0.0
  0
INSERT
  5
331
100
AcDbEntity
  8
0
  6
Continuous
 62
     8
100
AcDbBlockReference
  2
*B61
 10
0.0
 20
0.0
 30
0.0
  0
INSERT
  5
337
100
AcDbEntity
  8
0
  6
Continuous
 62
     8
100
AcDbBlockReference
  2
*B62
 10
0.0
 20
0.0
 30
0.0
  0
INSERT
  5
33D
100
AcDbEntity
  8
0
  6
Continuous
 62
     8
100
AcDbBlockReference
  2
*B63
 10
0.0
 20
0.0
 30
0.0
  0
INSERT
  5
343
100
AcDbEntity
  8
0
  6
Continuous
 62
     8
100
AcDbBlockReference
  2
*B64
 10
0.0
 20
0.0
 30
0.0
  0
INSERT
  5
352
100
AcDbEntity
  8
0
  6
Continuous
 62
     8
100
AcDbBlockReference
  2
*B65
 10
0.0
 20
0.0
 30
0.0
  0
INSERT
  5
361
100
AcDbEntity
  8
0
  6
Continuous
 62
     8
100
AcDbBlockReference
  2
*B66
 10
0.0
 20
0.0
 30
0.0
  0
INSERT
  5
367
100
AcDbEntity
  8
0
  6
Continuous
 62
     8
100
AcDbBlockReference
  2
*B67
 10
0.0
 20
0.0
 30
0.0
  0
INSERT
  5
36D
100
AcDbEntity
  8
0
  6
Continuous
 62
     8
100
AcDbBlockReference
  2
*B68
 10
0.0
 20
0.0
 30
0.0
  0
INSERT
  5
373
100
AcDbEntity
  8
0
  6
Continuous
 62
     8
100
AcDbBlockReference
  2
*B69
 10
0.0
 20
0.0
 30
0.0
  0
INSERT
  5
379
100
AcDbEntity
  8
0
  6
Continuous
 62
     8
100
AcDbBlockReference
  2
*B70
 10
0.0
 20
0.0
 30
0.0
  0
INSERT
  5
37E
100
AcDbEntity
  8
0
  6
Continuous
 62
     8
100
AcDbBlockReference
  2
*B71
 10
0.0
 20
0.0
 30
0.0
  0
INSERT
  5
391
100
AcDbEntity
  8
0
  6
Continuous
 62
     8
100
AcDbBlockReference
  2
*B72
 10
0.0
 20
0.0
 30
0.0
  0
INSERT
  5
396
100
AcDbEntity
  8
0
  6
Continuous
 62
     8
100
AcDbBlockReference
  2
*B73
 10
0.0
 20
0.0
 30
0.0
  0
INSERT
  5
3A3
100
AcDbEntity
  8
0
  6
Continuous
 62
     8
100
AcDbBlockReference
  2
*B74
 10
0.0
 20
0.0
 30
0.0
  0
INSERT
  5
3A9
100
AcDbEntity
  8
0
  6
Continuous
 62
     8
100
AcDbBlockReference
  2
*B75
 10
0.0
 20
0.0
 30
0.0
  0
INSERT
  5
3AF
100
AcDbEntity
  8
0
  6
Continuous
 62
     8
100
AcDbBlockReference
  2
*B76
 10
0.0
 20
0.0
 30
0.0
  0
INSERT
  5
3B4
100
AcDbEntity
  8
0
  6
Continuous
 62
     8
100
AcDbBlockReference
  2
*B77
 10
0.0
 20
0.0
 30
0.0
  0
INSERT
  5
3BA
100
AcDbEntity
  8
0
  6
Continuous
 62
     8
100
AcDbBlockReference
  2
*B78
 10
0.0
 20
0.0
 30
0.0
  0
INSERT
  5
3C0
100
AcDbEntity
  8
0
  6
Continuous
 62
     8
100
AcDbBlockReference
  2
*B79
 10
0.0
 20
0.0
 30
0.0
  0
INSERT
  5
3CD
100
AcDbEntity
  8
0
  6
Continuous
 62
     8
100
AcDbBlockReference
  2
*B80
 10
0.0
 20
0.0
 30
0.0
  0
INSERT
  5
3D3
100
AcDbEntity
  8
0
  6
Continuous
 62
     8
100
AcDbBlockReference
  2
*B81
 10
0.0
 20
0.0
 30
0.0
  0
INSERT
  5
3D9
100
AcDbEntity
  8
0
  6
Continuous
 62
     8
100
AcDbBlockReference
  2
*B82
 10
0.0
 20
0.0
 30
0.0
  0
INSERT
  5
3DF
100
AcDbEntity
  8
0
  6
Continuous
 62
     8
100
AcDbBlockReference
  2
*B83
 10
0.0
 20
0.0
 30
0.0
  0
INSERT
  5
3E5
100
AcDbEntity
  8
0
  6
Continuous
 62
     8
100
AcDbBlockReference
  2
*B84
 10
0.0
 20
0.0
 30
0.0
  0
INSERT
  5
3EB
100
AcDbEntity
  8
0
  6
Continuous
 62
     8
100
AcDbBlockReference
  2
*B85
 10
0.0
 20
0.0
 30
0.0
  0
INSERT
  5
3F1
100
AcDbEntity
  8
0
  6
Continuous
 62
     8
100
AcDbBlockReference
  2
*B86
 10
0.0
 20
0.0
 30
0.0
  0
INSERT
  5
403
100
AcDbEntity
  8
0
  6
Continuous
 62
     8
100
AcDbBlockReference
  2
*B87
 10
0.0
 20
0.0
 30
0.0
  0
INSERT
  5
411
100
AcDbEntity
  8
0
  6
Continuous
 62
     8
100
AcDbBlockReference
  2
*B88
 10
0.0
 20
0.0
 30
0.0
  0
INSERT
  5
417
100
AcDbEntity
  8
0
  6
Continuous
 62
     8
100
AcDbBlockReference
  2
*B89
 10
0.0
 20
0.0
 30
0.0
  0
INSERT
  5
41E
100
AcDbEntity
  8
0
  6
Continuous
 62
     8
100
AcDbBlockReference
  2
*B90
 10
0.0
 20
0.0
 30
0.0
  0
INSERT
  5
424
100
AcDbEntity
  8
0
  6
Continuous
 62
     8
100
AcDbBlockReference
  2
*B91
 10
0.0
 20
0.0
 30
0.0
  0
INSERT
  5
42A
100
AcDbEntity
  8
0
  6
Continuous
 62
     8
100
AcDbBlockReference
  2
*B92
 10
0.0
 20
0.0
 30
0.0
  0
INSERT
  5
438
100
AcDbEntity
  8
0
  6
Continuous
 62
     8
100
AcDbBlockReference
  2
*B93
 10
0.0
 20
0.0
 30
0.0
  0
INSERT
  5
43E
100
AcDbEntity
  8
0
  6
Continuous
 62
     8
100
AcDbBlockReference
  2
*B94
 10
0.0
 20
0.0
 30
0.0
  0
INSERT
  5
444
100
AcDbEntity
  8
0
  6
Continuous
 62
     8
100
AcDbBlockReference
  2
*B95
 10
0.0
 20
0.0
 30
0.0
  0
INSERT
  5
453
100
AcDbEntity
  8
0
  6
Continuous
 62
     8
100
AcDbBlockReference
  2
*B96
 10
0.0
 20
0.0
 30
0.0
  0
INSERT
  5
464
100
AcDbEntity
  8
0
  6
Continuous
 62
     8
100
AcDbBlockReference
  2
*B97
 10
0.0
 20
0.0
 30
0.0
  0
INSERT
  5
46A
100
AcDbEntity
  8
0
  6
Continuous
 62
     8
100
AcDbBlockReference
  2
*B98
 10
0.0
 20
0.0
 30
0.0
  0
INSERT
  5
477
100
AcDbEntity
  8
0
  6
Continuous
 62
     8
100
AcDbBlockReference
  2
*B99
 10
0.0
 20
0.0
 30
0.0
  0
INSERT
  5
47C
100
AcDbEntity
  8
0
  6
Continuous
 62
     8
100
AcDbBlockReference
  2
*B100
 10
0.0
 20
0.0
 30
0.0
  0
INSERT
  5
48B
100
AcDbEntity
  8
0
  6
Continuous
 62
     8
100
AcDbBlockReference
  2
*B101
 10
0.0
 20
0.0
 30
0.0
  0
INSERT
  5
491
100
AcDbEntity
  8
0
  6
Continuous
 62
     8
100
AcDbBlockReference
  2
*B102
 10
0.0
 20
0.0
 30
0.0
  0
INSERT
  5
497
100
AcDbEntity
  8
0
  6
Continuous
 62
     8
100
AcDbBlockReference
  2
*B103
 10
0.0
 20
0.0
 30
0.0
  0
INSERT
  5
49C
100
AcDbEntity
  8
0
  6
Continuous
 62
     8
100
AcDbBlockReference
  2
*B104
 10
0.0
 20
0.0
 30
0.0
  0
INSERT
  5
4A2
100
AcDbEntity
  8
0
  6
Continuous
 62
     8
100
AcDbBlockReference
  2
*B105
 10
0.0
 20
0.0
 30
0.0
  0
INSERT
  5
4A8
100
AcDbEntity
  8
0
  6
Continuous
 62
     8
100
AcDbBlockReference
  2
*B106
 10
0.0
 20
0.0
 30
0.0
  0
INSERT
  5
4B5
100
AcDbEntity
  8
0
  6
Continuous
 62
     8
100
AcDbBlockReference
  2
*B107
 10
0.0
 20
0.0
 30
0.0
  0
INSERT
  5
4BB
100
AcDbEntity
  8
0
  6
Continuous
 62
     8
100
AcDbBlockReference
  2
*B108
 10
0.0
 20
0.0
 30
0.0
  0
INSERT
  5
4C1
100
AcDbEntity
  8
0
  6
Continuous
 62
     8
100
AcDbBlockReference
  2
*B109
 10
0.0
 20
0.0
 30
0.0
  0
INSERT
  5
4C7
100
AcDbEntity
  8
0
  6
Continuous
 62
     8
100
AcDbBlockReference
  2
*B110
 10
0.0
 20
0.0
 30
0.0
  0
INSERT
  5
4CD
100
AcDbEntity
  8
0
  6
Continuous
 62
     8
100
AcDbBlockReference
  2
*B111
 10
0.0
 20
0.0
 30
0.0
  0
INSERT
  5
4D3
100
AcDbEntity
  8
0
  6
Continuous
 62
     8
100
AcDbBlockReference
  2
*B112
 10
0.0
 20
0.0
 30
0.0
  0
INSERT
  5
4DA
100
AcDbEntity
  8
0
  6
Continuous
 62
     8
100
AcDbBlockReference
  2
*B113
 10
0.0
 20
0.0
 30
0.0
  0
INSERT
  5
4E0
100
AcDbEntity
  8
0
  6
Continuous
 62
     8
100
AcDbBlockReference
  2
*B114
 10
0.0
 20
0.0
 30
0.0
  0
INSERT
  5
4E6
100
AcDbEntity
  8
0
  6
Continuous
 62
     8
100
AcDbBlockReference
  2
*B115
 10
0.0
 20
0.0
 30
0.0
  0
INSERT
  5
4EC
100
AcDbEntity
  8
0
  6
Continuous
 62
     8
100
AcDbBlockReference
  2
*B116
 10
0.0
 20
0.0
 30
0.0
  0
INSERT
  5
4F2
100
AcDbEntity
  8
0
  6
Continuous
 62
     8
100
AcDbBlockReference
  2
*B117
 10
0.0
 20
0.0
 30
0.0
  0
INSERT
  5
4F8
100
AcDbEntity
  8
0
  6
Continuous
 62
     8
100
AcDbBlockReference
  2
*B118
 10
0.0
 20
0.0
 30
0.0
  0
INSERT
  5
4FE
100
AcDbEntity
  8
0
  6
Continuous
 62
     8
100
AcDbBlockReference
  2
*B119
 10
0.0
 20
0.0
 30
0.0
  0
INSERT
  5
50D
100
AcDbEntity
  8
0
  6
Continuous
 62
     8
100
AcDbBlockReference
  2
*B120
 10
0.0
 20
0.0
 30
0.0
  0
INSERT
  5
512
100
AcDbEntity
  8
0
  6
Continuous
 62
     8
100
AcDbBlockReference
  2
*B121
 10
0.0
 20
0.0
 30
0.0
  0
INSERT
  5
518
100
AcDbEntity
  8
0
  6
Continuous
 62
     8
100
AcDbBlockReference
  2
*B122
 10
0.0
 20
0.0
 30
0.0
  0
INSERT
  5
51E
100
AcDbEntity
  8
0
  6
Continuous
 62
     8
100
AcDbBlockReference
  2
*B123
 10
0.0
 20
0.0
 30
0.0
  0
INSERT
  5
524
100
AcDbEntity
  8
0
  6
Continuous
 62
     8
100
AcDbBlockReference
  2
*B124
 10
0.0
 20
0.0
 30
0.0
  0
INSERT
  5
542
100
AcDbEntity
  8
0
  6
Continuous
 62
     8
100
AcDbBlockReference
  2
*B125
 10
0.0
 20
0.0
 30
0.0
  0
INSERT
  5
548
100
AcDbEntity
  8
0
  6
Continuous
 62
     8
100
AcDbBlockReference
  2
*B126
 10
0.0
 20
0.0
 30
0.0
  0
INSERT
  5
54E
100
AcDbEntity
  8
0
  6
Continuous
 62
     8
100
AcDbBlockReference
  2
*B127
 10
0.0
 20
0.0
 30
0.0
  0
INSERT
  5
554
100
AcDbEntity
  8
0
  6
Continuous
 62
     8
100
AcDbBlockReference
  2
*B128
 10
0.0
 20
0.0
 30
0.0
  0
INSERT
  5
55A
100
AcDbEntity
  8
0
  6
Continuous
 62
     8
100
AcDbBlockReference
  2
*B129
 10
0.0
 20
0.0
 30
0.0
  0
INSERT
  5
569
100
AcDbEntity
  8
0
  6
Continuous
 62
     8
100
AcDbBlockReference
  2
*B130
 10
0.0
 20
0.0
 30
0.0
  0
INSERT
  5
577
100
AcDbEntity
  8
0
  6
Continuous
 62
     8
100
AcDbBlockReference
  2
*B131
 10
0.0
 20
0.0
 30
0.0
  0
INSERT
  5
57C
100
AcDbEntity
  8
0
  6
Continuous
 62
     8
100
AcDbBlockReference
  2
*B132
 10
0.0
 20
0.0
 30
0.0
  0
INSERT
  5
582
100
AcDbEntity
  8
0
  6
Continuous
 62
     8
100
AcDbBlockReference
  2
*B133
 10
0.0
 20
0.0
 30
0.0
  0
INSERT
  5
588
100
AcDbEntity
  8
0
  6
Continuous
 62
     8
100
AcDbBlockReference
  2
*B134
 10
0.0
 20
0.0
 30
0.0
  0
INSERT
  5
597
100
AcDbEntity
  8
0
  6
Continuous
 62
     8
100
AcDbBlockReference
  2
*B135
 10
0.0
 20
0.0
 30
0.0
  0
INSERT
  5
59D
100
AcDbEntity
  8
0
  6
Continuous
 62
     8
100
AcDbBlockReference
  2
*B136
 10
0.0
 20
0.0
 30
0.0
  0
INSERT
  5
5A3
100
AcDbEntity
  8
0
  6
Continuous
 62
     8
100
AcDbBlockReference
  2
*B137
 10
0.0
 20
0.0
 30
0.0
  0
INSERT
  5
5A9
100
AcDbEntity
  8
0
  6
Continuous
 62
     6
100
AcDbBlockReference
  2
*B138
 10
0.0
 20
0.0
 30
0.0
  0
INSERT
  5
5AF
100
AcDbEntity
  8
0
  6
Continuous
 62
     6
100
AcDbBlockReference
  2
*B139
 10
0.0
 20
0.0
 30
0.0
  0
INSERT
  5
5B5
100
AcDbEntity
  8
0
  6
Continuous
 62
     6
100
AcDbBlockReference
  2
*B140
 10
0.0
 20
0.0
 30
0.0
  0
INSERT
  5
5BB
100
AcDbEntity
  8
0
  6
Continuous
 62
     6
100
AcDbBlockReference
  2
*B141
 10
0.0
 20
0.0
 30
0.0
  0
INSERT
  5
5C1
100
AcDbEntity
  8
0
  6
Continuous
 62
     6
100
AcDbBlockReference
  2
*B142
 10
0.0
 20
0.0
 30
0.0
  0
INSERT
  5
5C7
100
AcDbEntity
  8
0
  6
Continuous
 62
     6
100
AcDbBlockReference
  2
*B143
 10
0.0
 20
0.0
 30
0.0
  0
INSERT
  5
5CD
100
AcDbEntity
  8
0
  6
Continuous
 62
     6
100
AcDbBlockReference
  2
*B144
 10
0.0
 20
0.0
 30
0.0
  0
INSERT
  5
5D3
100
AcDbEntity
  8
0
  6
Continuous
 62
     6
100
AcDbBlockReference
  2
*B145
 10
0.0
 20
0.0
 30
0.0
  0
INSERT
  5
5D9
100
AcDbEntity
  8
0
  6
Continuous
 62
     6
100
AcDbBlockReference
  2
*B146
 10
0.0
 20
0.0
 30
0.0
  0
INSERT
  5
5DF
100
AcDbEntity
  8
0
  6
Continuous
 62
     6
100
AcDbBlockReference
  2
*B147
 10
0.0
 20
0.0
 30
0.0
  0
INSERT
  5
5E5
100
AcDbEntity
  8
0
  6
Continuous
 62
     6
100
AcDbBlockReference
  2
*B148
 10
0.0
 20
0.0
 30
0.0
  0
INSERT
  5
5EB
100
AcDbEntity
  8
0
  6
Continuous
 62
     6
100
AcDbBlockReference
  2
*B149
 10
0.0
 20
0.0
 30
0.0
  0
INSERT
  5
5F1
100
AcDbEntity
  8
0
  6
Continuous
 62
     6
100
AcDbBlockReference
  2
*B150
 10
0.0
 20
0.0
 30
0.0
  0
INSERT
  5
5F7
100
AcDbEntity
  8
0
  6
Continuous
 62
     6
100
AcDbBlockReference
  2
*B151
 10
0.0
 20
0.0
 30
0.0
  0
INSERT
  5
5FD
100
AcDbEntity
  8
0
  6
Continuous
 62
     6
100
AcDbBlockReference
  2
*B152
 10
0.0
 20
0.0
 30
0.0
  0
INSERT
  5
603
100
AcDbEntity
  8
0
  6
Continuous
 62
     6
100
AcDbBlockReference
  2
*B153
 10
0.0
 20
0.0
 30
0.0
  0
INSERT
  5
609
100
AcDbEntity
  8
0
  6
Continuous
 62
     6
100
AcDbBlockReference
  2
*B154
 10
0.0
 20
0.0
 30
0.0
  0
INSERT
  5
60F
100
AcDbEntity
  8
0
  6
Continuous
 62
     6
100
AcDbBlockReference
  2
*B155
 10
0.0
 20
0.0
 30
0.0
  0
INSERT
  5
615
100
AcDbEntity
  8
0
  6
Continuous
 62
     6
100
AcDbBlockReference
  2
*B156
 10
0.0
 20
0.0
 30
0.0
  0
INSERT
  5
61B
100
AcDbEntity
  8
0
  6
Continuous
 62
     6
100
AcDbBlockReference
  2
*B157
 10
0.0
 20
0.0
 30
0.0
  0
INSERT
  5
621
100
AcDbEntity
  8
0
  6
Continuous
 62
     6
100
AcDbBlockReference
  2
*B158
 10
0.0
 20
0.0
 30
0.0
  0
INSERT
  5
627
100
AcDbEntity
  8
0
  6
Continuous
 62
     6
100
AcDbBlockReference
  2
*B159
 10
0.0
 20
0.0
 30
0.0
  0
INSERT
  5
62D
100
AcDbEntity
  8
0
  6
Continuous
 62
     6
100
AcDbBlockReference
  2
*B160
 10
0.0
 20
0.0
 30
0.0
  0
INSERT
  5
633
100
AcDbEntity
  8
0
  6
Continuous
 62
     6
100
AcDbBlockReference
  2
*B161
 10
0.0
 20
0.0
 30
0.0
  0
INSERT
  5
639
100
AcDbEntity
  8
0
  6
Continuous
 62
     6
100
AcDbBlockReference
  2
*B162
 10
0.0
 20
0.0
 30
0.0
  0
INSERT
  5
63F
100
AcDbEntity
  8
0
  6
Continuous
 62
     6
100
AcDbBlockReference
  2
*B163
 10
0.0
 20
0.0
 30
0.0
  0
INSERT
  5
645
100
AcDbEntity
  8
0
  6
Continuous
 62
     6
100
AcDbBlockReference
  2
*B164
 10
0.0
 20
0.0
 30
0.0
  0
INSERT
  5
64B
100
AcDbEntity
  8
0
  6
Continuous
 62
     6
100
AcDbBlockReference
  2
*B165
 10
0.0
 20
0.0
 30
0.0
  0
INSERT
  5
651
100
AcDbEntity
  8
0
  6
Continuous
 62
     6
100
AcDbBlockReference
  2
*B166
 10
0.0
 20
0.0
 30
0.0
  0
INSERT
  5
657
100
AcDbEntity
  8
0
  6
Continuous
 62
     6
100
AcDbBlockReference
  2
*B167
 10
0.0
 20
0.0
 30
0.0
  0
INSERT
  5
65D
100
AcDbEntity
  8
0
  6
Continuous
 62
     6
100
AcDbBlockReference
  2
*B168
 10
0.0
 20
0.0
 30
0.0
  0
INSERT
  5
663
100
AcDbEntity
  8
0
  6
Continuous
 62
     6
100
AcDbBlockReference
  2
*B169
 10
0.0
 20
0.0
 30
0.0
  0
INSERT
  5
669
100
AcDbEntity
  8
0
  6
Continuous
 62
     6
100
AcDbBlockReference
  2
*B170
 10
0.0
 20
0.0
 30
0.0
  0
INSERT
  5
66F
100
AcDbEntity
  8
0
  6
Continuous
 62
     6
100
AcDbBlockReference
  2
*B171
 10
0.0
 20
0.0
 30
0.0
  0
INSERT
  5
675
100
AcDbEntity
  8
0
  6
Continuous
 62
     6
100
AcDbBlockReference
  2
*B172
 10
0.0
 20
0.0
 30
0.0
  0
INSERT
  5
67B
100
AcDbEntity
  8
0
  6
Continuous
 62
     6
100
AcDbBlockReference
  2
*B173
 10
0.0
 20
0.0
 30
0.0
  0
INSERT
  5
681
100
AcDbEntity
  8
0
  6
Continuous
 62
     6
100
AcDbBlockReference
  2
*B174
 10
0.0
 20
0.0
 30
0.0
  0
INSERT
  5
687
100
AcDbEntity
  8
0
  6
Continuous
 62
     6
100
AcDbBlockReference
  2
*B175
 10
0.0
 20
0.0
 30
0.0
  0
INSERT
  5
68D
100
AcDbEntity
  8
0
  6
Continuous
 62
     6
100
AcDbBlockReference
  2
*B176
 10
0.0
 20
0.0
 30
0.0
  0
INSERT
  5
693
100
AcDbEntity
  8
0
  6
Continuous
 62
     6
100
AcDbBlockReference
  2
*B177
 10
0.0
 20
0.0
 30
0.0
  0
INSERT
  5
699
100
AcDbEntity
  8
0
  6
Continuous
 62
     6
100
AcDbBlockReference
  2
*B178
 10
0.0
 20
0.0
 30
0.0
  0
INSERT
  5
69F
100
AcDbEntity
  8
0
  6
Continuous
 62
     6
100
AcDbBlockReference
  2
*B179
 10
0.0
 20
0.0
 30
0.0
  0
INSERT
  5
6A5
100
AcDbEntity
  8
0
  6
Continuous
 62
     6
100
AcDbBlockReference
  2
*B180
 10
0.0
 20
0.0
 30
0.0
  0
INSERT
  5
6AB
100
AcDbEntity
  8
0
  6
Continuous
 62
     6
100
AcDbBlockReference
  2
*B181
 10
0.0
 20
0.0
 30
0.0
  0
INSERT
  5
6B1
100
AcDbEntity
  8
0
  6
Continuous
 62
     6
100
AcDbBlockReference
  2
*B182
 10
0.0
 20
0.0
 30
0.0
  0
INSERT
  5
6B7
100
AcDbEntity
  8
0
  6
Continuous
 62
     6
100
AcDbBlockReference
  2
*B183
 10
0.0
 20
0.0
 30
0.0
  0
INSERT
  5
6BD
100
AcDbEntity
  8
0
  6
Continuous
 62
     6
100
AcDbBlockReference
  2
*B184
 10
0.0
 20
0.0
 30
0.0
  0
INSERT
  5
6C3
100
AcDbEntity
  8
0
  6
Continuous
 62
     6
100
AcDbBlockReference
  2
*B185
 10
0.0
 20
0.0
 30
0.0
  0
INSERT
  5
6CA
100
AcDbEntity
  8
0
  6
Continuous
 62
     0
100
AcDbBlockReference
  2
*B186
 10
0.0
 20
0.0
 30
0.0
  0
INSERT
  5
6D1
100
AcDbEntity
  8
0
  6
Continuous
 62
     0
100
AcDbBlockReference
  2
*B187
 10
0.0
 20
0.0
 30
0.0
  0
INSERT
  5
6D8
100
AcDbEntity
  8
0
  6
Continuous
 62
     0
100
AcDbBlockReference
  2
*B188
 10
0.0
 20
0.0
 30
0.0
  0
INSERT
  5
6DD
100
AcDbEntity
  8
TEXT
  6
Continuous
 62
     0
100
AcDbBlockReference
  2
*B189
 10
0.0
 20
0.0
 30
0.0
  0
INSERT
  5
6E2
100
AcDbEntity
  8
TEXT
  6
Continuous
 62
     0
100
AcDbBlockReference
  2
*B190
 10
0.0
 20
0.0
 30
0.0
  0
INSERT
  5
6E7
100
AcDbEntity
  8
TEXT
  6
Continuous
 62
     0
100
AcDbBlockReference
  2
*B191
 10
0.0
 20
0.0
 30
0.0
  0
INSERT
  5
6EC
100
AcDbEntity
  8
TEXT
  6
Continuous
 62
     0
100
AcDbBlockReference
  2
*B192
 10
0.0
 20
0.0
 30
0.0
  0
INSERT
  5
6F1
100
AcDbEntity
  8
TEXT
  6
Continuous
 62
     0
100
AcDbBlockReference
  2
*B193
 10
0.0
 20
0.0
 30
0.0
  0
INSERT
  5
6F6
100
AcDbEntity
  8
TEXT
  6
Continuous
 62
     0
100
AcDbBlockReference
  2
*B194
 10
0.0
 20
0.0
 30
0.0
  0
INSERT
  5
6FB
100
AcDbEntity
  8
TEXT
  6
Continuous
 62
     0
100
AcDbBlockReference
  2
*B195
 10
0.0
 20
0.0
 30
0.0
  0
INSERT
  5
700
100
AcDbEntity
  8
TEXT
  6
Continuous
 62
     0
100
AcDbBlockReference
  2
*B196
 10
0.0
 20
0.0
 30
0.0
  0
INSERT
  5
705
100
AcDbEntity
  8
TEXT
  6
Continuous
 62
     0
100
AcDbBlockReference
  2
*B197
 10
0.0
 20
0.0
 30
0.0
  0
INSERT
  5
70A
100
AcDbEntity
  8
TEXT
  6
Continuous
 62
     0
100
AcDbBlockReference
  2
*B198
 10
0.0
 20
0.0
 30
0.0
  0
INSERT
  5
70F
100
AcDbEntity
  8
TEXT
  6
Continuous
 62
     0
100
AcDbBlockReference
  2
*B199
 10
0.0
 20
0.0
 30
0.0
  0
INSERT
  5
714
100
AcDbEntity
  8
TEXT
  6
Continuous
 62
     0
100
AcDbBlockReference
  2
*B200
 10
0.0
 20
0.0
 30
0.0
  0
INSERT
  5
719
100
AcDbEntity
  8
TEXT
  6
Continuous
 62
     0
100
AcDbBlockReference
  2
*B201
 10
0.0
 20
0.0
 30
0.0
  0
INSERT
  5
71E
100
AcDbEntity
  8
TEXT
  6
Continuous
 62
     0
100
AcDbBlockReference
  2
*B202
 10
0.0
 20
0.0
 30
0.0
  0
INSERT
  5
723
100
AcDbEntity
  8
TEXT
  6
Continuous
 62
     0
100
AcDbBlockReference
  2
*B203
 10
0.0
 20
0.0
 30
0.0
  0
INSERT
  5
728
100
AcDbEntity
  8
TEXT
  6
Continuous
 62
     0
100
AcDbBlockReference
  2
*B204
 10
0.0
 20
0.0
 30
0.0
  0
INSERT
  5
72D
100
AcDbEntity
  8
TEXT
  6
Continuous
 62
     0
100
AcDbBlockReference
  2
*B205
 10
0.0
 20
0.0
 30
0.0
  0
INSERT
  5
732
100
AcDbEntity
  8
TEXT
  6
Continuous
 62
     0
100
AcDbBlockReference
  2
*B206
 10
0.0
 20
0.0
 30
0.0
  0
INSERT
  5
737
100
AcDbEntity
  8
TEXT
  6
Continuous
 62
     0
100
AcDbBlockReference
  2
*B207
 10
0.0
 20
0.0
 30
0.0
  0
INSERT
  5
73C
100
AcDbEntity
  8
TEXT
  6
Continuous
 62
     0
100
AcDbBlockReference
  2
*B208
 10
0.0
 20
0.0
 30
0.0
  0
INSERT
  5
741
100
AcDbEntity
  8
TEXT
  6
Continuous
 62
     0
100
AcDbBlockReference
  2
*B209
 10
0.0
 20
0.0
 30
0.0
  0
INSERT
  5
746
100
AcDbEntity
  8
TEXT
  6
Continuous
 62
     0
100
AcDbBlockReference
  2
*B210
 10
0.0
 20
0.0
 30
0.0
  0
INSERT
  5
74B
100
AcDbEntity
  8
TEXT
  6
Continuous
 62
     0
100
AcDbBlockReference
  2
*B211
 10
0.0
 20
0.0
 30
0.0
  0
INSERT
  5
750
100
AcDbEntity
  8
TEXT
  6
Continuous
 62
     0
100
AcDbBlockReference
  2
*B212
 10
0.0
 20
0.0
 30
0.0
  0
INSERT
  5
755
100
AcDbEntity
  8
TEXT
  6
Continuous
 62
     0
100
AcDbBlockReference
  2
*B213
 10
0.0
 20
0.0
 30
0.0
  0
INSERT
  5
75A
100
AcDbEntity
  8
TEXT
  6
Continuous
 62
     0
100
AcDbBlockReference
  2
*B214
 10
0.0
 20
0.0
 30
0.0
  0
ENDSEC
  0
SECTION
  2
OBJECTS
  0
DICTIONARY
  5
19
100
AcDbDictionary
280
     0
281
     1
  3
ACAD_GROUP
350
1A
  3
ACAD_MLINESTYLE
350
1B
  3
ACAD_LAYOUT
350
1E
  3
ACAD_PLOTSETTINGS
350
22
  3
ACAD_PLOTSTYLENAME
350
1F
  3
ACAD_WIPEOUT_VARS
350
23
  0
DICTIONARY
  5
1A
102
{ACAD_REACTORS
330
19
102
}
100
AcDbDictionary
280
     0
281
     1
  0
DICTIONARY
  5
1B
102
{ACAD_REACTORS
330
19
102
}
100
AcDbDictionary
280
     0
281
     1
  3
Standard
350
1C
  0
MLINESTYLE
  5
1C
102
{ACAD_REACTORS
330
1B
102
}
100
AcDbMlineStyle
  2
Standard
 70
     0
  3

 62
     0
 51
90.0
 52
90.0
 71
     2
 49
0.5
 62
   256
  6
BYLAYER
 49
-0.5
 62
   256
  6
BYLAYER
  0
ACDBDICTIONARYWDFLT
  5
1F
102
{ACAD_REACTORS
330
19
102
}
100
AcDbDictionary
281
     1
  3
Normal
350
1D
100
AcDbDictionaryWithDefault
340
1D
  0
ACDBPLACEHOLDER
  5
1D
102
{ACAD_REACTORS
330
1F
102
}
  0
LAYOUT
  5
20
102
{ACAD_REACTORS
330
1E
102
}
100
AcDbPlotSettings
  1

  2

  4

  6

 40
0.0
 41
0.0
 42
0.0
 43
0.0
 44
0.0
 45
0.0
 46
0.0
 47
0.0
 48
0.0
 49
0.0
140
0.0
141
0.0
142
1.0
143
1.0
 70
     0
 72
     0
 73
     0
 74
     0
  7

 75
     0
147
1.0
148
0.0
149
0.0
100
AcDbLayout
  1
Model
 70
     0
 71
     0
 10
0.0
 20
0.0
 11
0.0
 21
0.0
 12
0.0
 22
0.0
 32
0.0
 14
0.0
 24
0.0
 34
0.0
 15
0.0
 25
0.0
 35
0.0
146
0.0
 13
0.0
 23
0.0
 33
0.0
 16
0.0
 26
0.0
 36
0.0
 17
0.0
 27
0.0
 37
0.0
 76
     0
330
A
331
0
345
0
346
0
  0
LAYOUT
  5
21
102
{ACAD_REACTORS
330
1E
102
}
100
AcDbPlotSettings
  1

  2

  4

  6

 40
0.0
 41
0.0
 42
0.0
 43
0.0
 44
0.0
 45
0.0
 46
0.0
 47
0.0
 48
0.0
 49
0.0
140
0.0
141
0.0
142
1.0
143
1.0
 70
     0
 72
     0
 73
     0
 74
     0
  7

 75
     0
147
1.0
148
0.0
149
0.0
100
AcDbLayout
  1
Layout1
 70
     0
 71
     0
 10
0.0
 20
0.0
 11
0.0
 21
0.0
 12
0.0
 22
0.0
 32
0.0
 14
0.0
 24
0.0
 34
0.0
 15
0.0
 25
0.0
 35
0.0
146
0.0
 13
0.0
 23
0.0
 33
0.0
 16
0.0
 26
0.0
 36
0.0
 17
0.0
 27
0.0
 37
0.0
 76
     0
330
B
331
0
345
0
346
0
  0
DICTIONARY
  5
1E
102
{ACAD_REACTORS
330
19
102
}
100
AcDbDictionary
280
     0
281
     1
  3
Layout1
350
21
  3
Model
350
20
  0
DICTIONARY
  5
22
102
{ACAD_REACTORS
330
19
102
}
100
AcDbDictionary
280
     0
281
     1
  0
WIPEOUTVARIABLES
  5
23
100
AcDbWipeoutVariables
 70
     1
  0
ENDSEC
  0
EOF
